  0
SECTION
  2
HEADER
  9
$ACADVER
  1
AC1032
  9
$ACADMAINTVER
 90
      197
  9
$DWGCODEPAGE
  3
ANSI_932
  9
$REQUIREDVERSIONS
160
                 0
  9
$INSBASE
 10
0.0
 20
0.0
 30
0.0
  9
$EXTMIN
 10
1.000000000000000E+20
 20
1.000000000000000E+20
 30
1.000000000000000E+20
  9
$EXTMAX
 10
-1.000000000000000E+20
 20
-1.000000000000000E+20
 30
-1.000000000000000E+20
  9
$LIMMIN
 10
0.0
 20
0.0
  9
$LIMMAX
 10
12.0
 20
9.0
  9
$ORTHOMODE
 70
     0
  9
$REGENMODE
 70
     1
  9
$FILLMODE
 70
     1
  9
$QTEXTMODE
 70
     0
  9
$MIRRTEXT
 70
     0
  9
$LTSCALE
 40
1.0
  9
$ATTMODE
 70
     1
  9
$TEXTSIZE
 40
0.2
  9
$TRACEWID
 40
0.05
  9
$TEXTSTYLE
  7
Standard
  9
$CLAYER
  8
0
  9
$CELTYPE
  6
ByLayer
  9
$CECOLOR
 62
   256
  9
$CELTSCALE
 40
1.0
  9
$DISPSILH
 70
     0
  9
$DIMSCALE
 40
1.0
  9
$DIMASZ
 40
0.18
  9
$DIMEXO
 40
0.0625
  9
$DIMDLI
 40
0.38
  9
$DIMRND
 40
0.0
  9
$DIMDLE
 40
0.0
  9
$DIMEXE
 40
0.18
  9
$DIMTP
 40
0.0
  9
$DIMTM
 40
0.0
  9
$DIMTXT
 40
0.18
  9
$DIMCEN
 40
0.09
  9
$DIMTSZ
 40
0.0
  9
$DIMTOL
 70
     0
  9
$DIMLIM
 70
     0
  9
$DIMTIH
 70
     1
  9
$DIMTOH
 70
     1
  9
$DIMSE1
 70
     0
  9
$DIMSE2
 70
     0
  9
$DIMTAD
 70
     0
  9
$DIMZIN
 70
     0
  9
$DIMBLK
  1

  9
$DIMASO
 70
     1
  9
$DIMSHO
 70
     1
  9
$DIMPOST
  1

  9
$DIMAPOST
  1

  9
$DIMALT
 70
     0
  9
$DIMALTD
 70
     2
  9
$DIMALTF
 40
25.4
  9
$DIMLFAC
 40
1.0
  9
$DIMTOFL
 70
     0
  9
$DIMTVP
 40
0.0
  9
$DIMTIX
 70
     0
  9
$DIMSOXD
 70
     0
  9
$DIMSAH
 70
     0
  9
$DIMBLK1
  1

  9
$DIMBLK2
  1

  9
$DIMSTYLE
  2
Standard
  9
$DIMCLRD
 70
     0
  9
$DIMCLRE
 70
     0
  9
$DIMCLRT
 70
     0
  9
$DIMTFAC
 40
1.0
  9
$DIMGAP
 40
0.09
  9
$DIMJUST
 70
     0
  9
$DIMSD1
 70
     0
  9
$DIMSD2
 70
     0
  9
$DIMTOLJ
 70
     1
  9
$DIMTZIN
 70
     0
  9
$DIMALTZ
 70
     0
  9
$DIMALTTZ
 70
     0
  9
$DIMUPT
 70
     0
  9
$DIMDEC
 70
     4
  9
$DIMTDEC
 70
     4
  9
$DIMALTU
 70
     2
  9
$DIMALTTD
 70
     2
  9
$DIMTXSTY
  7
Standard
  9
$DIMAUNIT
 70
     0
  9
$DIMADEC
 70
     0
  9
$DIMALTRND
 40
0.0
  9
$DIMAZIN
 70
     0
  9
$DIMDSEP
 70
    46
  9
$DIMATFIT
 70
     3
  9
$DIMFRAC
 70
     0
  9
$DIMLDRBLK
  1

  9
$DIMLUNIT
 70
     2
  9
$DIMLWD
 70
    -2
  9
$DIMLWE
 70
    -2
  9
$DIMTMOVE
 70
     0
  9
$DIMFXL
 40
1.0
  9
$DIMFXLON
 70
     0
  9
$DIMJOGANG
 40
0.7853981633974483
  9
$DIMTFILL
 70
     0
  9
$DIMTFILLCLR
 70
     0
  9
$DIMARCSYM
 70
     0
  9
$DIMLTYPE
  6

  9
$DIMLTEX1
  6

  9
$DIMLTEX2
  6

  9
$DIMTXTDIRECTION
 70
     0
  9
$LUNITS
 70
     2
  9
$LUPREC
 70
     4
  9
$SKETCHINC
 40
0.1
  9
$FILLETRAD
 40
0.0
  9
$AUNITS
 70
     0
  9
$AUPREC
 70
     0
  9
$MENU
  1
.
  9
$ELEVATION
 40
0.0
  9
$PELEVATION
 40
0.0
  9
$THICKNESS
 40
0.0
  9
$LIMCHECK
 70
     0
  9
$CHAMFERA
 40
0.0
  9
$CHAMFERB
 40
0.0
  9
$CHAMFERC
 40
0.0
  9
$CHAMFERD
 40
0.0
  9
$SKPOLY
 70
     0
  9
$TDCREATE
 40
2459549.557673611
  9
$TDUCREATE
 40
2459549.182673611
  9
$TDUPDATE
 40
2459549.557673611
  9
$TDUUPDATE
 40
2459549.182673611
  9
$TDINDWG
 40
0.0000000000
  9
$TDUSRTIMER
 40
0.0000000000
  9
$USRTIMER
 70
     1
  9
$ANGBASE
 50
0.0
  9
$ANGDIR
 70
     0
  9
$PDMODE
 70
     0
  9
$PDSIZE
 40
0.0
  9
$PLINEWID
 40
0.0
  9
$SPLFRAME
 70
     0
  9
$SPLINETYPE
 70
     6
  9
$SPLINESEGS
 70
     8
  9
$HANDSEED
  5
1B1
  9
$SURFTAB1
 70
     6
  9
$SURFTAB2
 70
     6
  9
$SURFTYPE
 70
     6
  9
$SURFU
 70
     6
  9
$SURFV
 70
     6
  9
$UCSBASE
  2

  9
$UCSNAME
  2

  9
$UCSORG
 10
0.0
 20
0.0
 30
0.0
  9
$UCSXDIR
 10
1.0
 20
0.0
 30
0.0
  9
$UCSYDIR
 10
0.0
 20
1.0
 30
0.0
  9
$UCSORTHOREF
  2

  9
$UCSORTHOVIEW
 70
     0
  9
$UCSORGTOP
 10
0.0
 20
0.0
 30
0.0
  9
$UCSORGBOTTOM
 10
0.0
 20
0.0
 30
0.0
  9
$UCSORGLEFT
 10
0.0
 20
0.0
 30
0.0
  9
$UCSORGRIGHT
 10
0.0
 20
0.0
 30
0.0
  9
$UCSORGFRONT
 10
0.0
 20
0.0
 30
0.0
  9
$UCSORGBACK
 10
0.0
 20
0.0
 30
0.0
  9
$PUCSBASE
  2

  9
$PUCSNAME
  2

  9
$PUCSORG
 10
0.0
 20
0.0
 30
0.0
  9
$PUCSXDIR
 10
1.0
 20
0.0
 30
0.0
  9
$PUCSYDIR
 10
0.0
 20
1.0
 30
0.0
  9
$PUCSORTHOREF
  2

  9
$PUCSORTHOVIEW
 70
     0
  9
$PUCSORGTOP
 10
0.0
 20
0.0
 30
0.0
  9
$PUCSORGBOTTOM
 10
0.0
 20
0.0
 30
0.0
  9
$PUCSORGLEFT
 10
0.0
 20
0.0
 30
0.0
  9
$PUCSORGRIGHT
 10
0.0
 20
0.0
 30
0.0
  9
$PUCSORGFRONT
 10
0.0
 20
0.0
 30
0.0
  9
$PUCSORGBACK
 10
0.0
 20
0.0
 30
0.0
  9
$USERI1
 70
     0
  9
$USERI2
 70
     0
  9
$USERI3
 70
     0
  9
$USERI4
 70
     0
  9
$USERI5
 70
     0
  9
$USERR1
 40
0.0
  9
$USERR2
 40
0.0
  9
$USERR3
 40
0.0
  9
$USERR4
 40
0.0
  9
$USERR5
 40
0.0
  9
$WORLDVIEW
 70
     1
  9
$SHADEDGE
 70
     3
  9
$SHADEDIF
 70
    70
  9
$TILEMODE
 70
     1
  9
$MAXACTVP
 70
    64
  9
$PINSBASE
 10
0.0
 20
0.0
 30
0.0
  9
$PLIMCHECK
 70
     0
  9
$PEXTMIN
 10
1.000000000000000E+20
 20
1.000000000000000E+20
 30
1.000000000000000E+20
  9
$PEXTMAX
 10
-1.000000000000000E+20
 20
-1.000000000000000E+20
 30
-1.000000000000000E+20
  9
$PLIMMIN
 10
0.0
 20
0.0
  9
$PLIMMAX
 10
12.0
 20
9.0
  9
$UNITMODE
 70
     0
  9
$VISRETAIN
 70
     1
  9
$PLINEGEN
 70
     0
  9
$PSLTSCALE
 70
     1
  9
$TREEDEPTH
 70
  3020
  9
$CMLSTYLE
  2
Standard
  9
$CMLJUST
 70
     0
  9
$CMLSCALE
 40
1.0
  9
$PROXYGRAPHICS
 70
     1
  9
$MEASUREMENT
 70
     0
  9
$CELWEIGHT
370
    -1
  9
$ENDCAPS
280
     0
  9
$JOINSTYLE
280
     0
  9
$LWDISPLAY
290
     1
  9
$INSUNITS
 70
     4
  9
$HYPERLINKBASE
  1

  9
$STYLESHEET
  1

  9
$XEDIT
290
     1
  9
$CEPSNTYPE
380
     0
  9
$PSTYLEMODE
290
     1
  9
$FINGERPRINTGUID
  2
{00D3580D-8B6B-154C-A01D-1E5685ECF780}
  9
$VERSIONGUID
  2
{18FF0729-88C3-4746-8690-EAF10C01C045}
  9
$EXTNAMES
290
     1
  9
$PSVPSCALE
 40
0.0
  9
$OLESTARTUP
290
     0
  9
$SORTENTS
280
   127
  9
$INDEXCTL
280
     0
  9
$HIDETEXT
280
     1
  9
$XCLIPFRAME
280
     2
  9
$HALOGAP
280
     0
  9
$OBSCOLOR
 70
   257
  9
$OBSLTYPE
280
     0
  9
$INTERSECTIONDISPLAY
280
     0
  9
$INTERSECTIONCOLOR
 70
   257
  9
$DIMASSOC
280
     2
  9
$PROJECTNAME
  1

  9
$CAMERADISPLAY
290
     0
  9
$LENSLENGTH
 40
50.0
  9
$CAMERAHEIGHT
 40
0.0
  9
$STEPSPERSEC
 40
2.0
  9
$STEPSIZE
 40
6.0
  9
$3DDWFPREC
 40
2.0
  9
$PSOLWIDTH
 40
0.25
  9
$PSOLHEIGHT
 40
4.0
  9
$LOFTANG1
 40
1.570796326794896
  9
$LOFTANG2
 40
1.570796326794896
  9
$LOFTMAG1
 40
0.0
  9
$LOFTMAG2
 40
0.0
  9
$LOFTPARAM
 70
     7
  9
$LOFTNORMALS
280
     1
  9
$LATITUDE
 40
37.795
  9
$LONGITUDE
 40
-122.394
  9
$NORTHDIRECTION
 40
0.0
  9
$TIMEZONE
 70
 -8000
  9
$LIGHTGLYPHDISPLAY
280
     1
  9
$TILEMODELIGHTSYNCH
280
     1
  9
$CMATERIAL
347
11
  9
$SOLIDHIST
280
     0
  9
$SHOWHIST
280
     1
  9
$DWFFRAME
280
     2
  9
$DGNFRAME
280
     0
  9
$REALWORLDSCALE
290
     1
  9
$INTERFERECOLOR
 62
     1
  9
$INTERFEREOBJVS
345
33
  9
$INTERFEREVPVS
346
30
  9
$CSHADOW
280
     0
  9
$SHADOWPLANELOCATION
 40
0.0
  0
ENDSEC
  0
SECTION
  2
CLASSES
  0
CLASS
  1
ACDBDICTIONARYWDFLT
  2
AcDbDictionaryWithDefault
  3
ObjectDBX Classes
 90
        0
 91
        1
280
     0
281
     0
  0
CLASS
  1
MATERIAL
  2
AcDbMaterial
  3
ObjectDBX Classes
 90
     1153
 91
        3
280
     0
281
     0
  0
CLASS
  1
VISUALSTYLE
  2
AcDbVisualStyle
  3
ObjectDBX Classes
 90
     4095
 91
       24
280
     0
281
     0
  0
CLASS
  1
SCALE
  2
AcDbScale
  3
ObjectDBX Classes
 90
     1153
 91
       17
280
     0
281
     0
  0
CLASS
  1
TABLESTYLE
  2
AcDbTableStyle
  3
ObjectDBX Classes
 90
     4095
 91
        1
280
     0
281
     0
  0
CLASS
  1
MLEADERSTYLE
  2
AcDbMLeaderStyle
  3
ACDB_MLEADERSTYLE_CLASS
 90
     4095
 91
        1
280
     0
281
     0
  0
CLASS
  1
ACDBSECTIONVIEWSTYLE
  2
AcDbSectionViewStyle
  3
ObjectDBX Classes
 90
     1025
 91
        1
280
     0
281
     0
  0
CLASS
  1
ACDBDETAILVIEWSTYLE
  2
AcDbDetailViewStyle
  3
ObjectDBX Classes
 90
     1025
 91
        1
280
     0
281
     0
  0
CLASS
  1
DICTIONARYVAR
  2
AcDbDictionaryVar
  3
ObjectDBX Classes
 90
        0
 91
        5
280
     0
281
     0
  0
CLASS
  1
CELLSTYLEMAP
  2
AcDbCellStyleMap
  3
ObjectDBX Classes
 90
     1152
 91
        1
280
     0
281
     0
  0
ENDSEC
  0
SECTION
  2
TABLES
  0
TABLE
  2
VPORT
  5
8
330
0
100
AcDbSymbolTable
 70
     1
  0
VPORT
  5
57
330
8
100
AcDbSymbolTableRecord
100
AcDbViewportTableRecord
  2
*Active
 70
     0
 10
0.0
 20
0.0
 11
1.0
 21
1.0
 12
0.0
 22
0.0
 13
0.0
 23
0.0
 14
1.0
 24
1.0
 15
0.0
 25
0.0
 16
0.0
 26
0.0
 36
1.0
 17
104.9513888626509
 27
148.5194444073147
 37
0.0
 40
303.0547499242999
 41
0.7073171871859853
 42
50.0
 43
0.0
 44
0.0
 50
0.0
 51
0.0
 71
     0
 72
   100
 73
     1
 74
     1
 75
     0
 76
     0
 77
     0
 78
     0
281
     0
 65
     1
110
0.0
120
0.0
130
0.0
111
1.0
121
0.0
131
0.0
112
0.0
122
1.0
132
0.0
 79
     0
146
0.0
 60
     3
 61
     5
292
     1
282
     1
141
0.0
142
0.0
 63
   250
421
  3355443
  0
ENDTAB
  0
TABLE
  2
LTYPE
  5
5
330
0
100
AcDbSymbolTable
 70
     6
  0
LTYPE
  5
5B
330
5
100
AcDbSymbolTableRecord
100
AcDbLinetypeTableRecord
  2
ByBlock
 70
     0
  3

 72
    65
 73
     0
 40
0.0
  0
LTYPE
  5
5C
330
5
100
AcDbSymbolTableRecord
100
AcDbLinetypeTableRecord
  2
ByLayer
 70
     0
  3

 72
    65
 73
     0
 40
0.0
  0
LTYPE
  5
5D
330
5
100
AcDbSymbolTableRecord
100
AcDbLinetypeTableRecord
  2
Continuous
 70
     0
  3
Solid line
 72
    65
 73
     0
 40
0.0
  0
LTYPE
  5
183
330
5
100
AcDbSymbolTableRecord
100
AcDbLinetypeTableRecord
  2
AI-Linetype-0
 70
     0
  3
Adobe Illustrator Linetype No. 0
 72
    65
 73
     4
 40
50.77648250052169
 49
31.73530181515239
 74
     0
 49
-6.347060228456434
 74
     0
 49
6.347060228456434
 74
     0
 49
-6.347060228456434
 74
     0
  0
LTYPE
  5
19E
330
5
100
AcDbSymbolTableRecord
100
AcDbLinetypeTableRecord
  2
AI-Linetype-1
 70
     0
  3
Adobe Illustrator Linetype No. 1
 72
    65
 73
     4
 40
50.77648250052169
 49
31.73530181515239
 74
     0
 49
-6.347060228456434
 74
     0
 49
6.347060228456434
 74
     0
 49
-6.347060228456434
 74
     0
  0
LTYPE
  5
1A2
330
5
100
AcDbSymbolTableRecord
100
AcDbLinetypeTableRecord
  2
AI-Linetype-2
 70
     0
  3
Adobe Illustrator Linetype No. 2
 72
    65
 73
     4
 40
50.77648250052169
 49
31.73530181515239
 74
     0
 49
-6.347060228456434
 74
     0
 49
6.347060228456434
 74
     0
 49
-6.347060228456434
 74
     0
  0
LTYPE
  5
1A5
330
5
100
AcDbSymbolTableRecord
100
AcDbLinetypeTableRecord
  2
AI-Linetype-3
 70
     0
  3
Adobe Illustrator Linetype No. 3
 72
    65
 73
     4
 40
50.77648250052169
 49
31.73530181515239
 74
     0
 49
-6.347060228456434
 74
     0
 49
6.347060228456434
 74
     0
 49
-6.347060228456434
 74
     0
  0
LTYPE
  5
1A7
330
5
100
AcDbSymbolTableRecord
100
AcDbLinetypeTableRecord
  2
AI-Linetype-4
 70
     0
  3
Adobe Illustrator Linetype No. 4
 72
    65
 73
     4
 40
50.77648250052169
 49
31.73530181515239
 74
     0
 49
-6.347060228456434
 74
     0
 49
6.347060228456434
 74
     0
 49
-6.347060228456434
 74
     0
  0
ENDTAB
  0
TABLE
  2
LAYER
  5
2
330
0
100
AcDbSymbolTable
 70
     4
  0
LAYER
  5
54
330
2
100
AcDbSymbolTableRecord
100
AcDbLayerTableRecord
  2
0
 70
     0
 62
     7
  6
Continuous
370
    -3
390
F
347
21
348
0
  0
LAYER
  5
78
330
2
100
AcDbSymbolTableRecord
100
AcDbLayerTableRecord
  2
CLASS1
 70
     0
 62
     7
  6
Continuous
370
     0
390
F
347
21
348
0
  0
LAYER
  5
A0
330
2
100
AcDbSymbolTableRecord
100
AcDbLayerTableRecord
  2
DEFPOINTS
 70
     0
 62
     7
  6
Continuous
290
     0
370
     0
390
F
347
21
348
0
  0
LAYER
  5
A5
330
2
100
AcDbSymbolTableRecord
100
AcDbLayerTableRecord
  2
SS
 70
     0
 62
     7
  6
Continuous
370
     0
390
F
347
21
348
0
  0
ENDTAB
  0
TABLE
  2
STYLE
  5
3
330
0
100
AcDbSymbolTable
 70
     2
  0
STYLE
  5
55
330
3
100
AcDbSymbolTableRecord
100
AcDbTextStyleTableRecord
  2
Standard
 70
     0
 40
0.0
 41
1.0
 50
0.0
 71
     0
 42
0.2
  3
txt
  4

  0
STYLE
  5
5A
330
3
100
AcDbSymbolTableRecord
100
AcDbTextStyleTableRecord
  2
Annotative
 70
     0
 40
0.0
 41
1.0
 50
0.0
 71
     0
 42
0.2
  3
txt
  4

1001
AcadAnnotative
1000
AnnotativeData
1002
{
1070
     1
1070
     1
1002
}
  0
ENDTAB
  0
TABLE
  2
VIEW
  5
6
330
0
100
AcDbSymbolTable
 70
     0
  0
ENDTAB
  0
TABLE
  2
UCS
  5
7
330
0
100
AcDbSymbolTable
 70
     0
  0
ENDTAB
  0
TABLE
  2
APPID
  5
9
330
0
100
AcDbSymbolTable
 70
     2
  0
APPID
  5
56
330
9
100
AcDbSymbolTableRecord
100
AcDbRegAppTableRecord
  2
ACAD
 70
     0
  0
APPID
  5
5E
330
9
100
AcDbSymbolTableRecord
100
AcDbRegAppTableRecord
  2
AcadAnnotative
 70
     0
  0
ENDTAB
  0
TABLE
  2
DIMSTYLE
  5
A
330
0
100
AcDbSymbolTable
 70
     2
100
AcDbDimStyleTable
 71
     0
  0
DIMSTYLE
105
58
330
A
100
AcDbSymbolTableRecord
100
AcDbDimStyleTableRecord
  2
Standard
 70
     0
340
55
  0
DIMSTYLE
105
59
330
A
100
AcDbSymbolTableRecord
100
AcDbDimStyleTableRecord
  2
Annotative
 70
     0
340
55
1001
AcadAnnotative
1000
AnnotativeData
1002
{
1070
     1
1070
     1
1002
}
  0
ENDTAB
  0
TABLE
  2
BLOCK_RECORD
  5
1
330
0
100
AcDbSymbolTable
 70
    12
  0
BLOCK_RECORD
  5
70
330
1
100
AcDbSymbolTableRecord
100
AcDbBlockTableRecord
  2
*Model_Space
340
73
 70
     0
280
     1
281
     0
  0
BLOCK_RECORD
  5
6C
330
1
100
AcDbSymbolTableRecord
100
AcDbBlockTableRecord
  2
*Paper_Space
340
6F
 70
     0
280
     1
281
     0
  0
BLOCK_RECORD
  5
74
330
1
100
AcDbSymbolTableRecord
100
AcDbBlockTableRecord
  2
*Paper_Space0
340
77
 70
     0
280
     1
281
     0
  0
BLOCK_RECORD
  5
A8
330
1
100
AcDbSymbolTableRecord
100
AcDbBlockTableRecord
  2
Block_0
340
0
102
{BLKREFS
331
A9
102
}
 70
     0
280
     1
281
     0
  0
BLOCK_RECORD
  5
BC
330
1
100
AcDbSymbolTableRecord
100
AcDbBlockTableRecord
  2
Block_1
340
0
102
{BLKREFS
331
BD
102
}
 70
     0
280
     1
281
     0
  0
BLOCK_RECORD
  5
CA
330
1
100
AcDbSymbolTableRecord
100
AcDbBlockTableRecord
  2
Block_2
340
0
102
{BLKREFS
331
CB
102
}
 70
     0
280
     1
281
     0
  0
BLOCK_RECORD
  5
DA
330
1
100
AcDbSymbolTableRecord
100
AcDbBlockTableRecord
  2
Block_3
340
0
102
{BLKREFS
331
DB
102
}
 70
     0
280
     1
281
     0
  0
BLOCK_RECORD
  5
EB
330
1
100
AcDbSymbolTableRecord
100
AcDbBlockTableRecord
  2
Block_4
340
0
102
{BLKREFS
331
EC
102
}
 70
     0
280
     1
281
     0
  0
BLOCK_RECORD
  5
FC
330
1
100
AcDbSymbolTableRecord
100
AcDbBlockTableRecord
  2
Block_5
340
0
102
{BLKREFS
331
FD
102
}
 70
     0
280
     1
281
     0
  0
BLOCK_RECORD
  5
105
330
1
100
AcDbSymbolTableRecord
100
AcDbBlockTableRecord
  2
Block_6
340
0
102
{BLKREFS
331
106
102
}
 70
     0
280
     1
281
     0
  0
BLOCK_RECORD
  5
113
330
1
100
AcDbSymbolTableRecord
100
AcDbBlockTableRecord
  2
Block_7
340
0
102
{BLKREFS
331
114
102
}
 70
     0
280
     1
281
     0
  0
BLOCK_RECORD
  5
120
330
1
100
AcDbSymbolTableRecord
100
AcDbBlockTableRecord
  2
Block_8
340
0
102
{BLKREFS
331
121
102
}
 70
     0
280
     1
281
     0
  0
BLOCK_RECORD
  5
12E
330
1
100
AcDbSymbolTableRecord
100
AcDbBlockTableRecord
  2
Block_9
340
0
102
{BLKREFS
331
12F
102
}
 70
     0
280
     1
281
     0
  0
BLOCK_RECORD
  5
13C
330
1
100
AcDbSymbolTableRecord
100
AcDbBlockTableRecord
  2
Block_10
340
0
102
{BLKREFS
331
13D
102
}
 70
     0
280
     1
281
     0
  0
ENDTAB
  0
ENDSEC
  0
SECTION
  2
BLOCKS
  0
BLOCK
  5
71
330
70
100
AcDbEntity
  8
0
100
AcDbBlockBegin
  2
*Model_Space
 70
     0
 10
0.0
 20
0.0
 30
0.0
  3
*Model_Space
  1

  0
ENDBLK
  5
72
330
70
100
AcDbEntity
  8
0
100
AcDbBlockEnd
  0
BLOCK
  5
6D
330
6C
100
AcDbEntity
 67
     1
  8
0
100
AcDbBlockBegin
  2
*Paper_Space
 70
     0
 10
0.0
 20
0.0
 30
0.0
  3
*Paper_Space
  1

  0
ENDBLK
  5
6E
330
6C
100
AcDbEntity
 67
     1
  8
0
100
AcDbBlockEnd
  0
BLOCK
  5
75
330
74
100
AcDbEntity
 67
     1
  8
0
100
AcDbBlockBegin
  2
*Paper_Space0
 70
     0
 10
0.0
 20
0.0
 30
0.0
  3
*Paper_Space0
  1

  0
ENDBLK
  5
76
330
74
100
AcDbEntity
 67
     1
  8
0
100
AcDbBlockEnd
  0
BLOCK
  5
AA
330
A8
100
AcDbEntity
  8
0
100
AcDbBlockBegin
  2
Block_0
 70
     0
 10
0.0
 20
0.0
 30
0.0
  3
Block_0
  1

  0
LINE
  5
AC
330
A8
100
AcDbEntity
  8
SS
 62
   143
420
  6730444
370
    25
100
AcDbLine
 10
171.076799050749
 20
212.8853165740934
 30
0.0
 11
171.076799050749
 21
62.9547610560205
 31
0.0
  0
LINE
  5
AD
330
A8
100
AcDbEntity
  8
SS
 62
   143
420
  6730444
370
    25
100
AcDbLine
 10
121.7119307542942
 20
212.8853165740934
 30
0.0
 11
172.5761046059298
 21
212.8853165740934
 31
0.0
  0
LINE
  5
AE
330
A8
100
AcDbEntity
  8
SS
 62
   143
420
  6730444
370
    25
100
AcDbLine
 10
142.9520947850955
 20
62.9547610560205
 30
0.0
 11
172.5761046059298
 21
62.9547610560205
 31
0.0
  0
LINE
  5
AF
330
A8
100
AcDbEntity
  8
SS
 62
   143
420
  6730444
370
     0
100
AcDbLine
 10
170.3349239407174
 20
210.116598982193
 30
0.0
 11
171.076799050749
 21
212.8853165740934
 31
0.0
  0
LINE
  5
B0
330
A8
100
AcDbEntity
  8
SS
 62
   143
420
  6730444
370
     0
100
AcDbLine
 10
171.076799050749
 20
212.8853165740934
 30
0.0
 11
171.8186741607812
 21
210.116598982193
 31
0.0
  0
LINE
  5
B1
330
A8
100
AcDbEntity
  8
SS
 62
   143
420
  6730444
370
     0
100
AcDbLine
 10
171.076799050749
 20
212.8853165740934
 30
0.0
 11
171.076799050749
 21
210.116598982193
 31
0.0
  0
LINE
  5
B2
330
A8
100
AcDbEntity
  8
SS
 62
   143
420
  6730444
370
     0
100
AcDbLine
 10
171.8186741607812
 20
65.72347864792092
 30
0.0
 11
171.076799050749
 21
62.9547610560205
 31
0.0
  0
LINE
  5
B3
330
A8
100
AcDbEntity
  8
SS
 62
   143
420
  6730444
370
     0
100
AcDbLine
 10
171.076799050749
 20
62.9547610560205
 30
0.0
 11
170.3349239407174
 21
65.72347864792092
 31
0.0
  0
LINE
  5
B4
330
A8
100
AcDbEntity
  8
SS
 62
   143
420
  6730444
370
     0
100
AcDbLine
 10
171.076799050749
 20
62.9547610560205
 30
0.0
 11
171.076799050749
 21
65.72347864792092
 31
0.0
  0
MTEXT
  5
B5
330
A8
100
AcDbEntity
  8
SS
100
AcDbMText
 10
170.5770289100603
 20
132.2351670676356
 30
0.0
 40
0.2
 41
0.0
 46
0.0
 71
     7
 72
     1
  1
\C143;\c13415014;\FKozGoPr6N-Regular|b0|i0|c128;\H2.498843;\W1.300000;650.0
 11
0.0000000000000001
 21
1.0
 31
0.0
 73
     1
 44
1.0
  0
ENDBLK
  5
AB
330
A8
100
AcDbEntity
  8
0
100
AcDbBlockEnd
  0
BLOCK
  5
BE
330
BC
100
AcDbEntity
  8
0
100
AcDbBlockBegin
  2
Block_1
 70
     0
 10
0.0
 20
0.0
 30
0.0
  3
Block_1
  1

  0
LINE
  5
C0
330
BC
100
AcDbEntity
  8
SS
 62
   143
420
  6730444
370
    25
100
AcDbLine
 10
33.07002470376942
 20
172.6539508434107
 30
0.0
 11
33.07002470376942
 21
248.8109446262231
 31
0.0
  0
LINE
  5
C1
330
BC
100
AcDbEntity
  8
SS
 62
   143
420
  6730444
370
    25
100
AcDbLine
 10
88.72721053939223
 20
172.6539508434107
 30
0.0
 11
31.57071914858869
 21
172.6539508434107
 31
0.0
  0
LINE
  5
C2
330
BC
100
AcDbEntity
  8
SS
 62
   143
420
  6730444
370
    25
100
AcDbLine
 10
63.91791565022439
 20
248.8109446262231
 30
0.0
 11
31.57071914858869
 21
248.8109446262231
 31
0.0
  0
LINE
  5
C3
330
BC
100
AcDbEntity
  8
SS
 62
   143
420
  6730444
370
     0
100
AcDbLine
 10
33.81189981380163
 20
175.4226684353111
 30
0.0
 11
33.07002470376942
 21
172.6539508434107
 31
0.0
  0
LINE
  5
C4
330
BC
100
AcDbEntity
  8
SS
 62
   143
420
  6730444
370
     0
100
AcDbLine
 10
33.07002470376942
 20
172.6539508434107
 30
0.0
 11
32.32814959373752
 21
175.4226684353111
 31
0.0
  0
LINE
  5
C5
330
BC
100
AcDbEntity
  8
SS
 62
   143
420
  6730444
370
     0
100
AcDbLine
 10
33.07002470376942
 20
172.6539508434107
 30
0.0
 11
33.07002470376942
 21
175.4226684353111
 31
0.0
  0
LINE
  5
C6
330
BC
100
AcDbEntity
  8
SS
 62
   143
420
  6730444
370
     0
100
AcDbLine
 10
32.32814959373752
 20
246.0422270343226
 30
0.0
 11
33.07002470376942
 21
248.8109446262231
 31
0.0
  0
LINE
  5
C7
330
BC
100
AcDbEntity
  8
SS
 62
   143
420
  6730444
370
     0
100
AcDbLine
 10
33.07002470376942
 20
248.8109446262231
 30
0.0
 11
33.81189981380163
 21
246.0422270343226
 31
0.0
  0
LINE
  5
C8
330
BC
100
AcDbEntity
  8
SS
 62
   143
420
  6730444
370
     0
100
AcDbLine
 10
33.07002470376942
 20
248.8109446262231
 30
0.0
 11
33.07002470376942
 21
246.0422270343226
 31
0.0
  0
MTEXT
  5
C9
330
BC
100
AcDbEntity
  8
SS
100
AcDbMText
 10
32.57025569525371
 20
195.2480305501463
 30
0.0
 40
0.2
 41
0.0
 46
0.0
 71
     7
 72
     1
  1
\C143;\c13415014;\FKozGoPr6N-Regular|b0|i0|c128;\H2.498843;\W1.300000;(151.0～176.0)
 11
0.0000000000000001
 21
1.0
 31
0.0
 73
     1
 44
1.0
  0
ENDBLK
  5
BF
330
BC
100
AcDbEntity
  8
0
100
AcDbBlockEnd
  0
BLOCK
  5
CC
330
CA
100
AcDbEntity
  8
0
100
AcDbBlockBegin
  2
Block_2
 70
     0
 10
0.0
 20
0.0
 30
0.0
  3
Block_2
  1

  0
LINE
  5
CE
330
CA
100
AcDbEntity
  8
SS
 62
   143
420
  6730444
370
    25
100
AcDbLine
 10
95.34914240856997
 20
229.9472198818651
 30
0.0
 11
115.0899988851164
 21
229.9472198818651
 31
0.0
  0
LINE
  5
CF
330
CA
100
AcDbEntity
  8
SS
 62
   143
420
  6730444
370
    25
100
AcDbLine
 10
95.34914240856997
 20
193.9940695774273
 30
0.0
 11
95.34914240856997
 21
231.4465254370458
 31
0.0
  0
LINE
  5
D0
330
CA
100
AcDbEntity
  8
SS
 62
   143
420
  6730444
370
    25
100
AcDbLine
 10
115.0899988851164
 20
193.9940695774273
 30
0.0
 11
115.0899988851164
 21
231.4465254370458
 31
0.0
  0
LINE
  5
D1
330
CA
100
AcDbEntity
  8
SS
 62
   143
420
  6730444
370
    25
100
AcDbLine
 10
95.34914240856997
 20
229.9472198818651
 30
0.0
 11
89.00208222497182
 21
229.9472198818651
 31
0.0
  0
LINE
  5
D2
330
CA
100
AcDbEntity
  8
SS
 62
   143
420
  6730444
370
    25
100
AcDbLine
 10
115.0899988851164
 20
229.9472198818651
 30
0.0
 11
121.4370590687149
 21
229.9472198818651
 31
0.0
  0
LINE
  5
D3
330
CA
100
AcDbEntity
  8
SS
 62
   143
420
  6730444
370
     0
100
AcDbLine
 10
92.58042481666953
 20
230.6890949918972
 30
0.0
 11
95.34914240856997
 21
229.9472198818651
 31
0.0
  0
LINE
  5
D4
330
CA
100
AcDbEntity
  8
SS
 62
   143
420
  6730444
370
     0
100
AcDbLine
 10
95.34914240856997
 20
229.9472198818651
 30
0.0
 11
92.58042481666953
 21
229.2053447718328
 31
0.0
  0
LINE
  5
D5
330
CA
100
AcDbEntity
  8
SS
 62
   143
420
  6730444
370
     0
100
AcDbLine
 10
95.34914240856997
 20
229.9472198818651
 30
0.0
 11
92.58042481666953
 21
229.9472198818651
 31
0.0
  0
LINE
  5
D6
330
CA
100
AcDbEntity
  8
SS
 62
   143
420
  6730444
370
     0
100
AcDbLine
 10
117.8587164770168
 20
229.2053447718328
 30
0.0
 11
115.0899988851164
 21
229.9472198818651
 31
0.0
  0
LINE
  5
D7
330
CA
100
AcDbEntity
  8
SS
 62
   143
420
  6730444
370
     0
100
AcDbLine
 10
115.0899988851164
 20
229.9472198818651
 30
0.0
 11
117.8587164770168
 21
230.6890949918972
 31
0.0
  0
LINE
  5
D8
330
CA
100
AcDbEntity
  8
SS
 62
   143
420
  6730444
370
     0
100
AcDbLine
 10
115.0899988851164
 20
229.9472198818651
 30
0.0
 11
117.8587164770168
 21
229.9472198818651
 31
0.0
  0
MTEXT
  5
D9
330
CA
100
AcDbEntity
  8
SS
100
AcDbMText
 10
95.6823163958928
 20
230.4469802280328
 30
0.0
 40
0.2
 41
0.0
 46
0.0
 71
     7
 72
     1
  1
\C143;\c13415014;\FKozGoPr6N-Regular|b0|i0|c128;\H2.498843;\W1.000000;六角対辺35.0
 73
     1
 44
1.0
  0
ENDBLK
  5
CD
330
CA
100
AcDbEntity
  8
0
100
AcDbBlockEnd
  0
BLOCK
  5
DC
330
DA
100
AcDbEntity
  8
0
100
AcDbBlockBegin
  2
Block_3
 70
     0
 10
0.0
 20
0.0
 30
0.0
  3
Block_3
  1

  0
LINE
  5
DE
330
DA
100
AcDbEntity
  8
SS
 62
   143
420
  6730444
370
    25
100
AcDbLine
 10
85.05511037410659
 20
209.3595396351601
 30
0.0
 11
65.4118097118877
 21
209.3595396351601
 31
0.0
  0
LINE
  5
DF
330
DA
100
AcDbEntity
  8
SS
 62
   143
420
  6730444
370
    25
100
AcDbLine
 10
65.4118097118877
 20
209.3595396351601
 30
0.0
 11
39.26427766425811
 21
209.3595396351601
 31
0.0
  0
LINE
  5
E0
330
DA
100
AcDbEntity
  8
SS
 62
   143
420
  6730444
370
    25
100
AcDbLine
 10
85.05511037410659
 20
208.459588472422
 30
0.0
 11
85.05511037410659
 21
207.8602340799794
 31
0.0
  0
LINE
  5
E1
330
DA
100
AcDbEntity
  8
SS
 62
   143
420
  6730444
370
    25
100
AcDbLine
 10
65.4118097118877
 20
208.459588472422
 30
0.0
 11
65.4118097118877
 21
207.8602340799794
 31
0.0
  0
LINE
  5
E2
330
DA
100
AcDbEntity
  8
SS
 62
   143
420
  6730444
370
    25
100
AcDbLine
 10
85.05511037410659
 20
209.3595396351601
 30
0.0
 11
91.40217055770504
 21
209.3595396351601
 31
0.0
  0
LINE
  5
E3
330
DA
100
AcDbEntity
  8
SS
 62
   143
420
  6730444
370
    25
100
AcDbLine
 10
65.4118097118877
 20
209.3595396351601
 30
0.0
 11
59.06474952828923
 21
209.3595396351601
 31
0.0
  0
LINE
  5
E4
330
DA
100
AcDbEntity
  8
SS
 62
   143
420
  6730444
370
     0
100
AcDbLine
 10
87.823827966007
 20
208.6176645251279
 30
0.0
 11
85.05511037410659
 21
209.3595396351601
 31
0.0
  0
LINE
  5
E5
330
DA
100
AcDbEntity
  8
SS
 62
   143
420
  6730444
370
     0
100
AcDbLine
 10
85.05511037410659
 20
209.3595396351601
 30
0.0
 11
87.823827966007
 21
210.1014147451926
 31
0.0
  0
LINE
  5
E6
330
DA
100
AcDbEntity
  8
SS
 62
   143
420
  6730444
370
     0
100
AcDbLine
 10
85.05511037410659
 20
209.3595396351601
 30
0.0
 11
87.823827966007
 21
209.3595396351601
 31
0.0
  0
LINE
  5
E7
330
DA
100
AcDbEntity
  8
SS
 62
   143
420
  6730444
370
     0
100
AcDbLine
 10
62.64309211998727
 20
210.1014147451926
 30
0.0
 11
65.4118097118877
 21
209.3595396351601
 31
0.0
  0
LINE
  5
E8
330
DA
100
AcDbEntity
  8
SS
 62
   143
420
  6730444
370
     0
100
AcDbLine
 10
65.4118097118877
 20
209.3595396351601
 30
0.0
 11
62.64309211998727
 21
208.6176645251279
 31
0.0
  0
LINE
  5
E9
330
DA
100
AcDbEntity
  8
SS
 62
   143
420
  6730444
370
     0
100
AcDbLine
 10
65.4118097118877
 20
209.3595396351601
 30
0.0
 11
62.64309211998727
 21
209.3595396351601
 31
0.0
  0
MTEXT
  5
EA
330
DA
100
AcDbEntity
  8
SS
100
AcDbMText
 10
39.72239773075137
 20
209.8593049266476
 30
0.0
 40
0.2
 41
0.0
 46
0.0
 71
     7
 72
     1
  1
\C143;\c13415014;\FKozGoPr6N-Regular|b0|i0|c128;\H2.498843;\W1.000000;六角対辺35.0
 73
     1
 44
1.0
  0
ENDBLK
  5
DD
330
DA
100
AcDbEntity
  8
0
100
AcDbBlockEnd
  0
BLOCK
  5
ED
330
EB
100
AcDbEntity
  8
0
100
AcDbBlockBegin
  2
Block_4
 70
     0
 10
0.0
 20
0.0
 30
0.0
  3
Block_4
  1

  0
LINE
  5
EF
330
EB
100
AcDbEntity
  8
SS
 62
   143
420
  6730444
370
    25
100
AcDbLine
 10
65.3630313049557
 20
257.2336194315249
 30
0.0
 11
85.10388778150185
 21
257.2336194315249
 31
0.0
  0
LINE
  5
F0
330
EB
100
AcDbEntity
  8
SS
 62
   143
420
  6730444
370
    25
100
AcDbLine
 10
42.00057527237031
 20
257.2336194315249
 30
0.0
 11
65.3630313049557
 21
257.2336194315249
 31
0.0
  0
LINE
  5
F1
330
EB
100
AcDbEntity
  8
SS
 62
   143
420
  6730444
370
    25
100
AcDbLine
 10
65.3630313049557
 20
250.959950254853
 30
0.0
 11
65.3630313049557
 21
258.7329249867056
 31
0.0
  0
LINE
  5
F2
330
EB
100
AcDbEntity
  8
SS
 62
   143
420
  6730444
370
    25
100
AcDbLine
 10
85.10388778150185
 20
250.959950254853
 30
0.0
 11
85.10388778150185
 21
258.7329249867056
 31
0.0
  0
LINE
  5
F3
330
EB
100
AcDbEntity
  8
SS
 62
   143
420
  6730444
370
    25
100
AcDbLine
 10
65.3630313049557
 20
257.2336194315249
 30
0.0
 11
59.01597112135723
 21
257.2336194315249
 31
0.0
  0
LINE
  5
F4
330
EB
100
AcDbEntity
  8
SS
 62
   143
420
  6730444
370
    25
100
AcDbLine
 10
85.10388778150185
 20
257.2336194315249
 30
0.0
 11
91.45094796510031
 21
257.2336194315249
 31
0.0
  0
LINE
  5
F5
330
EB
100
AcDbEntity
  8
SS
 62
   143
420
  6730444
370
     0
100
AcDbLine
 10
62.59431371305527
 20
257.9754945415571
 30
0.0
 11
65.3630313049557
 21
257.2336194315249
 31
0.0
  0
LINE
  5
F6
330
EB
100
AcDbEntity
  8
SS
 62
   143
420
  6730444
370
     0
100
AcDbLine
 10
65.3630313049557
 20
257.2336194315249
 30
0.0
 11
62.59431371305527
 21
256.491744321493
 31
0.0
  0
LINE
  5
F7
330
EB
100
AcDbEntity
  8
SS
 62
   143
420
  6730444
370
     0
100
AcDbLine
 10
65.3630313049557
 20
257.2336194315249
 30
0.0
 11
62.59431371305527
 21
257.2336194315249
 31
0.0
  0
LINE
  5
F8
330
EB
100
AcDbEntity
  8
SS
 62
   143
420
  6730444
370
     0
100
AcDbLine
 10
87.87260537340259
 20
256.491744321493
 30
0.0
 11
85.10388778150185
 21
257.2336194315249
 31
0.0
  0
LINE
  5
F9
330
EB
100
AcDbEntity
  8
SS
 62
   143
420
  6730444
370
     0
100
AcDbLine
 10
85.10388778150185
 20
257.2336194315249
 30
0.0
 11
87.87260537340259
 21
257.9754945415571
 31
0.0
  0
LINE
  5
FA
330
EB
100
AcDbEntity
  8
SS
 62
   143
420
  6730444
370
     0
100
AcDbLine
 10
85.10388778150185
 20
257.2336194315249
 30
0.0
 11
87.87260537340259
 21
257.2336194315249
 31
0.0
  0
MTEXT
  5
FB
330
EB
100
AcDbEntity
  8
SS
100
AcDbMText
 10
42.45869711768122
 20
257.7333853183249
 30
0.0
 40
0.2
 41
0.0
 46
0.0
 71
     7
 72
     1
  1
\C143;\c13415014;\FKozGoPr6N-Regular|b0|i0|c128;\H2.498843;\W1.000000;六角対辺35.0
 73
     1
 44
1.0
  0
ENDBLK
  5
EE
330
EB
100
AcDbEntity
  8
0
100
AcDbBlockEnd
  0
BLOCK
  5
FE
330
FC
100
AcDbEntity
  8
0
100
AcDbBlockBegin
  2
Block_5
 70
     0
 10
0.0
 20
0.0
 30
0.0
  3
Block_5
  1

  0
LINE
  5
100
330
FC
100
AcDbEntity
  8
SS
 62
   143
420
  6730444
370
     0
100
AcDbLine
 10
86.05234572626327
 20
252.70853195063
 30
0.0
 11
83.22975583752594
 21
252.2093705512993
 31
0.0
  0
LINE
  5
101
330
FC
100
AcDbEntity
  8
SS
 62
   143
420
  6730444
370
     0
100
AcDbLine
 10
83.22975583752594
 20
252.2093705512993
 30
0.0
 11
85.42461034796799
 21
254.052951159946
 31
0.0
  0
LINE
  5
102
330
FC
100
AcDbEntity
  8
SS
 62
   143
420
  6730444
370
     0
100
AcDbLine
 10
83.22975583752594
 20
252.2093705512993
 30
0.0
 11
85.73847803711563
 21
253.3807415552877
 31
0.0
  0
LWPOLYLINE
  5
103
330
FC
100
AcDbEntity
  8
SS
 62
   143
420
  6730444
370
    25
100
AcDbPolyline
 90
        3
 70
     0
 43
0.0
 10
85.73847803711563
 20
253.3807415552877
 10
93.17360207022529
 20
256.8523450293055
 10
108.1666576220325
 20
256.8523450293055
  0
ENDBLK
  5
FF
330
FC
100
AcDbEntity
  8
0
100
AcDbBlockEnd
  0
BLOCK
  5
107
330
105
100
AcDbEntity
  8
0
100
AcDbBlockBegin
  2
Block_6
 70
     0
 10
0.0
 20
0.0
 30
0.0
  3
Block_6
  1

  0
LINE
  5
109
330
105
100
AcDbEntity
  8
SS
 62
   143
420
  6730444
370
    25
100
AcDbLine
 10
89.7444273872861
 20
172.6539508434107
 30
0.0
 11
89.7444273872861
 21
212.8853165740934
 31
0.0
  0
LINE
  5
10A
330
105
100
AcDbEntity
  8
SS
 62
   143
420
  6730444
370
    25
100
AcDbLine
 10
88.72720953985519
 20
172.6539508434107
 30
0.0
 11
88.24512183210535
 21
172.6539508434107
 31
0.0
  0
LINE
  5
10B
330
105
100
AcDbEntity
  8
SS
 62
   143
420
  6730444
370
    25
100
AcDbLine
 10
118.7133206434701
 20
212.8853165740934
 30
0.0
 11
88.24512183210535
 21
212.8853165740934
 31
0.0
  0
LINE
  5
10C
330
105
100
AcDbEntity
  8
SS
 62
   143
420
  6730444
370
     0
100
AcDbLine
 10
90.48630249731862
 20
175.4226684353111
 30
0.0
 11
89.7444273872861
 21
172.6539508434107
 31
0.0
  0
LINE
  5
10D
330
105
100
AcDbEntity
  8
SS
 62
   143
420
  6730444
370
     0
100
AcDbLine
 10
89.7444273872861
 20
172.6539508434107
 30
0.0
 11
89.00255227725386
 21
175.4226684353111
 31
0.0
  0
LINE
  5
10E
330
105
100
AcDbEntity
  8
SS
 62
   143
420
  6730444
370
     0
100
AcDbLine
 10
89.7444273872861
 20
172.6539508434107
 30
0.0
 11
89.7444273872861
 21
175.4226684353111
 31
0.0
  0
LINE
  5
10F
330
105
100
AcDbEntity
  8
SS
 62
   143
420
  6730444
370
     0
100
AcDbLine
 10
89.00255227725386
 20
210.116598982193
 30
0.0
 11
89.7444273872861
 21
212.8853165740934
 31
0.0
  0
LINE
  5
110
330
105
100
AcDbEntity
  8
SS
 62
   143
420
  6730444
370
     0
100
AcDbLine
 10
89.7444273872861
 20
212.8853165740934
 30
0.0
 11
90.48630249731862
 21
210.116598982193
 31
0.0
  0
LINE
  5
111
330
105
100
AcDbEntity
  8
SS
 62
   143
420
  6730444
370
     0
100
AcDbLine
 10
89.7444273872861
 20
212.8853165740934
 30
0.0
 11
89.7444273872861
 21
210.116598982193
 31
0.0
  0
MTEXT
  5
112
330
105
100
AcDbEntity
  8
SS
100
AcDbMText
 10
89.24466024922747
 20
185.7416340681479
 30
0.0
 40
0.2
 41
0.0
 46
0.0
 71
     7
 72
     1
  1
\C143;\c13415014;\FKozGoPr6N-Regular|b0|i0|c128;\H2.498843;\W1.350000;(80.5)
 11
0.0000000000000001
 21
1.0
 31
0.0
 73
     1
 44
1.0
  0
ENDBLK
  5
108
330
105
100
AcDbEntity
  8
0
100
AcDbBlockEnd
  0
BLOCK
  5
115
330
113
100
AcDbEntity
  8
0
100
AcDbBlockBegin
  2
Block_7
 70
     0
 10
0.0
 20
0.0
 30
0.0
  3
Block_7
  1

  0
LINE
  5
117
330
113
100
AcDbEntity
  8
SS
 62
   143
420
  6730444
370
    25
100
AcDbLine
 10
135.2056817504581
 20
128.3850062290149
 30
0.0
 11
75.23345954322862
 21
128.3850062290149
 31
0.0
  0
LINE
  5
118
330
113
100
AcDbEntity
  8
SS
 62
   143
420
  6730444
370
    25
100
AcDbLine
 10
75.23345954322862
 20
186.1476998405002
 30
0.0
 11
75.23345954322862
 21
126.8857006738342
 31
0.0
  0
LINE
  5
119
330
113
100
AcDbEntity
  8
SS
 62
   143
420
  6730444
370
     0
100
AcDbLine
 10
132.4369641585577
 20
129.1268813390471
 30
0.0
 11
135.2056817504581
 21
128.3850062290149
 31
0.0
  0
LINE
  5
11A
330
113
100
AcDbEntity
  8
SS
 62
   143
420
  6730444
370
     0
100
AcDbLine
 10
135.2056817504581
 20
128.3850062290149
 30
0.0
 11
132.4369641585577
 21
127.6431311189827
 31
0.0
  0
LINE
  5
11B
330
113
100
AcDbEntity
  8
SS
 62
   143
420
  6730444
370
     0
100
AcDbLine
 10
135.2056817504581
 20
128.3850062290149
 30
0.0
 11
132.4369641585577
 21
128.3850062290149
 31
0.0
  0
LINE
  5
11C
330
113
100
AcDbEntity
  8
SS
 62
   143
420
  6730444
370
     0
100
AcDbLine
 10
78.00217713512935
 20
127.6431311189827
 30
0.0
 11
75.23345954322862
 21
128.3850062290149
 31
0.0
  0
LINE
  5
11D
330
113
100
AcDbEntity
  8
SS
 62
   143
420
  6730444
370
     0
100
AcDbLine
 10
75.23345954322862
 20
128.3850062290149
 30
0.0
 11
78.00217713512935
 21
129.1268813390471
 31
0.0
  0
LINE
  5
11E
330
113
100
AcDbEntity
  8
SS
 62
   143
420
  6730444
370
     0
100
AcDbLine
 10
75.23345954322862
 20
128.3850062290149
 30
0.0
 11
78.00217713512935
 21
128.3850062290149
 31
0.0
  0
MTEXT
  5
11F
330
113
100
AcDbEntity
  8
SS
100
AcDbMText
 10
97.05668341011627
 20
128.88477941046
 30
0.0
 40
0.2
 41
0.0
 46
0.0
 71
     7
 72
     1
  1
\C143;\c13415014;\FKozGoPr6N-Regular|b0|i0|c128;\H2.498843;\W1.400000;(120.0)
 73
     1
 44
1.0
  0
ENDBLK
  5
116
330
113
100
AcDbEntity
  8
0
100
AcDbBlockEnd
  0
BLOCK
  5
122
330
120
100
AcDbEntity
  8
0
100
AcDbBlockBegin
  2
Block_8
 70
     0
 10
0.0
 20
0.0
 30
0.0
  3
Block_8
  1

  0
LINE
  5
124
330
120
100
AcDbEntity
  8
SS
 62
   143
420
  6730444
370
    25
100
AcDbLine
 10
105.2195706468435
 20
143.3500347623107
 30
0.0
 11
75.23345954322862
 21
143.3500347623107
 31
0.0
  0
LINE
  5
125
330
120
100
AcDbEntity
  8
SS
 62
   143
420
  6730444
370
    25
100
AcDbLine
 10
105.2195706468435
 20
186.1477008400373
 30
0.0
 11
105.2195706468435
 21
141.8507292071299
 31
0.0
  0
LINE
  5
126
330
120
100
AcDbEntity
  8
SS
 62
   143
420
  6730444
370
    25
100
AcDbLine
 10
75.23345954322862
 20
186.1477008400373
 30
0.0
 11
75.23345954322862
 21
141.8507292071299
 31
0.0
  0
LINE
  5
127
330
120
100
AcDbEntity
  8
SS
 62
   143
420
  6730444
370
     0
100
AcDbLine
 10
102.4508530549428
 20
144.0919098723429
 30
0.0
 11
105.2195706468435
 21
143.3500347623107
 31
0.0
  0
LINE
  5
128
330
120
100
AcDbEntity
  8
SS
 62
   143
420
  6730444
370
     0
100
AcDbLine
 10
105.2195706468435
 20
143.3500347623107
 30
0.0
 11
102.4508530549428
 21
142.6081596522785
 31
0.0
  0
LINE
  5
129
330
120
100
AcDbEntity
  8
SS
 62
   143
420
  6730444
370
     0
100
AcDbLine
 10
105.2195706468435
 20
143.3500347623107
 30
0.0
 11
102.4508530549428
 21
143.3500347623107
 31
0.0
  0
LINE
  5
12A
330
120
100
AcDbEntity
  8
SS
 62
   143
420
  6730444
370
     0
100
AcDbLine
 10
78.00217713512935
 20
142.6081596522785
 30
0.0
 11
75.23345954322862
 21
143.3500347623107
 31
0.0
  0
LINE
  5
12B
330
120
100
AcDbEntity
  8
SS
 62
   143
420
  6730444
370
     0
100
AcDbLine
 10
75.23345954322862
 20
143.3500347623107
 30
0.0
 11
78.00217713512935
 21
144.0919098723429
 31
0.0
  0
LINE
  5
12C
330
120
100
AcDbEntity
  8
SS
 62
   143
420
  6730444
370
     0
100
AcDbLine
 10
75.23345954322862
 20
143.3500347623107
 30
0.0
 11
78.00217713512935
 21
143.3500347623107
 31
0.0
  0
MTEXT
  5
12D
330
120
100
AcDbEntity
  8
SS
100
AcDbMText
 10
85.72859579698148
 20
143.8498004977561
 30
0.0
 40
0.2
 41
0.0
 46
0.0
 71
     7
 72
     1
  1
\C143;\c13415014;\FKozGoPr6N-Regular|b0|i0|c128;\H2.498843;\W1.350000;60.0
 73
     1
 44
1.0
  0
ENDBLK
  5
123
330
120
100
AcDbEntity
  8
0
100
AcDbBlockEnd
  0
BLOCK
  5
130
330
12E
100
AcDbEntity
  8
0
100
AcDbBlockBegin
  2
Block_9
 70
     0
 10
0.0
 20
0.0
 30
0.0
  3
Block_9
  1

  0
LINE
  5
132
330
12E
100
AcDbEntity
  8
SS
 62
   143
420
  6730444
370
    25
100
AcDbLine
 10
150.1987373022654
 20
46.77129987349212
 30
0.0
 11
120.2126261986508
 21
46.77129987349212
 31
0.0
  0
LINE
  5
133
330
12E
100
AcDbEntity
  8
SS
 62
   143
420
  6730444
370
    25
100
AcDbLine
 10
150.1987373022654
 20
76.44851205218444
 30
0.0
 11
150.1987373022654
 21
45.27199431831139
 31
0.0
  0
LINE
  5
134
330
12E
100
AcDbEntity
  8
SS
 62
   143
420
  6730444
370
    25
100
AcDbLine
 10
120.2126261986508
 20
76.44851205218444
 30
0.0
 11
120.2126261986508
 21
45.27199431831139
 31
0.0
  0
LINE
  5
135
330
12E
100
AcDbEntity
  8
SS
 62
   143
420
  6730444
370
     0
100
AcDbLine
 10
147.430019710365
 20
47.51317498352434
 30
0.0
 11
150.1987373022654
 21
46.77129987349212
 31
0.0
  0
LINE
  5
136
330
12E
100
AcDbEntity
  8
SS
 62
   143
420
  6730444
370
     0
100
AcDbLine
 10
150.1987373022654
 20
46.77129987349212
 30
0.0
 11
147.430019710365
 21
46.02942476346054
 31
0.0
  0
LINE
  5
137
330
12E
100
AcDbEntity
  8
SS
 62
   143
420
  6730444
370
     0
100
AcDbLine
 10
150.1987373022654
 20
46.77129987349212
 30
0.0
 11
147.430019710365
 21
46.77129987349212
 31
0.0
  0
LINE
  5
138
330
12E
100
AcDbEntity
  8
SS
 62
   143
420
  6730444
370
     0
100
AcDbLine
 10
122.9813437905512
 20
46.02942476346054
 30
0.0
 11
120.2126261986508
 21
46.77129987349212
 31
0.0
  0
LINE
  5
139
330
12E
100
AcDbEntity
  8
SS
 62
   143
420
  6730444
370
     0
100
AcDbLine
 10
120.2126261986508
 20
46.77129987349212
 30
0.0
 11
122.9813437905512
 21
47.51317498352434
 31
0.0
  0
LINE
  5
13A
330
12E
100
AcDbEntity
  8
SS
 62
   143
420
  6730444
370
     0
100
AcDbLine
 10
120.2126261986508
 20
46.77129987349212
 30
0.0
 11
122.9813437905512
 21
46.77129987349212
 31
0.0
  0
MTEXT
  5
13B
330
12E
100
AcDbEntity
  8
SS
100
AcDbMText
 10
129.7082325928984
 20
47.27107025660129
 30
0.0
 40
0.2
 41
0.0
 46
0.0
 71
     7
 72
     1
  1
\C143;\c13415014;\FKozGoPr6N-Regular|b0|i0|c128;\H2.498843;\W1.200000;∅60.0
 73
     1
 44
1.0
  0
ENDBLK
  5
131
330
12E
100
AcDbEntity
  8
0
100
AcDbBlockEnd
  0
BLOCK
  5
13E
330
13C
100
AcDbEntity
  8
0
100
AcDbBlockBegin
  2
Block_10
 70
     0
 10
0.0
 20
0.0
 30
0.0
  3
Block_10
  1

  0
LINE
  5
140
330
13C
100
AcDbEntity
  8
SS
 62
   143
420
  6730444
370
    25
100
AcDbLine
 10
141.4527882303774
 20
54.71355519835888
 30
0.0
 11
128.9585752705382
 21
54.71355519835888
 31
0.0
  0
LINE
  5
141
330
13C
100
AcDbEntity
  8
SS
 62
   143
420
  6730444
370
    25
100
AcDbLine
 10
141.4527882303774
 20
61.45545550083977
 30
0.0
 11
141.4527882303774
 21
53.21424964317815
 31
0.0
  0
LINE
  5
142
330
13C
100
AcDbEntity
  8
SS
 62
   143
420
  6730444
370
    25
100
AcDbLine
 10
128.9585752705382
 20
61.45545550083977
 30
0.0
 11
128.9585752705382
 21
53.21424964317815
 31
0.0
  0
LINE
  5
143
330
13C
100
AcDbEntity
  8
SS
 62
   143
420
  6730444
370
    25
100
AcDbLine
 10
141.4527882303774
 20
54.71355519835888
 30
0.0
 11
147.7998484139758
 21
54.71355519835888
 31
0.0
  0
LINE
  5
144
330
13C
100
AcDbEntity
  8
SS
 62
   143
420
  6730444
370
    25
100
AcDbLine
 10
128.9585752705382
 20
54.71355519835888
 30
0.0
 11
122.6115150869397
 21
54.71355519835888
 31
0.0
  0
LINE
  5
145
330
13C
100
AcDbEntity
  8
SS
 62
   143
420
  6730444
370
     0
100
AcDbLine
 10
144.2215058222778
 20
53.97168008832666
 30
0.0
 11
141.4527882303774
 21
54.71355519835888
 31
0.0
  0
LINE
  5
146
330
13C
100
AcDbEntity
  8
SS
 62
   143
420
  6730444
370
     0
100
AcDbLine
 10
141.4527882303774
 20
54.71355519835888
 30
0.0
 11
144.2215058222778
 21
55.45543030839109
 31
0.0
  0
LINE
  5
147
330
13C
100
AcDbEntity
  8
SS
 62
   143
420
  6730444
370
     0
100
AcDbLine
 10
141.4527882303774
 20
54.71355519835888
 30
0.0
 11
144.2215058222778
 21
54.71355519835888
 31
0.0
  0
LINE
  5
148
330
13C
100
AcDbEntity
  8
SS
 62
   143
420
  6730444
370
     0
100
AcDbLine
 10
126.1898576786377
 20
55.45543030839109
 30
0.0
 11
128.9585752705382
 21
54.71355519835888
 31
0.0
  0
LINE
  5
149
330
13C
100
AcDbEntity
  8
SS
 62
   143
420
  6730444
370
     0
100
AcDbLine
 10
128.9585752705382
 20
54.71355519835888
 30
0.0
 11
126.1898576786377
 21
53.97168008832666
 31
0.0
  0
LINE
  5
14A
330
13C
100
AcDbEntity
  8
SS
 62
   143
420
  6730444
370
     0
100
AcDbLine
 10
128.9585752705382
 20
54.71355519835888
 30
0.0
 11
126.1898576786377
 21
54.71355519835888
 31
0.0
  0
MTEXT
  5
14B
330
13C
100
AcDbEntity
  8
SS
100
AcDbMText
 10
129.6978111790556
 20
55.21332340979422
 30
0.0
 40
0.2
 41
0.0
 46
0.0
 71
     7
 72
     1
  1
\C143;\c13415014;\FKozGoPr6N-Regular|b0|i0|c128;\H2.498843;\W1.150000;∅25.0
 73
     1
 44
1.0
  0
ENDBLK
  5
13F
330
13C
100
AcDbEntity
  8
0
100
AcDbBlockEnd
  0
ENDSEC
  0
SECTION
  2
ENTITIES
  0
MTEXT
  5
79
330
70
100
AcDbEntity
  8
CLASS1
100
AcDbMText
 10
78.4721265808594
 20
11.08310297053143
 30
0.0
 40
0.2
 41
0.0
 46
0.0
 71
     7
 72
     1
  1
\C143;\c13415014;\FKozGoPr6N-Regular|b0|i0|c128;\H2.497667;\W1.016950;2021年11月22日 作成
 73
     1
 44
1.0
  0
MTEXT
  5
7A
330
70
100
AcDbEntity
  8
CLASS1
100
AcDbMText
 10
111.1104013801
 20
21.15984779464697
 30
0.0
 40
0.2
 41
0.0
 46
0.0
 71
     7
 72
     1
  1
\C143;\c13415014;\FKozGoPr6N-Regular|b0|i0|c128;\H2.497667;\W0.833330;熊谷
 73
     1
 44
1.0
  0
MTEXT
  5
7B
330
70
100
AcDbEntity
  8
CLASS1
100
AcDbMText
 10
96.11734582829271
 20
21.15984779464697
 30
0.0
 40
0.2
 41
0.0
 46
0.0
 71
     7
 72
     1
  1
\C143;\c13415014;\FKozGoPr6N-Regular|b0|i0|c128;\H2.497667;\W0.833330;中田
 73
     1
 44
1.0
  0
MTEXT
  5
7C
330
70
100
AcDbEntity
  8
CLASS1
100
AcDbMText
 10
80.90217312803565
 20
21.15984779464697
 30
0.0
 40
0.2
 41
0.0
 46
0.0
 71
     7
 72
     1
  1
\C143;\c13415014;\FKozGoPr6N-Regular|b0|i0|c128;\H2.497667;\W0.833330;伊藤
 73
     1
 44
1.0
  0
MTEXT
  5
7D
330
70
100
AcDbEntity
  8
CLASS1
100
AcDbMText
 10
18.76136020615222
 20
38.42384704053103
 30
0.0
 40
0.2
 41
0.0
 46
0.0
 71
     7
 72
     1
  1
\C143;\c13415014;\FKozGoPr6N-Regular|b0|i0|c128;\H2.997200;\W0.858590;注：（ ）内寸法は参考寸法である。
 73
     1
 44
1.0
  0
MTEXT
  5
7E
330
70
100
AcDbEntity
  8
CLASS1
100
AcDbMText
 10
147.7999685129903
 20
14.67450129883856
 30
0.0
 40
0.2
 41
0.0
 46
0.0
 71
     7
 72
     1
  1
\C143;\c13415014;\FKozGoPr6N-Regular|b0|i0|c128;\H4.497916;\W0.833330;Ｓトラップ
 73
     1
 44
1.0
  0
MTEXT
  5
7F
330
70
100
AcDbEntity
  8
CLASS1
100
AcDbMText
 10
141.6982630057538
 20
25.92039781558208
 30
0.0
 40
0.2
 41
0.0
 46
0.0
 71
     7
 72
     1
  1
\C143;\c13415014;\FKozGoPr6N-Regular|b0|i0|c128;\H3.746500;\W1.052630;SC-MDW-S
 73
     1
 44
1.0
  0
LINE
  5
80
330
70
100
AcDbEntity
  8
CLASS1
 62
     4
420
    65535
370
    25
100
AcDbLine
 10
76.96435183261087
 20
15.08124999622969
 30
0.0
 11
121.9435184880324
 21
15.08124999622969
 31
0.0
  0
LINE
  5
81
330
70
100
AcDbEntity
  8
CLASS1
 62
     4
420
    65535
370
    25
100
AcDbLine
 10
76.96435183261087
 20
30.07430554803698
 30
0.0
 11
121.9435184880324
 21
30.07430554803698
 31
0.0
  0
LINE
  5
82
330
70
100
AcDbEntity
  8
CLASS1
 62
     4
420
    65535
370
    25
100
AcDbLine
 10
9.995370367871421
 20
35.07199073197253
 30
0.0
 11
137.1364784485859
 21
35.07199073197253
 31
0.0
  0
LINE
  5
83
330
70
100
AcDbEntity
  8
CLASS1
 62
     4
420
    65535
370
    25
100
AcDbLine
 10
9.995370367871421
 20
22.57777777213334
 30
0.0
 11
76.96435183261087
 21
22.57777777213334
 31
0.0
  0
LINE
  5
84
330
70
100
AcDbEntity
  8
CLASS1
 62
     4
420
    65535
370
    25
100
AcDbLine
 10
56.97361109686771
 20
35.07199073197253
 30
0.0
 11
56.97361109686771
 21
22.57777777213334
 31
0.0
  0
LINE
  5
85
330
70
100
AcDbEntity
  8
CLASS1
 62
     4
420
    65535
370
    25
100
AcDbLine
 10
36.98287036112455
 20
35.07199073197253
 30
0.0
 11
36.98287036112455
 21
22.57777777213334
 31
0.0
  0
LINE
  5
86
330
70
100
AcDbEntity
  8
CLASS1
 62
     4
420
    65535
370
    25
100
AcDbLine
 10
61.97129628080358
 20
35.07199073197253
 30
0.0
 11
61.97129628080358
 21
22.57777777213334
 31
0.0
  0
LINE
  5
87
330
70
100
AcDbEntity
  8
CLASS1
 62
     4
420
    65535
370
    25
100
AcDbLine
 10
72.74865944709052
 20
31.5589289036845
 30
0.0
 11
65.04890180271899
 21
25.1424648663998
 31
0.0
  0
LINE
  5
88
330
70
100
AcDbEntity
  8
CLASS1
 62
     4
420
    65535
370
    25
100
AcDbLine
 10
137.1364784485859
 20
35.07199073197253
 30
0.0
 11
199.9074073574303
 21
35.07199073197253
 31
0.0
  0
LINE
  5
89
330
70
100
AcDbEntity
  8
CLASS1
 62
     4
420
    65535
370
    25
100
AcDbLine
 10
121.9435184880324
 20
22.57777777213334
 30
0.0
 11
199.9074073574303
 21
22.57777777213334
 31
0.0
  0
MTEXT
  5
8A
330
70
100
AcDbEntity
  8
CLASS1
100
AcDbMText
 10
109.0712708942274
 20
30.97541333589764
 30
0.0
 40
0.2
 41
0.0
 46
0.0
 71
     7
 72
     1
  1
\C140;\c16760576;\FKozGoPr6N-Regular|b0|i0|c128;\H2.497667;\W1.043410;承　認
 73
     1
 44
1.0
  0
MTEXT
  5
8B
330
70
100
AcDbEntity
  8
CLASS1
100
AcDbMText
 10
79.08515979061284
 20
30.97541333589764
 30
0.0
 40
0.2
 41
0.0
 46
0.0
 71
     7
 72
     1
  1
\C140;\c16760576;\FKozGoPr6N-Regular|b0|i0|c128;\H2.497667;\W1.043410;製　図
 73
     1
 44
1.0
  0
MTEXT
  5
8C
330
70
100
AcDbEntity
  8
CLASS1
100
AcDbMText
 10
94.07821534242012
 20
30.97541333589764
 30
0.0
 40
0.2
 41
0.0
 46
0.0
 71
     7
 72
     1
  1
\C140;\c16760576;\FKozGoPr6N-Regular|b0|i0|c128;\H2.497667;\W1.043410;検　図
 73
     1
 44
1.0
  0
MTEXT
  5
8D
330
70
100
AcDbEntity
  8
CLASS1
100
AcDbMText
 10
122.8326186826707
 20
29.72984175468641
 30
0.0
 40
0.2
 41
0.0
 46
0.0
 71
     7
 72
     1
  1
\C140;\c16760576;\FKozGoPr6N-Regular|b0|i0|c128;\H2.497667;\W1.043410;品
 73
     1
 44
1.0
  0
MTEXT
  5
8E
330
70
100
AcDbEntity
  8
CLASS1
100
AcDbMText
 10
122.8326186826707
 20
24.73216015939178
 30
0.0
 40
0.2
 41
0.0
 46
0.0
 71
     7
 72
     1
  1
\C140;\c16760576;\FKozGoPr6N-Regular|b0|i0|c128;\H2.497667;\W1.043410;番
 73
     1
 44
1.0
  0
MTEXT
  5
8F
330
70
100
AcDbEntity
  8
CLASS1
100
AcDbMText
 10
122.8326186826707
 20
17.23563238348813
 30
0.0
 40
0.2
 41
0.0
 46
0.0
 71
     7
 72
     1
  1
\C140;\c16760576;\FKozGoPr6N-Regular|b0|i0|c128;\H2.497667;\W1.043410;品
 73
     1
 44
1.0
  0
MTEXT
  5
90
330
70
100
AcDbEntity
  8
CLASS1
100
AcDbMText
 10
38.35611592499485
 20
26.87461928649424
 30
0.0
 40
0.2
 41
0.0
 46
0.0
 71
     7
 72
     1
  1
\C140;\c16760576;\FKozGoPr6N-Regular|b0|i0|c128;\H2.497667;\W1.043410;単位ｍｍ
 73
     1
 44
1.0
  0
MTEXT
  5
91
330
70
100
AcDbEntity
  8
CLASS1
100
AcDbMText
 10
57.86270949718526
 20
24.73216015939178
 30
0.0
 40
0.2
 41
0.0
 46
0.0
 71
     7
 72
     1
  1
\C140;\c16760576;\FKozGoPr6N-Regular|b0|i0|c128;\H2.497667;\W1.043410;度
 73
     1
 44
1.0
  0
MTEXT
  5
92
330
70
100
AcDbEntity
  8
CLASS1
100
AcDbMText
 10
57.86270949718526
 20
29.72984175468641
 30
0.0
 40
0.2
 41
0.0
 46
0.0
 71
     7
 72
     1
  1
\C140;\c16760576;\FKozGoPr6N-Regular|b0|i0|c128;\H2.497667;\W1.043410;尺
 73
     1
 44
1.0
  0
MTEXT
  5
93
330
70
100
AcDbEntity
  8
CLASS1
100
AcDbMText
 10
65.10709934726218
 20
29.4919121562555
 30
0.0
 40
0.2
 41
0.0
 46
0.0
 71
     7
 72
     1
  1
\C110;\c8388352;\FKozGoPr6N-Regular|b0|i0|c128;\H3.748263;\W1.399880;1
 73
     1
 44
1.0
  0
MTEXT
  5
94
330
70
100
AcDbEntity
  8
CLASS1
100
AcDbMText
 10
72.00723264801382
 20
24.25732103377129
 30
0.0
 40
0.2
 41
0.0
 46
0.0
 71
     7
 72
     1
  1
\C110;\c8388352;\FKozGoPr6N-Regular|b0|i0|c128;\H3.748263;\W1.399880;1
 73
     1
 44
1.0
  0
MTEXT
  5
95
330
70
100
AcDbEntity
  8
CLASS1
100
AcDbMText
 10
122.8326186826707
 20
12.2379454052318
 30
0.0
 40
0.2
 41
0.0
 46
0.0
 71
     7
 72
     1
  1
\C140;\c16760576;\FKozGoPr6N-Regular|b0|i0|c128;\H2.497667;\W1.043410;名
 73
     1
 44
1.0
  0
LINE
  5
96
330
70
100
AcDbEntity
  8
CLASS1
 62
     4
420
    65535
370
    25
100
AcDbLine
 10
76.96435183261087
 20
35.07199073197253
 30
0.0
 11
76.96435183261087
 21
10.08356481229414
 31
0.0
  0
LINE
  5
97
330
70
100
AcDbEntity
  8
CLASS1
 62
     4
420
    65535
370
    25
100
AcDbLine
 10
126.9412036719686
 20
35.07199073197253
 30
0.0
 11
126.9412036719686
 21
10.08356481229414
 31
0.0
  0
LINE
  5
98
330
70
100
AcDbEntity
  8
CLASS1
 62
     4
420
    65535
370
    25
100
AcDbLine
 10
91.95740738441816
 20
35.07199073197253
 30
0.0
 11
91.95740738441816
 21
15.08124999622969
 31
0.0
  0
LINE
  5
99
330
70
100
AcDbEntity
  8
CLASS1
 62
     4
420
    65535
370
    25
100
AcDbLine
 10
106.9504629362251
 20
35.07199073197253
 30
0.0
 11
106.9504629362251
 21
15.08124999622969
 31
0.0
  0
LINE
  5
9A
330
70
100
AcDbEntity
  8
CLASS1
 62
     4
420
    65535
370
    25
100
AcDbLine
 10
121.9435184880324
 20
35.07199073197253
 30
0.0
 11
121.9435184880324
 21
10.08356481229414
 31
0.0
  0
LINE
  5
9B
330
70
100
AcDbEntity
  8
CLASS1
 62
   120
420
    65471
370
    25
100
AcDbLine
 10
9.995370367871421
 20
10.08356481229414
 30
0.0
 11
9.995370367871421
 21
286.9553240023354
 31
0.0
  0
LINE
  5
9C
330
70
100
AcDbEntity
  8
CLASS1
 62
   120
420
    65471
370
    25
100
AcDbLine
 10
9.995370367871421
 20
286.9553240023354
 30
0.0
 11
199.9074073574303
 21
286.9553240023354
 31
0.0
  0
LINE
  5
9D
330
70
100
AcDbEntity
  8
CLASS1
 62
   120
420
    65471
370
    25
100
AcDbLine
 10
199.9074073574303
 20
10.08356481229414
 30
0.0
 11
199.9074073574303
 21
286.9553240023354
 31
0.0
  0
LINE
  5
9E
330
70
100
AcDbEntity
  8
CLASS1
 62
   120
420
    65471
370
    25
100
AcDbLine
 10
9.995370367871421
 20
10.08356481229414
 30
0.0
 11
199.9074073574303
 21
10.08356481229414
 31
0.0
  0
MTEXT
  5
9F
330
70
100
AcDbEntity
  8
CLASS1
100
AcDbMText
 10
16.43984375516187
 20
14.67438287368126
 30
0.0
 40
0.2
 41
0.0
 46
0.0
 71
     7
 72
     1
  1
\C143;\c14789448;\FKozGoPr6N-Regular|b0|i0|c128;\H2.497667;\W1.043410;MARDAK INTERNATIONAL
 73
     1
 44
1.0
  0
LINE
  5
A1
330
70
100
AcDbEntity
  8
DEFPOINTS
 62
     4
420
    65535
370
    25
100
AcDbLine
 10
209.9027777253021
 20
0.0881944444223958
 30
0.0
 11
209.9027777253021
 21
296.9506943702068
 31
0.0
  0
LINE
  5
A2
330
70
100
AcDbEntity
  8
DEFPOINTS
 62
     4
420
    65535
370
    25
100
AcDbLine
 10
0.0
 20
0.0881944444223958
 30
0.0
 11
0.0
 21
296.9506943702068
 31
0.0
  0
LINE
  5
A3
330
70
100
AcDbEntity
  8
DEFPOINTS
 62
     4
420
    65535
370
    25
100
AcDbLine
 10
0.0
 20
0.0881944444223958
 30
0.0
 11
209.9027777253021
 21
0.0881944444223958
 31
0.0
  0
LINE
  5
A4
330
70
100
AcDbEntity
  8
DEFPOINTS
 62
     4
420
    65535
370
    25
100
AcDbLine
 10
0.0
 20
296.9506943702068
 30
0.0
 11
209.9027777253021
 21
296.9506943702068
 31
0.0
  0
LINE
  5
A6
330
70
100
AcDbEntity
  8
SS
 62
     3
420
    65280
370
    25
100
AcDbLine
 10
141.4527882303774
 20
145.916335109354
 30
0.0
 11
141.4527882303774
 21
85.44434438373144
 31
0.0
  0
LINE
  5
A7
330
70
100
AcDbEntity
  8
SS
 62
     3
420
    65280
370
    25
100
AcDbLine
 10
128.9585752705382
 20
145.916335109354
 30
0.0
 11
128.9585752705382
 21
85.44434438373144
 31
0.0
  0
INSERT
  5
A9
330
70
100
AcDbEntity
  8
SS
100
AcDbBlockReference
  2
Block_0
 10
0.0
 20
0.0
 30
0.0
  0
LINE
  5
B6
330
70
100
AcDbEntity
  8
SS
 62
     3
420
    65280
370
    25
100
AcDbLine
 10
141.4527882303774
 20
197.8922610222861
 30
0.0
 11
141.4527882303774
 21
147.9154091829287
 31
0.0
  0
LINE
  5
B7
330
70
100
AcDbEntity
  8
SS
 62
     3
420
    65280
370
    25
100
AcDbLine
 10
128.9585752705382
 20
197.8922610222861
 30
0.0
 11
128.9585752705382
 21
147.9154091829287
 31
0.0
  0
SPLINE
  5
B8
330
70
100
AcDbEntity
  8
SS
 62
     3
420
    65280
370
    25
100
AcDbSpline
210
0.0
220
0.0
230
1.0
 70
     8
 71
     3
 72
     8
 73
     4
 74
     0
 42
0.0000000001
 43
0.0000000001
 40
0.0
 40
0.0
 40
0.0
 40
0.0
 40
1.0
 40
1.0
 40
1.0
 40
1.0
 10
135.2056817241702
 20
145.9163351179874
 30
0.0
 10
137.2347419249799
 20
145.2499770819519
 30
0.0
 10
139.4237280558549
 20
145.2499770819519
 30
0.0
 10
141.4527882566646
 20
145.9163351179874
 30
0.0
  0
SPLINE
  5
B9
330
70
100
AcDbEntity
  8
SS
 62
     3
420
    65280
370
    25
100
AcDbSpline
210
0.0
220
0.0
230
1.0
 70
     8
 71
     3
 72
     8
 73
     4
 74
     0
 42
0.0000000001
 43
0.0000000001
 40
0.0
 40
0.0
 40
0.0
 40
0.0
 40
1.0
 40
1.0
 40
1.0
 40
1.0
 10
135.2056817241702
 20
147.9154091915614
 30
0.0
 10
137.2347419249799
 20
147.249051155526
 30
0.0
 10
139.4237280558549
 20
147.249051155526
 30
0.0
 10
141.4527882566646
 20
147.9154091915614
 30
0.0
  0
SPLINE
  5
BA
330
70
100
AcDbEntity
  8
SS
 62
     3
420
    65280
370
    25
100
AcDbSpline
210
0.0
220
0.0
230
1.0
 70
     8
 71
     3
 72
     8
 73
     4
 74
     0
 42
0.0000000001
 43
0.0000000001
 40
0.0
 40
0.0
 40
0.0
 40
0.0
 40
1.0
 40
1.0
 40
1.0
 40
1.0
 10
135.2056817767453
 20
147.9154091742959
 30
0.0
 10
133.1766215759356
 20
148.5817672103311
 30
0.0
 10
130.9876354450607
 20
148.5817672103311
 30
0.0
 10
128.958575244251
 20
147.9154091742959
 30
0.0
  0
SPLINE
  5
BB
330
70
100
AcDbEntity
  8
SS
 62
     3
420
    65280
370
    25
100
AcDbSpline
210
0.0
220
0.0
230
1.0
 70
     8
 71
     3
 72
     8
 73
     4
 74
     0
 42
0.0000000001
 43
0.0000000001
 40
0.0
 40
0.0
 40
0.0
 40
0.0
 40
1.0
 40
1.0
 40
1.0
 40
1.0
 10
135.2056817767453
 20
145.9163351007212
 30
0.0
 10
133.1766215759356
 20
146.5826931367567
 30
0.0
 10
130.9876354450607
 20
146.5826931367567
 30
0.0
 10
128.958575244251
 20
145.9163351007212
 30
0.0
  0
INSERT
  5
BD
330
70
100
AcDbEntity
  8
SS
100
AcDbBlockReference
  2
Block_1
 10
0.0
 20
0.0
 30
0.0
  0
INSERT
  5
CB
330
70
100
AcDbEntity
  8
SS
100
AcDbBlockReference
  2
Block_2
 10
0.0
 20
0.0
 30
0.0
  0
INSERT
  5
DB
330
70
100
AcDbEntity
  8
SS
100
AcDbBlockReference
  2
Block_3
 10
0.0
 20
0.0
 30
0.0
  0
INSERT
  5
EC
330
70
100
AcDbEntity
  8
SS
100
AcDbBlockReference
  2
Block_4
 10
0.0
 20
0.0
 30
0.0
  0
INSERT
  5
FD
330
70
100
AcDbEntity
  8
SS
100
AcDbBlockReference
  2
Block_5
 10
0.0
 20
0.0
 30
0.0
  0
MTEXT
  5
104
330
70
100
AcDbEntity
  8
SS
100
AcDbMText
 10
93.17359786353385
 20
258.101773684932
 30
0.0
 40
0.2
 41
0.0
 46
0.0
 71
     7
 72
     1
  1
\C143;\c13415014;\FKozGoPr6N-Regular|b0|i0|c128;\H2.498843;\W0.865390;W32山１６
 73
     1
 44
1.0
  0
INSERT
  5
106
330
70
100
AcDbEntity
  8
SS
100
AcDbBlockReference
  2
Block_6
 10
0.0
 20
0.0
 30
0.0
  0
INSERT
  5
114
330
70
100
AcDbEntity
  8
SS
100
AcDbBlockReference
  2
Block_7
 10
0.0
 20
0.0
 30
0.0
  0
INSERT
  5
121
330
70
100
AcDbEntity
  8
SS
100
AcDbBlockReference
  2
Block_8
 10
0.0
 20
0.0
 30
0.0
  0
INSERT
  5
12F
330
70
100
AcDbEntity
  8
SS
100
AcDbBlockReference
  2
Block_9
 10
0.0
 20
0.0
 30
0.0
  0
INSERT
  5
13D
330
70
100
AcDbEntity
  8
SS
100
AcDbBlockReference
  2
Block_10
 10
0.0
 20
0.0
 30
0.0
  0
LINE
  5
14C
330
70
100
AcDbEntity
  8
SS
 62
     3
420
    65280
370
    25
100
AcDbLine
 10
81.48056602314822
 20
188.2711892876545
 30
0.0
 11
81.48056602314822
 21
187.647006395218
 31
0.0
  0
SPLINE
  5
14D
330
70
100
AcDbEntity
  8
SS
 62
     3
420
    65280
370
    25
100
AcDbSpline
210
0.0
220
0.0
230
1.0
 70
     8
 71
     3
 72
    11
 73
     7
 74
     0
 42
0.0000000001
 43
0.0000000001
 40
0.0
 40
0.0
 40
0.0
 40
0.0
 40
1.0
 40
1.0
 40
1.0
 40
2.0
 40
2.0
 40
2.0
 40
2.0
 10
141.4527882303774
 20
197.8922610222861
 30
0.0
 10
141.4527882303774
 20
209.622878596344
 30
0.0
 10
131.9432437727083
 20
219.1324230540133
 30
0.0
 10
120.2126261986508
 20
219.1324230540133
 30
0.0
 10
108.4820086245926
 20
219.1324230540133
 30
0.0
 10
98.97246416692361
 20
209.622878596344
 30
0.0
 10
98.97246416692361
 20
197.8922610222861
 30
0.0
  0
SPLINE
  5
14E
330
70
100
AcDbEntity
  8
SS
 62
     3
420
    65280
370
    25
100
AcDbSpline
210
0.0
220
0.0
230
1.0
 70
     8
 71
     3
 72
    11
 73
     7
 74
     0
 42
0.0000000001
 43
0.0000000001
 40
0.0
 40
0.0
 40
0.0
 40
0.0
 40
1.0
 40
1.0
 40
1.0
 40
2.0
 40
2.0
 40
2.0
 40
2.0
 10
81.48056602314822
 20
187.647006395218
 30
0.0
 10
81.48056602314822
 20
182.8167521000176
 30
0.0
 10
85.39626079983586
 20
178.9010573233303
 30
0.0
 10
90.22651509503591
 20
178.9010573233303
 30
0.0
 10
95.05676939023627
 20
178.9010573233303
 30
0.0
 10
98.97246416692361
 20
182.8167521000176
 30
0.0
 10
98.97246416692361
 20
187.647006395218
 30
0.0
  0
LINE
  5
14F
330
70
100
AcDbEntity
  8
SS
 62
     3
420
    65280
370
    25
100
AcDbLine
 10
135.2056817504581
 20
62.9547610560205
 30
0.0
 11
141.4527882303774
 21
62.9547610560205
 31
0.0
  0
LINE
  5
150
330
70
100
AcDbEntity
  8
SS
 62
     3
420
    65280
370
    25
100
AcDbLine
 10
150.1987373022654
 20
77.94781660782779
 30
0.0
 11
150.1987373022654
 21
78.44758512622115
 31
0.0
  0
LINE
  5
151
330
70
100
AcDbEntity
  8
SS
 62
     3
420
    65280
370
    25
100
AcDbLine
 10
141.4527882303774
 20
77.94781660782779
 30
0.0
 11
141.4527882303774
 21
62.9547610560205
 31
0.0
  0
LINE
  5
152
330
70
100
AcDbEntity
  8
SS
 62
     3
420
    65280
370
    25
100
AcDbLine
 10
135.2056817504581
 20
77.94781660782779
 30
0.0
 11
150.1987373022654
 21
77.94781660782779
 31
0.0
  0
SPLINE
  5
153
330
70
100
AcDbEntity
  8
SS
 62
     3
420
    65280
370
    25
100
AcDbSpline
210
0.0
220
0.0
230
1.0
 70
     8
 71
     3
 72
     8
 73
     4
 74
     0
 42
0.0000000001
 43
0.0000000001
 40
0.0
 40
0.0
 40
0.0
 40
0.0
 40
1.0
 40
1.0
 40
1.0
 40
1.0
 10
150.1987373022654
 20
78.44758512622115
 30
0.0
 10
150.1987373022654
 20
82.31178856238184
 30
0.0
 10
147.0661814809151
 20
85.44434438373144
 30
0.0
 10
143.2019780447551
 20
85.44434438373144
 30
0.0
  0
LINE
  5
154
330
70
100
AcDbEntity
  8
SS
 62
     3
420
    65280
370
    25
100
AcDbLine
 10
143.2019780447551
 20
85.44434438373144
 30
0.0
 11
135.2056817504581
 21
85.44434438373144
 31
0.0
  0
LINE
  5
155
330
70
100
AcDbEntity
  8
SS
 62
     3
420
    65280
370
    25
100
AcDbLine
 10
98.97246416692361
 20
187.647006395218
 30
0.0
 11
98.97246416692361
 21
189.6460804687921
 31
0.0
  0
LINE
  5
156
330
70
100
AcDbEntity
  8
SS
 62
     3
420
    65280
370
    25
100
AcDbLine
 10
97.73103916723387
 20
189.6460804687921
 30
0.0
 11
97.73103916723387
 21
189.7460341724709
 31
0.0
  0
LINE
  5
157
330
70
100
AcDbEntity
  8
SS
 62
     3
420
    65280
370
    25
100
AcDbLine
 10
97.63108546355534
 20
189.7460341724709
 30
0.0
 11
97.73103916723387
 21
189.6460804687921
 31
0.0
  0
LINE
  5
158
330
70
100
AcDbEntity
  8
SS
 62
     3
420
    65280
370
    25
100
AcDbLine
 10
96.4736215749555
 20
189.7460341724709
 30
0.0
 11
105.2195706468435
 21
189.7460341724709
 31
0.0
  0
LINE
  5
159
330
70
100
AcDbEntity
  8
SS
 62
     3
420
    65280
370
    25
100
AcDbLine
 10
105.2195706468435
 20
189.6460804687921
 30
0.0
 11
97.73103916723387
 21
189.6460804687921
 31
0.0
  0
ELLIPSE
  5
15A
330
70
100
AcDbEntity
  8
SS
 62
     3
420
    65280
370
    25
100
AcDbEllipse
 10
97.42895108767982
 20
192.4947610236355
 30
0.0
 11
0.0000000000000002
 21
2.468814889341518
 31
0.0
210
0.0
220
0.0
230
1.0
 40
0.8226739999999953
 41
0.0
 42
6.283185307179586
  0
SPLINE
  5
15B
330
70
100
AcDbEntity
  8
SS
 62
     3
420
    65280
370
    25
100
AcDbSpline
210
0.0
220
0.0
230
1.0
 70
     8
 71
     3
 72
    11
 73
     7
 74
     0
 42
0.0000000001
 43
0.0000000001
 40
0.0
 40
0.0
 40
0.0
 40
0.0
 40
1.0
 40
1.0
 40
1.0
 40
2.0
 40
2.0
 40
2.0
 40
2.0
 10
105.2195706468435
 20
194.9635758403593
 30
0.0
 10
102.9761565267379
 20
194.9635758403593
 30
0.0
 10
101.15751005076
 20
193.8582497970684
 30
0.0
 10
101.15751005076
 20
192.4947610236357
 30
0.0
 10
101.15751005076
 20
191.1312722502028
 30
0.0
 10
102.9761565267379
 20
190.0259462069118
 30
0.0
 10
105.2195706468435
 20
190.0259462069118
 30
0.0
  0
SPLINE
  5
15C
330
70
100
AcDbEntity
  8
SS
 62
     3
420
    65280
370
    25
100
AcDbSpline
210
0.0
220
0.0
230
1.0
 70
     8
 71
     3
 72
     8
 73
     4
 74
     0
 42
0.0000000001
 43
0.0000000001
 40
0.0
 40
0.0
 40
0.0
 40
0.0
 40
1.0
 40
1.0
 40
1.0
 40
1.0
 10
96.47362152802774
 20
195.2434877816091
 30
0.0
 10
94.97431603541746
 20
193.7176793973811
 30
0.0
 10
94.97431603541746
 20
191.2718426498904
 30
0.0
 10
96.47362152802774
 20
189.746034265662
 30
0.0
  0
LINE
  5
15D
330
70
100
AcDbEntity
  8
SS
 62
     3
420
    65280
370
    25
100
AcDbLine
 10
105.2195706468435
 20
195.2434878748002
 30
0.0
 11
96.4736215749555
 21
195.2434878748002
 31
0.0
  0
LINE
  5
15E
330
70
100
AcDbEntity
  8
SS
 62
     3
420
    65280
370
    25
100
AcDbLine
 10
98.97246416692361
 20
197.8922610222861
 30
0.0
 11
98.97246416692361
 21
195.2434878748002
 31
0.0
  0
SPLINE
  5
15F
330
70
100
AcDbEntity
  8
SS
 62
     3
420
    65280
370
    25
100
AcDbSpline
210
0.0
220
0.0
230
1.0
 70
     8
 71
     3
 72
     8
 73
     4
 74
     0
 42
0.0000000001
 43
0.0000000001
 40
0.0
 40
0.0
 40
0.0
 40
0.0
 40
1.0
 40
1.0
 40
1.0
 40
1.0
 10
81.67986950181166
 20
189.2491126823093
 30
0.0
 10
81.54835228263189
 20
188.9398563630214
 30
0.0
 10
81.48056602314822
 20
188.6072491780908
 30
0.0
 10
81.48056602314822
 20
188.2711892876545
 30
0.0
  0
LINE
  5
160
330
70
100
AcDbEntity
  8
SS
 62
     3
420
    65280
370
    25
100
AcDbLine
 10
81.85599713185068
 20
189.6632655090657
 30
0.0
 11
81.67986971013572
 21
189.2491123355579
 31
0.0
  0
LINE
  5
161
330
70
100
AcDbEntity
  8
SS
 62
     3
420
    65280
370
    25
100
AcDbLine
 10
81.58051972682708
 20
189.594913168342
 30
0.0
 11
75.23345954322862
 21
189.594913168342
 31
0.0
  0
SPLINE
  5
162
330
70
100
AcDbEntity
  8
SS
 62
     3
420
    65280
370
    25
100
AcDbSpline
210
0.0
220
0.0
230
1.0
 70
     8
 71
     3
 72
     8
 73
     4
 74
     0
 42
0.0000000001
 43
0.0000000001
 40
0.0
 40
0.0
 40
0.0
 40
0.0
 40
1.0
 40
1.0
 40
1.0
 40
1.0
 10
81.855996340638
 20
189.6632661618514
 30
0.0
 10
81.98751355981777
 20
189.9725224811393
 30
0.0
 10
82.05529981930112
 20
190.3051296660695
 30
0.0
 10
82.05529981930112
 20
190.6411895565065
 30
0.0
  0
LINE
  5
163
330
70
100
AcDbEntity
  8
SS
 62
     3
420
    65280
370
    25
100
AcDbLine
 10
82.05529981930112
 20
190.6411895565065
 30
0.0
 11
82.05529981930112
 21
206.355608988689
 31
0.0
  0
LINE
  5
164
330
70
100
AcDbEntity
  8
SS
 62
     3
420
    65280
370
    25
100
AcDbLine
 10
75.23345954322862
 20
206.6382100941738
 30
0.0
 11
82.72199102283794
 21
206.6382100941738
 31
0.0
  0
LINE
  5
165
330
70
100
AcDbEntity
  8
SS
 62
     3
420
    65280
370
    25
100
AcDbLine
 10
83.22975583752594
 20
207.2101671764383
 30
0.0
 11
83.22975583752594
 21
207.1459749088615
 31
0.0
  0
SPLINE
  5
166
330
70
100
AcDbEntity
  8
SS
 62
     3
420
    65280
370
    25
100
AcDbSpline
210
0.0
220
0.0
230
1.0
 70
     8
 71
     3
 72
     8
 73
     4
 74
     0
 42
0.0000000001
 43
0.0000000001
 40
0.0
 40
0.0
 40
0.0
 40
0.0
 40
1.0
 40
1.0
 40
1.0
 40
1.0
 10
83.97940866204407
 20
207.2101672696291
 30
0.0
 10
85.47871415465435
 20
208.7359756538578
 30
0.0
 10
85.47871415465435
 20
211.1818124013481
 30
0.0
 10
83.97940866204441
 20
212.7076207855765
 30
0.0
  0
ELLIPSE
  5
167
330
70
100
AcDbEntity
  8
SS
 62
     3
420
    65280
370
    25
100
AcDbEllipse
 10
83.02408010192914
 20
209.9588940276028
 30
0.0
 11
0.0000000000000002
 21
2.468814889341518
 31
0.0
210
0.0
220
0.0
230
1.0
 40
0.8226740000000926
 41
0.0
 42
6.283185307179586
  0
SPLINE
  5
168
330
70
100
AcDbEntity
  8
SS
 62
     3
420
    65280
370
    25
100
AcDbSpline
210
0.0
220
0.0
230
1.0
 70
     8
 71
     3
 72
    11
 73
     7
 74
     0
 42
0.0000000001
 43
0.0000000001
 40
0.0
 40
0.0
 40
0.0
 40
0.0
 40
1.0
 40
1.0
 40
1.0
 40
2.0
 40
2.0
 40
2.0
 40
2.0
 10
75.23345954322862
 20
207.4900792108789
 30
0.0
 10
77.47687366333386
 20
207.4900792108789
 30
0.0
 10
79.29552013931183
 20
208.5954052541704
 30
0.0
 10
79.29552013931183
 20
209.9588940276027
 30
0.0
 10
79.29552013931183
 20
211.3223828010357
 30
0.0
 10
77.47687366333386
 20
212.4277088443267
 30
0.0
 10
75.23345954322862
 20
212.4277088443267
 30
0.0
  0
LINE
  5
169
330
70
100
AcDbEntity
  8
SS
 62
     3
420
    65280
370
    25
100
AcDbLine
 10
83.97940861511631
 20
207.2101671764383
 30
0.0
 11
75.23345954322862
 21
207.2101671764383
 31
0.0
  0
LINE
  5
16A
330
70
100
AcDbEntity
  8
SS
 62
     3
420
    65280
370
    25
100
AcDbLine
 10
75.23345954322862
 20
212.7076208787675
 30
0.0
 11
83.97940861511631
 21
212.7076208787675
 31
0.0
  0
LINE
  5
16B
330
70
100
AcDbEntity
  8
SS
 62
     3
420
    65280
370
    25
100
AcDbLine
 10
83.22975583752594
 20
207.1459749088615
 30
0.0
 11
82.72199102283794
 21
206.6382100941738
 31
0.0
  0
LINE
  5
16C
330
70
100
AcDbEntity
  8
SS
 62
     3
420
    65280
370
    25
100
AcDbLine
 10
82.72199102283794
 20
206.6382100941738
 30
0.0
 11
82.72199102283794
 21
207.2101671764383
 31
0.0
  0
LINE
  5
16D
330
70
100
AcDbEntity
  8
SS
 62
     3
420
    65280
370
    25
100
AcDbLine
 10
83.22975583752594
 20
207.1459749088615
 30
0.0
 11
75.23345954322862
 21
207.1459749088615
 31
0.0
  0
LINE
  5
16E
330
70
100
AcDbEntity
  8
SS
 62
     3
420
    65280
370
    25
100
AcDbLine
 10
81.48056602314822
 20
246.7119168489702
 30
0.0
 11
81.48056602314822
 21
212.7076208787675
 31
0.0
  0
LINE
  5
16F
330
70
100
AcDbEntity
  8
SS
 62
     3
420
    65280
370
    25
100
AcDbLine
 10
75.23345954322862
 20
246.7119168489702
 30
0.0
 11
83.97940861511631
 21
246.7119168489702
 31
0.0
  0
LINE
  5
170
330
70
100
AcDbEntity
  8
SS
 62
     3
420
    65280
370
    25
100
AcDbLine
 10
81.48056602314822
 20
246.7119168489702
 30
0.0
 11
81.48056602314822
 21
212.7076208787675
 31
0.0
  0
ELLIPSE
  5
171
330
70
100
AcDbEntity
  8
SS
 62
     3
420
    65280
370
    25
100
AcDbEllipse
 10
83.02408010192921
 20
249.4606437001348
 30
0.0
 11
0.0000000000000002
 21
2.468814889341518
 31
0.0
210
0.0
220
0.0
230
1.0
 40
0.8226740000000601
 41
0.0
 42
6.283185307179586
  0
SPLINE
  5
172
330
70
100
AcDbEntity
  8
SS
 62
     3
420
    65280
370
    25
100
AcDbSpline
210
0.0
220
0.0
230
1.0
 70
     8
 71
     3
 72
    11
 73
     7
 74
     0
 42
0.0000000001
 43
0.0000000001
 40
0.0
 40
0.0
 40
0.0
 40
0.0
 40
1.0
 40
1.0
 40
1.0
 40
2.0
 40
2.0
 40
2.0
 40
2.0
 10
75.23345954322862
 20
246.991828883411
 30
0.0
 10
77.47687366333386
 20
246.991828883411
 30
0.0
 10
79.29552013931183
 20
248.097154926702
 30
0.0
 10
79.29552013931183
 20
249.4606437001349
 30
0.0
 10
79.29552013931183
 20
250.8241324735682
 30
0.0
 10
77.47687366333386
 20
251.9294585168588
 30
0.0
 10
75.23345954322862
 20
251.9294585168588
 30
0.0
  0
SPLINE
  5
173
330
70
100
AcDbEntity
  8
SS
 62
     3
420
    65280
370
    25
100
AcDbSpline
210
0.0
220
0.0
230
1.0
 70
     8
 71
     3
 72
     8
 73
     4
 74
     0
 42
0.0000000001
 43
0.0000000001
 40
0.0
 40
0.0
 40
0.0
 40
0.0
 40
1.0
 40
1.0
 40
1.0
 40
1.0
 10
83.97940866204407
 20
246.7119169421612
 30
0.0
 10
85.47871415465435
 20
248.2377253263896
 30
0.0
 10
85.47871415465435
 20
250.6835620738799
 30
0.0
 10
83.97940866204441
 20
252.2093704581089
 30
0.0
  0
LINE
  5
174
330
70
100
AcDbEntity
  8
SS
 62
     3
420
    65280
370
    25
100
AcDbLine
 10
83.97940861511631
 20
252.2093705512993
 30
0.0
 11
75.23345954322862
 21
252.2093705512993
 31
0.0
  0
LINE
  5
175
330
70
100
AcDbEntity
  8
SS
 62
     3
420
    65280
370
    25
100
AcDbLine
 10
128.9585752705382
 20
77.94781660782779
 30
0.0
 11
128.9585752705382
 21
62.9547610560205
 31
0.0
  0
SPLINE
  5
176
330
70
100
AcDbEntity
  8
SS
 62
     3
420
    65280
370
    25
100
AcDbSpline
210
0.0
220
0.0
230
1.0
 70
     8
 71
     3
 72
     8
 73
     4
 74
     0
 42
0.0000000001
 43
0.0000000001
 40
0.0
 40
0.0
 40
0.0
 40
0.0
 40
1.0
 40
1.0
 40
1.0
 40
1.0
 10
127.2093854561604
 20
85.44434438373144
 30
0.0
 10
123.3451820200004
 20
85.44434438373144
 30
0.0
 10
120.2126261986508
 20
82.31178856238184
 30
0.0
 10
120.2126261986508
 20
78.44758512622115
 30
0.0
  0
LINE
  5
177
330
70
100
AcDbEntity
  8
SS
 62
     3
420
    65280
370
    25
100
AcDbLine
 10
127.2093854561604
 20
85.44434438373144
 30
0.0
 11
135.2056817504581
 21
85.44434438373144
 31
0.0
  0
LINE
  5
178
330
70
100
AcDbEntity
  8
SS
 62
     3
420
    65280
370
    25
100
AcDbLine
 10
120.2126261986508
 20
77.94781660782779
 30
0.0
 11
120.2126261986508
 21
78.44758512622115
 31
0.0
  0
LINE
  5
179
330
70
100
AcDbEntity
  8
SS
 62
     3
420
    65280
370
    25
100
AcDbLine
 10
135.2056817504581
 20
77.94781660782779
 30
0.0
 11
120.2126261986508
 21
77.94781660782779
 31
0.0
  0
ELLIPSE
  5
17A
330
70
100
AcDbEntity
  8
SS
 62
     3
420
    65280
370
    25
100
AcDbEllipse
 10
113.0101912055439
 20
192.4947610236355
 30
0.0
 11
0.0000000000000002
 21
2.468814889341518
 31
0.0
210
0.0
220
0.0
230
1.0
 40
0.8226740000001576
 41
0.0
 42
6.283185307179586
  0
SPLINE
  5
17B
330
70
100
AcDbEntity
  8
SS
 62
     3
420
    65280
370
    25
100
AcDbSpline
210
0.0
220
0.0
230
1.0
 70
     8
 71
     3
 72
    11
 73
     7
 74
     0
 42
0.0000000001
 43
0.0000000001
 40
0.0
 40
0.0
 40
0.0
 40
0.0
 40
1.0
 40
1.0
 40
1.0
 40
2.0
 40
2.0
 40
2.0
 40
2.0
 10
105.2195706468435
 20
190.0259462069118
 30
0.0
 10
107.4629847669484
 20
190.0259462069118
 30
0.0
 10
109.2816312429264
 20
191.1312722502028
 30
0.0
 10
109.2816312429264
 20
192.4947610236354
 30
0.0
 10
109.2816312429264
 20
193.8582497970684
 30
0.0
 10
107.4629847669484
 20
194.9635758403593
 30
0.0
 10
105.2195706468435
 20
194.9635758403593
 30
0.0
  0
SPLINE
  5
17C
330
70
100
AcDbEntity
  8
SS
 62
     3
420
    65280
370
    25
100
AcDbSpline
210
0.0
220
0.0
230
1.0
 70
     8
 71
     3
 72
     8
 73
     4
 74
     0
 42
0.0000000001
 43
0.0000000001
 40
0.0
 40
0.0
 40
0.0
 40
0.0
 40
1.0
 40
1.0
 40
1.0
 40
1.0
 10
113.965519765659
 20
189.746034265662
 30
0.0
 10
115.4648252582689
 20
191.2718426498904
 30
0.0
 10
115.4648252582689
 20
193.7176793973811
 30
0.0
 10
113.965519765659
 20
195.2434877816091
 30
0.0
  0
LINE
  5
17D
330
70
100
AcDbEntity
  8
SS
 62
     3
420
    65280
370
    25
100
AcDbLine
 10
113.9655197187309
 20
189.7460341724709
 30
0.0
 11
105.2195706468435
 21
189.7460341724709
 31
0.0
  0
LINE
  5
17E
330
70
100
AcDbEntity
  8
SS
 62
     3
420
    65280
370
    25
100
AcDbLine
 10
105.2195706468435
 20
195.2434878748002
 30
0.0
 11
113.9655197187309
 21
195.2434878748002
 31
0.0
  0
LINE
  5
17F
330
70
100
AcDbEntity
  8
SS
 62
     3
420
    65280
370
    25
100
AcDbLine
 10
135.2056817504581
 20
62.9547610560205
 30
0.0
 11
128.9585752705382
 21
62.9547610560205
 31
0.0
  0
SPLINE
  5
180
330
70
100
AcDbEntity
  8
SS
 62
     3
420
    65280
370
    25
100
AcDbSpline
210
0.0
220
0.0
230
1.0
 70
     8
 71
     3
 72
    11
 73
     7
 74
     0
 42
0.0000000001
 43
0.0000000001
 40
0.0
 40
0.0
 40
0.0
 40
0.0
 40
1.0
 40
1.0
 40
1.0
 40
2.0
 40
2.0
 40
2.0
 40
2.0
 10
128.9585752705382
 20
197.8922610222861
 30
0.0
 10
128.9585752705382
 20
202.7225153174865
 30
0.0
 10
125.0428804938505
 20
206.6382100941738
 30
0.0
 10
120.2126261986508
 20
206.6382100941738
 30
0.0
 10
115.3823719034504
 20
206.6382100941738
 30
0.0
 10
111.4666771267628
 20
202.7225153174865
 30
0.0
 10
111.4666771267628
 20
197.8922610222861
 30
0.0
  0
LINE
  5
181
330
70
100
AcDbEntity
  8
SS
 62
     3
420
    65280
370
    25
100
AcDbLine
 10
111.4666771267628
 20
197.8922610222861
 30
0.0
 11
111.4666771267628
 21
195.2434878748002
 31
0.0
  0
SPLINE
  5
182
330
70
100
AcDbEntity
  8
SS
  6
AI-Linetype-0
 62
   110
420
    65407
370
    25
100
AcDbSpline
210
0.0
220
0.0
230
1.0
 70
     8
 71
     3
 72
    11
 73
     7
 74
     0
 42
0.0000000001
 43
0.0000000001
 40
0.0
 40
0.0
 40
0.0
 40
0.0
 40
1.0
 40
1.0
 40
1.0
 40
2.0
 40
2.0
 40
2.0
 40
2.0
 10
135.2056817504581
 20
197.8922610222861
 30
0.0
 10
135.2056817504581
 20
206.1726969569154
 30
0.0
 10
128.4930621332797
 20
212.8853165740934
 30
0.0
 10
120.2126261986508
 20
212.8853165740934
 30
0.0
 10
111.9321902640212
 20
212.8853165740934
 30
0.0
 10
105.2195706468435
 20
206.1726969569154
 30
0.0
 10
105.2195706468435
 20
197.8922610222861
 30
0.0
  0
ELLIPSE
  5
184
330
70
100
AcDbEntity
  8
SS
 62
     3
420
    65280
370
    25
100
AcDbEllipse
 10
67.44283998406522
 20
209.9588940276028
 30
0.0
 11
0.0000000000000002
 21
2.468814889341518
 31
0.0
210
0.0
220
0.0
230
1.0
 40
0.8226739999999953
 41
0.0
 42
6.283185307179586
  0
SPLINE
  5
185
330
70
100
AcDbEntity
  8
SS
 62
     3
420
    65280
370
    25
100
AcDbSpline
210
0.0
220
0.0
230
1.0
 70
     8
 71
     3
 72
    11
 73
     7
 74
     0
 42
0.0000000001
 43
0.0000000001
 40
0.0
 40
0.0
 40
0.0
 40
0.0
 40
1.0
 40
1.0
 40
1.0
 40
2.0
 40
2.0
 40
2.0
 40
2.0
 10
75.23345954322862
 20
212.4277088443267
 30
0.0
 10
72.99004542312338
 20
212.4277088443267
 30
0.0
 10
71.1713989471454
 20
211.3223828010357
 30
0.0
 10
71.1713989471454
 20
209.9588940276027
 30
0.0
 10
71.1713989471454
 20
208.5954052541704
 30
0.0
 10
72.99004542312338
 20
207.4900792108789
 30
0.0
 10
75.23345954322862
 20
207.4900792108789
 30
0.0
  0
SPLINE
  5
186
330
70
100
AcDbEntity
  8
SS
 62
     3
420
    65280
370
    25
100
AcDbSpline
210
0.0
220
0.0
230
1.0
 70
     8
 71
     3
 72
     8
 73
     4
 74
     0
 42
0.0000000001
 43
0.0000000001
 40
0.0
 40
0.0
 40
0.0
 40
0.0
 40
1.0
 40
1.0
 40
1.0
 40
1.0
 10
66.48751042441315
 20
212.7076207855765
 30
0.0
 10
64.98820493180288
 20
211.1818124013481
 30
0.0
 10
64.98820493180288
 20
208.7359756538578
 30
0.0
 10
66.48751042441315
 20
207.2101672696291
 30
0.0
  0
LINE
  5
187
330
70
100
AcDbEntity
  8
SS
 62
     3
420
    65280
370
    25
100
AcDbLine
 10
66.48751047134124
 20
207.2101671764383
 30
0.0
 11
75.23345954322862
 21
207.2101671764383
 31
0.0
  0
LINE
  5
188
330
70
100
AcDbEntity
  8
SS
 62
     3
420
    65280
370
    25
100
AcDbLine
 10
75.23345954322862
 20
212.7076208787675
 30
0.0
 11
66.48751047134124
 21
212.7076208787675
 31
0.0
  0
ELLIPSE
  5
189
330
70
100
AcDbEntity
  8
SS
 62
     3
420
    65280
370
    25
100
AcDbEllipse
 10
67.44283998406522
 20
249.4606437001348
 30
0.0
 11
0.0000000000000002
 21
2.468814889341518
 31
0.0
210
0.0
220
0.0
230
1.0
 40
0.8226740000000601
 41
0.0
 42
6.283185307179586
  0
SPLINE
  5
18A
330
70
100
AcDbEntity
  8
SS
 62
     3
420
    65280
370
    25
100
AcDbSpline
210
0.0
220
0.0
230
1.0
 70
     8
 71
     3
 72
    11
 73
     7
 74
     0
 42
0.0000000001
 43
0.0000000001
 40
0.0
 40
0.0
 40
0.0
 40
0.0
 40
1.0
 40
1.0
 40
1.0
 40
2.0
 40
2.0
 40
2.0
 40
2.0
 10
75.23345954322862
 20
251.9294585168588
 30
0.0
 10
72.99004542312338
 20
251.9294585168588
 30
0.0
 10
71.1713989471454
 20
250.8241324735682
 30
0.0
 10
71.1713989471454
 20
249.4606437001349
 30
0.0
 10
71.1713989471454
 20
248.097154926702
 30
0.0
 10
72.99004542312338
 20
246.991828883411
 30
0.0
 10
75.23345954322862
 20
246.991828883411
 30
0.0
  0
SPLINE
  5
18B
330
70
100
AcDbEntity
  8
SS
 62
     3
420
    65280
370
    25
100
AcDbSpline
210
0.0
220
0.0
230
1.0
 70
     8
 71
     3
 72
     8
 73
     4
 74
     0
 42
0.0000000001
 43
0.0000000001
 40
0.0
 40
0.0
 40
0.0
 40
0.0
 40
1.0
 40
1.0
 40
1.0
 40
1.0
 10
66.48751042441315
 20
252.2093704581089
 30
0.0
 10
64.98820493180288
 20
250.6835620738799
 30
0.0
 10
64.98820493180288
 20
248.2377253263896
 30
0.0
 10
66.48751042441315
 20
246.7119169421612
 30
0.0
  0
LINE
  5
18C
330
70
100
AcDbEntity
  8
SS
 62
     3
420
    65280
370
    25
100
AcDbLine
 10
66.48751047134124
 20
252.2093705512993
 30
0.0
 11
75.23345954322862
 21
252.2093705512993
 31
0.0
  0
LINE
  5
18D
330
70
100
AcDbEntity
  8
SS
 62
     3
420
    65280
370
    25
100
AcDbLine
 10
75.23345954322862
 20
246.7119168489702
 30
0.0
 11
66.48751047134124
 21
246.7119168489702
 31
0.0
  0
LINE
  5
18E
330
70
100
AcDbEntity
  8
SS
 62
     3
420
    65280
370
    25
100
AcDbLine
 10
112.808055830131
 20
189.7460341724709
 30
0.0
 11
112.7081021264525
 21
189.6460804687921
 31
0.0
  0
LINE
  5
18F
330
70
100
AcDbEntity
  8
SS
 62
     3
420
    65280
370
    25
100
AcDbLine
 10
105.2195706468435
 20
189.6460804687921
 30
0.0
 11
112.7081021264525
 21
189.6460804687921
 31
0.0
  0
LINE
  5
190
330
70
100
AcDbEntity
  8
SS
 62
     3
420
    65280
370
    25
100
AcDbLine
 10
112.7081021264525
 20
189.6460804687921
 30
0.0
 11
112.7081021264525
 21
189.7460341724709
 31
0.0
  0
SPLINE
  5
191
330
70
100
AcDbEntity
  8
SS
 62
     3
420
    65280
370
    25
100
AcDbSpline
210
0.0
220
0.0
230
1.0
 70
     8
 71
     3
 72
     8
 73
     4
 74
     0
 42
0.0000000001
 43
0.0000000001
 40
0.0
 40
0.0
 40
0.0
 40
0.0
 40
1.0
 40
1.0
 40
1.0
 40
1.0
 10
68.43849364059346
 20
206.6382104091111
 30
0.0
 10
68.42061771511549
 20
206.5450719173191
 30
0.0
 10
68.41161926715675
 20
206.4504474163697
 30
0.0
 10
68.41161926715675
 20
206.355608988689
 30
0.0
  0
LINE
  5
192
330
70
100
AcDbEntity
  8
SS
 62
     3
420
    65280
370
    25
100
AcDbLine
 10
67.2371632489316
 20
207.1459749088615
 30
0.0
 11
67.74492806361928
 21
206.6382100941738
 31
0.0
  0
LINE
  5
193
330
70
100
AcDbEntity
  8
SS
 62
     3
420
    65280
370
    25
100
AcDbLine
 10
67.74492806361928
 20
206.6382100941738
 30
0.0
 11
67.74492806361928
 21
207.2101671764383
 31
0.0
  0
LINE
  5
194
330
70
100
AcDbEntity
  8
SS
 62
     3
420
    65280
370
    25
100
AcDbLine
 10
67.2371632489316
 20
207.2101671764383
 30
0.0
 11
67.2371632489316
 21
207.1459749088615
 31
0.0
  0
LINE
  5
195
330
70
100
AcDbEntity
  8
SS
 62
     3
420
    65280
370
    25
100
AcDbLine
 10
67.2371632489316
 20
207.1459749088615
 30
0.0
 11
75.23345954322862
 21
207.1459749088615
 31
0.0
  0
LINE
  5
196
330
70
100
AcDbEntity
  8
SS
 62
     3
420
    65280
370
    25
100
AcDbLine
 10
75.23345954322862
 20
206.6382100941738
 30
0.0
 11
67.74492806361928
 21
206.6382100941738
 31
0.0
  0
SPLINE
  5
197
330
70
100
AcDbEntity
  8
SS
 62
     3
420
    65280
370
    25
100
AcDbSpline
210
0.0
220
0.0
230
1.0
 70
     8
 71
     3
 72
     8
 73
     4
 74
     0
 42
0.0000000001
 43
0.0000000001
 40
0.0
 40
0.0
 40
0.0
 40
0.0
 40
1.0
 40
1.0
 40
1.0
 40
1.0
 10
68.98635306330901
 20
188.2711892876545
 30
0.0
 10
68.98635306330901
 20
188.6072491780908
 30
0.0
 10
68.91856680382566
 20
188.9398563630214
 30
0.0
 10
68.78704958464621
 20
189.2491126823093
 30
0.0
  0
SPLINE
  5
198
330
70
100
AcDbEntity
  8
SS
 62
     3
420
    65280
370
    25
100
AcDbSpline
210
0.0
220
0.0
230
1.0
 70
     8
 71
     3
 72
     8
 73
     4
 74
     0
 42
0.0000000001
 43
0.0000000001
 40
0.0
 40
0.0
 40
0.0
 40
0.0
 40
1.0
 40
1.0
 40
1.0
 40
1.0
 10
68.41161926715675
 20
190.6411895565065
 30
0.0
 10
68.41161926715675
 20
190.3051296660695
 30
0.0
 10
68.4794055266401
 20
189.9725224811393
 30
0.0
 10
68.61092274581922
 20
189.6632661618514
 30
0.0
  0
LINE
  5
199
330
70
100
AcDbEntity
  8
SS
 62
     3
420
    65280
370
    25
100
AcDbLine
 10
68.61092295414362
 20
189.6632655090657
 30
0.0
 11
68.78705037585888
 21
189.2491123355579
 31
0.0
  0
LINE
  5
19A
330
70
100
AcDbEntity
  8
SS
 62
     3
420
    65280
370
    25
100
AcDbLine
 10
68.41161926715675
 20
190.6411895565065
 30
0.0
 11
68.41161926715675
 21
206.355608988689
 31
0.0
  0
LINE
  5
19B
330
70
100
AcDbEntity
  8
SS
 62
     3
420
    65280
370
    25
100
AcDbLine
 10
68.98635306330901
 20
187.647006395218
 30
0.0
 11
68.98635306330901
 21
188.2711892876545
 31
0.0
  0
SPLINE
  5
19C
330
70
100
AcDbEntity
  8
SS
 62
     3
420
    65280
370
    25
100
AcDbSpline
210
0.0
220
0.0
230
1.0
 70
     8
 71
     3
 72
    11
 73
     7
 74
     0
 42
0.0000000001
 43
0.0000000001
 40
0.0
 40
0.0
 40
0.0
 40
0.0
 40
1.0
 40
1.0
 40
1.0
 40
2.0
 40
2.0
 40
2.0
 40
2.0
 10
68.98635306330901
 20
187.647006395218
 30
0.0
 10
68.98635306330901
 20
175.9163888211599
 30
0.0
 10
78.49589752097809
 20
166.4068443634908
 30
0.0
 10
90.22651509503591
 20
166.4068443634908
 30
0.0
 10
101.9571326690937
 20
166.4068443634908
 30
0.0
 10
111.4666771267628
 20
175.9163888211599
 30
0.0
 10
111.4666771267628
 20
187.647006395218
 30
0.0
  0
SPLINE
  5
19D
330
70
100
AcDbEntity
  8
SS
  6
AI-Linetype-1
 62
   110
420
    65407
370
    25
100
AcDbSpline
210
0.0
220
0.0
230
1.0
 70
     8
 71
     3
 72
    11
 73
     7
 74
     0
 42
0.0000000001
 43
0.0000000001
 40
0.0
 40
0.0
 40
0.0
 40
0.0
 40
1.0
 40
1.0
 40
1.0
 40
2.0
 40
2.0
 40
2.0
 40
2.0
 10
75.23345954322862
 20
187.647006395218
 30
0.0
 10
75.23345954322862
 20
179.3665704605887
 30
0.0
 10
81.94607916040698
 20
172.6539508434107
 30
0.0
 10
90.22651509503591
 20
172.6539508434107
 30
0.0
 10
98.50695102966517
 20
172.6539508434107
 30
0.0
 10
105.2195706468435
 20
179.3665704605887
 30
0.0
 10
105.2195706468435
 20
187.647006395218
 30
0.0
  0
LINE
  5
19F
330
70
100
AcDbEntity
  8
SS
 62
     3
420
    65280
370
    25
100
AcDbLine
 10
68.88639935963015
 20
189.594913168342
 30
0.0
 11
75.23345954322862
 21
189.594913168342
 31
0.0
  0
LINE
  5
1A0
330
70
100
AcDbEntity
  8
SS
 62
     3
420
    65280
370
    25
100
AcDbLine
 10
111.4666771267628
 20
187.647006395218
 30
0.0
 11
111.4666771267628
 21
189.6460804687921
 31
0.0
  0
LINE
  5
1A1
330
70
100
AcDbEntity
  8
SS
  6
AI-Linetype-2
 62
   110
420
    65407
370
    25
100
AcDbLine
 10
105.2195706468435
 20
187.647006395218
 30
0.0
 11
105.2195706468435
 21
197.8922610222861
 31
0.0
  0
LINE
  5
1A3
330
70
100
AcDbEntity
  8
SS
 62
     3
420
    65280
370
    25
100
AcDbLine
 10
68.98635306330901
 20
246.7119168489702
 30
0.0
 11
68.98635306330901
 21
212.7076208787675
 31
0.0
  0
LINE
  5
1A4
330
70
100
AcDbEntity
  8
SS
  6
AI-Linetype-3
 62
   110
420
    65407
370
    25
100
AcDbLine
 10
75.23345954322862
 20
254.7082131432675
 30
0.0
 11
75.23345954322862
 21
187.647006395218
 31
0.0
  0
LINE
  5
1A6
330
70
100
AcDbEntity
  8
SS
  6
AI-Linetype-4
 62
   110
420
    65407
370
    25
100
AcDbLine
 10
135.2056817504581
 20
197.8922610222861
 30
0.0
 11
135.2056817504581
 21
60.4559184640524
 31
0.0
  0
ENDSEC
  0
SECTION
  2
OBJECTS
  0
DICTIONARY
  5
C
330
0
100
AcDbDictionary
281
     1
  3
ACAD_COLOR
350
63
  3
ACAD_DETAILVIEWSTYLE
350
6A
  3
ACAD_GROUP
350
D
  3
ACAD_LAYOUT
350
62
  3
ACAD_MATERIAL
350
10
  3
ACAD_MLEADERSTYLE
350
66
  3
ACAD_MLINESTYLE
350
5F
  3
ACAD_PLOTSETTINGS
350
61
  3
ACAD_PLOTSTYLENAME
350
E
  3
ACAD_SCALELIST
350
42
  3
ACAD_SECTIONVIEWSTYLE
350
68
  3
ACAD_TABLESTYLE
350
64
  3
ACAD_VISUALSTYLE
350
29
  3
ACDB_RECOMPOSE_DATA
350
1B0
  3
AcDbVariableDictionary
350
1A8
  0
DICTIONARY
  5
63
102
{ACAD_REACTORS
330
C
102
}
330
C
100
AcDbDictionary
281
     1
  0
DICTIONARY
  5
6A
102
{ACAD_REACTORS
330
C
102
}
330
C
100
AcDbDictionary
281
     1
  3
Imperial24
350
6B
  0
DICTIONARY
  5
D
102
{ACAD_REACTORS
330
C
102
}
330
C
100
AcDbDictionary
281
     1
  0
DICTIONARY
  5
62
102
{ACAD_REACTORS
330
C
102
}
330
C
100
AcDbDictionary
281
     1
  3
Layout1
350
6F
  3
Layout2
350
77
  3
Model
350
73
  0
DICTIONARY
  5
10
102
{ACAD_REACTORS
330
C
102
}
330
C
100
AcDbDictionary
281
     1
  3
ByBlock
350
19
  3
ByLayer
350
11
  3
Global
350
21
  0
DICTIONARY
  5
66
102
{ACAD_REACTORS
330
C
102
}
330
C
100
AcDbDictionary
281
     1
  3
Standard
350
67
  0
DICTIONARY
  5
5F
102
{ACAD_REACTORS
330
C
102
}
330
C
100
AcDbDictionary
281
     1
  3
Standard
350
60
  0
DICTIONARY
  5
61
102
{ACAD_REACTORS
330
C
102
}
330
C
100
AcDbDictionary
281
     1
  0
ACDBDICTIONARYWDFLT
  5
E
102
{ACAD_REACTORS
330
C
102
}
330
C
100
AcDbDictionary
281
     1
  3
Normal
350
F
100
AcDbDictionaryWithDefault
340
F
  0
DICTIONARY
  5
42
102
{ACAD_REACTORS
330
C
102
}
330
C
100
AcDbDictionary
281
     1
  3
A0
350
43
  3
A1
350
44
  3
A2
350
45
  3
A3
350
46
  3
A4
350
47
  3
A5
350
48
  3
A6
350
49
  3
A7
350
4A
  3
A8
350
4B
  3
A9
350
4C
  3
B0
350
4D
  3
B1
350
4E
  3
B2
350
4F
  3
B3
350
50
  3
B4
350
51
  3
B5
350
52
  3
B6
350
53
  0
DICTIONARY
  5
68
102
{ACAD_REACTORS
330
C
102
}
330
C
100
AcDbDictionary
281
     1
  3
Imperial24
350
69
  0
DICTIONARY
  5
64
102
{ACAD_REACTORS
330
C
102
}
330
C
100
AcDbDictionary
281
     1
  3
Standard
350
65
  0
DICTIONARY
  5
29
102
{ACAD_REACTORS
330
C
102
}
330
C
100
AcDbDictionary
281
     1
  3
2dWireframe
350
2F
  3
Basic
350
2E
  3
Brighten
350
35
  3
ColorChange
350
39
  3
Conceptual
350
32
  3
Dim
350
34
  3
EdgeColorOff
350
41
  3
Facepattern
350
38
  3
Flat
350
2A
  3
FlatWithEdges
350
2B
  3
Gouraud
350
2C
  3
GouraudWithEdges
350
2D
  3
Hidden
350
31
  3
JitterOff
350
3F
  3
Linepattern
350
37
  3
OverhangOff
350
40
  3
Realistic
350
33
  3
Shaded
350
3E
  3
Shaded with edges
350
3D
  3
Shades of Gray
350
3A
  3
Sketchy
350
3B
  3
Thicken
350
36
  3
Wireframe
350
30
  3
X-Ray
350
3C
  0
XRECORD
  5
1B0
102
{ACAD_REACTORS
330
C
102
}
330
C
100
AcDbXrecord
280
     1
 90
        1
330
65
  0
DICTIONARY
  5
1A8
102
{ACAD_REACTORS
330
C
102
}
330
C
100
AcDbDictionary
281
     1
  3
CANNOSCALE
350
1AD
  3
CMLEADERSTYLE
350
1AA
  3
CTABLESTYLE
350
1A9
  3
CVIEWDETAILSTYLE
350
1AB
  3
CVIEWSECTIONSTYLE
350
1AC
  0
ACDBDETAILVIEWSTYLE
  5
6B
102
{ACAD_REACTORS
330
6A
102
}
330
6A
100
AcDbModelDocViewStyle
 70
     0
  3
Imperial24
290
     1
300
Imperial24
 90
        0
100
AcDbDetailViewStyle
 70
     0
 71
     0
 90
        3
 71
     1
340
55
 62
   256
 40
0.24
340
0
 62
   256
 40
0.24
300

 40
0.36
280
     3
 71
     2
340
5D
 90
       25
 62
   256
 71
     3
340
55
 62
   256
 40
0.24
 90
        1
 40
0.75
 90
        1
300
%<\AcVar ViewType \f "%tc1">% %<\AcVar ViewDetailId>%\PSCALE %<\AcVar ViewScale \f "%sn">%
 71
     4
340
5D
 90
       25
 62
   256
340
5D
 90
       25
 62
   256
280
     0
  0
LAYOUT
  5
6F
102
{ACAD_REACTORS
330
62
102
}
330
62
100
AcDbPlotSettings
  1

  2

  4

  6

 40
0.0
 41
0.0
 42
0.0
 43
0.0
 44
0.0
 45
0.0
 46
0.0
 47
0.0
 48
0.0
 49
0.0
140
0.0
141
0.0
142
1.0
143
1.0
 70
   688
 72
     0
 73
     0
 74
     5
  7

 75
    16
147
1.0
 76
     0
 77
     2
 78
   300
148
0.0
149
0.0
100
AcDbLayout
  1
Layout1
 70
     1
 71
     1
 10
0.0
 20
0.0
 11
12.0
 21
9.0
 12
0.0
 22
0.0
 32
0.0
 14
0.0
 24
0.0
 34
0.0
 15
0.0
 25
0.0
 35
0.0
146
0.0
 13
0.0
 23
0.0
 33
0.0
 16
1.0
 26
0.0
 36
0.0
 17
0.0
 27
1.0
 37
0.0
 76
     0
330
6C
  0
LAYOUT
  5
77
102
{ACAD_REACTORS
330
62
102
}
330
62
100
AcDbPlotSettings
  1

  2

  4

  6

 40
0.0
 41
0.0
 42
0.0
 43
0.0
 44
0.0
 45
0.0
 46
0.0
 47
0.0
 48
0.0
 49
0.0
140
0.0
141
0.0
142
1.0
143
1.0
 70
   688
 72
     0
 73
     0
 74
     5
  7

 75
    16
147
1.0
 76
     0
 77
     2
 78
   300
148
0.0
149
0.0
100
AcDbLayout
  1
Layout2
 70
     1
 71
     2
 10
0.0
 20
0.0
 11
12.0
 21
9.0
 12
0.0
 22
0.0
 32
0.0
 14
0.0
 24
0.0
 34
0.0
 15
0.0
 25
0.0
 35
0.0
146
0.0
 13
0.0
 23
0.0
 33
0.0
 16
1.0
 26
0.0
 36
0.0
 17
0.0
 27
1.0
 37
0.0
 76
     0
330
74
  0
LAYOUT
  5
73
102
{ACAD_REACTORS
330
62
102
}
330
62
100
AcDbPlotSettings
  1

  2

  4

  6

 40
0.0
 41
0.0
 42
0.0
 43
0.0
 44
0.0
 45
0.0
 46
0.0
 47
0.0
 48
0.0
 49
0.0
140
0.0
141
0.0
142
1.0
143
1.0
 70
  1712
 72
     0
 73
     0
 74
     0
  7

 75
     0
147
1.0
 76
     0
 77
     2
 78
   300
148
0.0
149
0.0
100
AcDbLayout
  1
Model
 70
     1
 71
     0
 10
0.0
 20
0.0
 11
12.0
 21
9.0
 12
0.0
 22
0.0
 32
0.0
 14
0.0
 24
0.0
 34
0.0
 15
0.0
 25
0.0
 35
0.0
146
0.0
 13
0.0
 23
0.0
 33
0.0
 16
1.0
 26
0.0
 36
0.0
 17
0.0
 27
1.0
 37
0.0
 76
     0
330
70
  0
MATERIAL
  5
19
102
{ACAD_XDICTIONARY
360
1A
102
}
102
{ACAD_REACTORS
330
10
102
}
330
10
100
AcDbMaterial
  1
ByBlock
 72
     0
 43
0.0208333333333333
 43
0.0
 43
0.0
 43
0.0
 43
0.0
 43
0.0208333333333333
 43
0.0
 43
0.0
 43
0.0
 43
0.0
 43
1.0
 43
0.0
 43
0.0
 43
0.0
 43
0.0
 43
1.0
 77
     0
 47
0.0208333333333333
 47
0.0
 47
0.0
 47
0.0
 47
0.0
 47
0.0208333333333333
 47
0.0
 47
0.0
 47
0.0
 47
0.0
 47
1.0
 47
0.0
 47
0.0
 47
0.0
 47
0.0
 47
1.0
171
     0
 49
0.0208333333333333
 49
0.0
 49
0.0
 49
0.0
 49
0.0
 49
0.0208333333333333
 49
0.0
 49
0.0
 49
0.0
 49
0.0
 49
1.0
 49
0.0
 49
0.0
 49
0.0
 49
0.0
 49
1.0
175
     0
142
0.0208333333333333
142
0.0
142
0.0
142
0.0
142
0.0
142
0.0208333333333333
142
0.0
142
0.0
142
0.0
142
0.0
142
1.0
142
0.0
142
0.0
142
0.0
142
0.0
142
1.0
179
     0
144
0.0208333333333333
144
0.0
144
0.0
144
0.0
144
0.0
144
0.0208333333333333
144
0.0
144
0.0
144
0.0
144
0.0
144
1.0
144
0.0
144
0.0
144
0.0
144
0.0
144
1.0
147
0.0208333333333333
147
0.0
147
0.0
147
0.0
147
0.0
147
0.0208333333333333
147
0.0
147
0.0
147
0.0
147
0.0
147
1.0
147
0.0
147
0.0
147
0.0
147
0.0
147
1.0
  0
MATERIAL
  5
11
102
{ACAD_XDICTIONARY
360
12
102
}
102
{ACAD_REACTORS
330
10
102
}
330
10
100
AcDbMaterial
  1
ByLayer
 72
     0
 43
0.0208333333333333
 43
0.0
 43
0.0
 43
0.0
 43
0.0
 43
0.0208333333333333
 43
0.0
 43
0.0
 43
0.0
 43
0.0
 43
1.0
 43
0.0
 43
0.0
 43
0.0
 43
0.0
 43
1.0
 77
     0
 47
0.0208333333333333
 47
0.0
 47
0.0
 47
0.0
 47
0.0
 47
0.0208333333333333
 47
0.0
 47
0.0
 47
0.0
 47
0.0
 47
1.0
 47
0.0
 47
0.0
 47
0.0
 47
0.0
 47
1.0
171
     0
 49
0.0208333333333333
 49
0.0
 49
0.0
 49
0.0
 49
0.0
 49
0.0208333333333333
 49
0.0
 49
0.0
 49
0.0
 49
0.0
 49
1.0
 49
0.0
 49
0.0
 49
0.0
 49
0.0
 49
1.0
175
     0
142
0.0208333333333333
142
0.0
142
0.0
142
0.0
142
0.0
142
0.0208333333333333
142
0.0
142
0.0
142
0.0
142
0.0
142
1.0
142
0.0
142
0.0
142
0.0
142
0.0
142
1.0
179
     0
144
0.0208333333333333
144
0.0
144
0.0
144
0.0
144
0.0
144
0.0208333333333333
144
0.0
144
0.0
144
0.0
144
0.0
144
1.0
144
0.0
144
0.0
144
0.0
144
0.0
144
1.0
147
0.0208333333333333
147
0.0
147
0.0
147
0.0
147
0.0
147
0.0208333333333333
147
0.0
147
0.0
147
0.0
147
0.0
147
1.0
147
0.0
147
0.0
147
0.0
147
0.0
147
1.0
  0
MATERIAL
  5
21
102
{ACAD_XDICTIONARY
360
22
102
}
102
{ACAD_REACTORS
330
10
102
}
330
10
100
AcDbMaterial
  1
Global
 72
     0
 43
0.0208333333333333
 43
0.0
 43
0.0
 43
0.0
 43
0.0
 43
0.0208333333333333
 43
0.0
 43
0.0
 43
0.0
 43
0.0
 43
1.0
 43
0.0
 43
0.0
 43
0.0
 43
0.0
 43
1.0
 77
     0
 47
0.0208333333333333
 47
0.0
 47
0.0
 47
0.0
 47
0.0
 47
0.0208333333333333
 47
0.0
 47
0.0
 47
0.0
 47
0.0
 47
1.0
 47
0.0
 47
0.0
 47
0.0
 47
0.0
 47
1.0
171
     0
 49
0.0208333333333333
 49
0.0
 49
0.0
 49
0.0
 49
0.0
 49
0.0208333333333333
 49
0.0
 49
0.0
 49
0.0
 49
0.0
 49
1.0
 49
0.0
 49
0.0
 49
0.0
 49
0.0
 49
1.0
175
     0
142
0.0208333333333333
142
0.0
142
0.0
142
0.0
142
0.0
142
0.0208333333333333
142
0.0
142
0.0
142
0.0
142
0.0
142
1.0
142
0.0
142
0.0
142
0.0
142
0.0
142
1.0
179
     0
144
0.0208333333333333
144
0.0
144
0.0
144
0.0
144
0.0
144
0.0208333333333333
144
0.0
144
0.0
144
0.0
144
0.0
144
1.0
144
0.0
144
0.0
144
0.0
144
0.0
144
1.0
147
0.0208333333333333
147
0.0
147
0.0
147
0.0
147
0.0
147
0.0208333333333333
147
0.0
147
0.0
147
0.0
147
0.0
147
1.0
147
0.0
147
0.0
147
0.0
147
0.0
147
1.0
  0
MLEADERSTYLE
  5
67
102
{ACAD_REACTORS
330
66
102
}
330
66
100
AcDbMLeaderStyle
179
     2
170
     2
171
     1
172
     0
 90
        2
 40
0.0
 41
0.0
173
     1
 91
-1056964608
340
5B
 92
       -2
290
     1
 42
0.09
291
     1
 43
0.36
  3
Standard
 44
0.18
300

342
55
174
     1
178
     6
175
     1
176
     0
 93
-1056964608
 45
0.18
292
     0
297
     0
 46
0.18
 94
-1056964608
 47
1.0
 49
1.0
140
1.0
293
     1
141
0.0
294
     1
177
     0
142
1.0
295
     1
296
     0
143
0.125
271
     0
272
     9
273
     9
298
     1
  0
MLINESTYLE
  5
60
102
{ACAD_REACTORS
330
5F
102
}
330
5F
100
AcDbMlineStyle
  2
STANDARD
 70
     0
  3

 62
   256
 51
90.0
 52
90.0
 71
     2
 49
0.5
 62
   256
  6
BYLAYER
 49
-0.5
 62
   256
  6
BYLAYER
  0
ACDBPLACEHOLDER
  5
F
102
{ACAD_REACTORS
330
E
102
}
330
E
  0
SCALE
  5
43
102
{ACAD_REACTORS
330
42
102
}
330
42
100
AcDbScale
 70
     0
300
1:1
140
1.0
141
1.0
290
     1
  0
SCALE
  5
44
102
{ACAD_REACTORS
330
42
102
}
330
42
100
AcDbScale
 70
     0
300
1/128" = 1'-0"
140
0.0078125
141
12.0
290
     0
  0
SCALE
  5
45
102
{ACAD_REACTORS
330
42
102
}
330
42
100
AcDbScale
 70
     0
300
1/64" = 1'-0"
140
0.015625
141
12.0
290
     0
  0
SCALE
  5
46
102
{ACAD_REACTORS
330
42
102
}
330
42
100
AcDbScale
 70
     0
300
1/32" = 1'-0"
140
0.03125
141
12.0
290
     0
  0
SCALE
  5
47
102
{ACAD_REACTORS
330
42
102
}
330
42
100
AcDbScale
 70
     0
300
1/16" = 1'-0"
140
0.0625
141
12.0
290
     0
  0
SCALE
  5
48
102
{ACAD_REACTORS
330
42
102
}
330
42
100
AcDbScale
 70
     0
300
3/32" = 1'-0"
140
0.09375
141
12.0
290
     0
  0
SCALE
  5
49
102
{ACAD_REACTORS
330
42
102
}
330
42
100
AcDbScale
 70
     0
300
1/8" = 1'-0"
140
0.125
141
12.0
290
     0
  0
SCALE
  5
4A
102
{ACAD_REACTORS
330
42
102
}
330
42
100
AcDbScale
 70
     0
300
3/16" = 1'-0"
140
0.1875
141
12.0
290
     0
  0
SCALE
  5
4B
102
{ACAD_REACTORS
330
42
102
}
330
42
100
AcDbScale
 70
     0
300
1/4" = 1'-0"
140
0.25
141
12.0
290
     0
  0
SCALE
  5
4C
102
{ACAD_REACTORS
330
42
102
}
330
42
100
AcDbScale
 70
     0
300
3/8" = 1'-0"
140
0.375
141
12.0
290
     0
  0
SCALE
  5
4D
102
{ACAD_REACTORS
330
42
102
}
330
42
100
AcDbScale
 70
     0
300
1/2" = 1'-0"
140
0.5
141
12.0
290
     0
  0
SCALE
  5
4E
102
{ACAD_REACTORS
330
42
102
}
330
42
100
AcDbScale
 70
     0
300
3/4" = 1'-0"
140
0.75
141
12.0
290
     0
  0
SCALE
  5
4F
102
{ACAD_REACTORS
330
42
102
}
330
42
100
AcDbScale
 70
     0
300
1" = 1'-0"
140
1.0
141
12.0
290
     0
  0
SCALE
  5
50
102
{ACAD_REACTORS
330
42
102
}
330
42
100
AcDbScale
 70
     0
300
1-1/2" = 1'-0"
140
1.5
141
12.0
290
     0
  0
SCALE
  5
51
102
{ACAD_REACTORS
330
42
102
}
330
42
100
AcDbScale
 70
     0
300
3" = 1'-0"
140
3.0
141
12.0
290
     0
  0
SCALE
  5
52
102
{ACAD_REACTORS
330
42
102
}
330
42
100
AcDbScale
 70
     0
300
6" = 1'-0"
140
6.0
141
12.0
290
     0
  0
SCALE
  5
53
102
{ACAD_REACTORS
330
42
102
}
330
42
100
AcDbScale
 70
     0
300
1'-0" = 1'-0"
140
12.0
141
12.0
290
     0
  0
ACDBSECTIONVIEWSTYLE
  5
69
102
{ACAD_REACTORS
330
68
102
}
330
68
100
AcDbModelDocViewStyle
 70
     0
  3
Imperial24
290
     1
300
Imperial24
 90
        0
100
AcDbSectionViewStyle
 70
     0
 71
     0
 90
       78
 71
     1
340
55
 62
   256
 40
0.24
340
0
340
0
 62
   256
 40
0.24
300
I, O, Q, S, X, Z
 40
0.48
 90
        3
 40
0.18
 90
        1
 71
     2
340
5D
 90
       25
 62
   256
340
5D
 90
       50
 62
   256
 40
0.24
 40
0.0
 40
0.24
 71
     3
340
55
 62
   256
 40
0.24
 90
        1
 40
0.75
 90
        1
300
%<\AcVar ViewType \f "%tc1">% %<\AcVar ViewSectionStartId>%-%<\AcVar ViewSectionEndId>%\PSCALE %<\AcVar ViewScale \f "%sn">%
 71
     4
 62
   256
 62
   257
300
ANSI31
 40
1.0
 90
        0
290
     0
290
     0
 90
        6
 40
0.0
 40
1.570796326794896
 40
0.2617993877991494
 40
1.308996938995747
 40
-0.2617993877991494
 40
1.832595714594046
  0
TABLESTYLE
  5
65
102
{ACAD_XDICTIONARY
360
1AE
102
}
102
{ACAD_REACTORS
330
64
102
}
330
64
100
AcDbTableStyle
280
     0
  3
Standard
 70
     0
 71
     0
 40
0.06
 41
0.06
280
     0
281
     0
  7
Standard
140
0.18
170
     2
 62
     0
 63
     7
283
     0
 90
      512
 91
        0
  1

274
    -2
284
     1
 64
     0
275
    -2
285
     1
 65
     0
276
    -2
286
     1
 66
     0
277
    -2
287
     1
 67
     0
278
    -2
288
     1
 68
     0
279
    -2
289
     1
 69
     0
  7
Standard
140
0.25
170
     5
 62
     0
 63
     7
283
     0
 90
      512
 91
        0
  1

274
    -2
284
     1
 64
     0
275
    -2
285
     1
 65
     0
276
    -2
286
     1
 66
     0
277
    -2
287
     1
 67
     0
278
    -2
288
     1
 68
     0
279
    -2
289
     1
 69
     0
  7
Standard
140
0.18
170
     5
 62
     0
 63
     7
283
     0
 90
      512
 91
        0
  1

274
    -2
284
     1
 64
     0
275
    -2
285
     1
 65
     0
276
    -2
286
     1
 66
     0
277
    -2
287
     1
 67
     0
278
    -2
288
     1
 68
     0
279
    -2
289
     1
 69
     0
  0
VISUALSTYLE
  5
2F
102
{ACAD_REACTORS
330
29
102
}
330
29
100
AcDbVisualStyle
  2
2dWireframe
 70
     4
177
     3
291
     0
 70
    58
 90
        0
176
     1
 90
        2
176
     1
 90
        0
176
     1
 90
        0
176
     1
 40
0.6
176
     1
 40
30.0
176
     1
 62
     7
420
 16777215
176
     1
 90
        1
176
     1
 90
        4
176
     1
 62
     7
176
     1
 62
   257
176
     1
 90
        1
176
     1
 90
        1
176
     1
 40
1.0
176
     1
 90
        0
176
     1
 62
   257
176
     1
 40
1.0
176
     1
 90
        1
176
     1
 90
        6
176
     1
 90
        2
176
     1
 62
     7
176
     1
 90
        5
176
     1
 90
        0
176
     1
 90
        0
176
     1
290
     0
176
     1
 90
        1
176
     1
 40
0.0
176
     1
 90
        0
176
     1
290
     1
176
     1
290
     1
176
     1
290
     0
176
     1
290
     0
176
     1
290
     0
176
     1
290
     0
176
     1
290
     0
176
     1
290
     0
176
     1
290
     0
176
     1
 90
       50
176
     1
 40
0.0
176
     1
 40
1.0
176
     1
 90
        0
176
     1
 62
    18
420
        0
176
     1
 90
       50
176
     1
 90
        3
176
     1
 62
     5
420
      255
176
     1
290
     0
176
     1
 90
       50
176
     1
 90
       50
176
     1
 90
       50
176
     1
290
     0
176
     1
 90
       50
176
     1
 62
   256
176
     0
 40
1.0
176
     0
 90
        2
176
     1
  1
strokes_ogs.tif
176
     1
290
     0
176
     1
 40
1.0
176
     1
 40
1.0
176
     1
  0
VISUALSTYLE
  5
2E
102
{ACAD_REACTORS
330
29
102
}
330
29
100
AcDbVisualStyle
  2
Basic
 70
     7
177
     3
291
     1
 70
    58
 90
        1
176
     1
 90
        0
176
     1
 90
        1
176
     1
 90
        0
176
     1
 40
0.6
176
     1
 40
30.0
176
     1
 62
     7
420
 16777215
176
     1
 90
        0
176
     1
 90
        4
176
     1
 62
     7
176
     1
 62
   257
176
     1
 90
        1
176
     1
 90
        1
176
     1
 40
1.0
176
     1
 90
        8
176
     1
 62
     7
176
     1
 40
1.0
176
     1
 90
        1
176
     1
 90
        6
176
     1
 90
        2
176
     1
 62
     7
176
     1
 90
        5
176
     1
 90
        0
176
     1
 90
        0
176
     1
290
     0
176
     1
 90
        1
176
     1
 40
0.0
176
     1
 90
        0
176
     1
290
     0
176
     1
290
     1
176
     1
290
     1
176
     1
290
     0
176
     1
290
     0
176
     1
290
     0
176
     1
290
     0
176
     1
290
     0
176
     1
290
     0
176
     1
 90
       50
176
     1
 40
0.0
176
     1
 40
1.0
176
     1
 90
        0
176
     1
 62
    18
420
        0
176
     1
 90
       50
176
     1
 90
        3
176
     1
 62
     5
420
      255
176
     1
290
     0
176
     1
 90
       50
176
     1
 90
       50
176
     1
 90
       50
176
     1
290
     0
176
     1
 90
       50
176
     1
 62
   256
176
     0
 40
1.0
176
     0
 90
        2
176
     1
  1
strokes_ogs.tif
176
     1
290
     0
176
     1
 40
1.0
176
     1
 40
1.0
176
     1
  0
VISUALSTYLE
  5
35
102
{ACAD_REACTORS
330
29
102
}
330
29
100
AcDbVisualStyle
  2
Brighten
 70
    12
177
     3
291
     1
 70
    58
 90
        2
176
     1
 90
        2
176
     1
 90
        0
176
     1
 90
        0
176
     1
 40
0.6
176
     1
 40
30.0
176
     1
 62
     7
420
 16777215
176
     1
 90
        1
176
     1
 90
        4
176
     1
 62
     7
176
     1
 62
   257
176
     1
 90
        1
176
     1
 90
        1
176
     1
 40
1.0
176
     1
 90
        8
176
     1
 62
     7
176
     1
 40
1.0
176
     1
 90
        1
176
     1
 90
        6
176
     1
 90
        2
176
     1
 62
     7
176
     1
 90
        5
176
     1
 90
        0
176
     1
 90
        0
176
     1
290
     0
176
     1
 90
        1
176
     1
 40
50.0
176
     1
 90
        0
176
     1
290
     0
176
     1
290
     1
176
     1
290
     1
176
     1
290
     0
176
     1
290
     0
176
     1
290
     0
176
     1
290
     0
176
     1
290
     0
176
     1
290
     0
176
     1
 90
       50
176
     1
 40
0.0
176
     1
 40
1.0
176
     1
 90
        0
176
     1
 62
    18
420
        0
176
     1
 90
       50
176
     1
 90
        3
176
     1
 62
     5
420
      255
176
     1
290
     0
176
     1
 90
       50
176
     1
 90
       50
176
     1
 90
       50
176
     1
290
     0
176
     1
 90
       50
176
     1
 62
   256
176
     0
 40
1.0
176
     0
 90
        2
176
     1
  1
strokes_ogs.tif
176
     1
290
     0
176
     1
 40
1.0
176
     1
 40
1.0
176
     1
  0
VISUALSTYLE
  5
39
102
{ACAD_REACTORS
330
29
102
}
330
29
100
AcDbVisualStyle
  2
ColorChange
 70
    16
177
     3
291
     1
 70
    58
 90
        2
176
     1
 90
        2
176
     1
 90
        3
176
     1
 90
        0
176
     1
 40
0.6
176
     1
 40
30.0
176
     1
 62
     8
420
  8421504
176
     1
 90
        1
176
     1
 90
        4
176
     1
 62
     7
176
     1
 62
   257
176
     1
 90
        1
176
     1
 90
        1
176
     1
 40
1.0
176
     1
 90
        8
176
     1
 62
     8
420
  8421504
176
     1
 40
1.0
176
     1
 90
        1
176
     1
 90
        6
176
     1
 90
        2
176
     1
 62
     7
176
     1
 90
        5
176
     1
 90
        0
176
     1
 90
        0
176
     1
290
     0
176
     1
 90
        1
176
     1
 40
0.0
176
     1
 90
        0
176
     1
290
     0
176
     1
290
     1
176
     1
290
     1
176
     1
290
     0
176
     1
290
     0
176
     1
290
     0
176
     1
290
     0
176
     1
290
     0
176
     1
290
     0
176
     1
 90
       50
176
     1
 40
0.0
176
     1
 40
1.0
176
     1
 90
        0
176
     1
 62
    18
420
        0
176
     1
 90
       50
176
     1
 90
        3
176
     1
 62
     5
420
      255
176
     1
290
     0
176
     1
 90
       50
176
     1
 90
       50
176
     1
 90
       50
176
     1
290
     0
176
     1
 90
       50
176
     1
 62
   256
176
     0
 40
1.0
176
     0
 90
        2
176
     1
  1
strokes_ogs.tif
176
     1
290
     0
176
     1
 40
1.0
176
     1
 40
1.0
176
     1
  0
VISUALSTYLE
  5
32
102
{ACAD_REACTORS
330
29
102
}
330
29
100
AcDbVisualStyle
  2
Conceptual
 70
     9
177
     3
291
     0
 70
    58
 90
        3
176
     1
 90
        2
176
     1
 90
        0
176
     1
 90
        0
176
     1
 40
0.6
176
     1
 40
30.0
176
     1
 62
     7
420
 16777215
176
     1
 90
        2
176
     1
 90
        2
176
     1
 62
     7
176
     1
 62
   257
176
     1
 90
        1
176
     1
 90
        1
176
     1
 40
179.0
176
     1
 90
        8
176
     1
 62
     7
176
     1
 40
1.0
176
     1
 90
        1
176
     1
 90
        6
176
     1
 90
        2
176
     1
 62
     7
176
     1
 90
        3
176
     1
 90
        0
176
     1
 90
        0
176
     1
290
     0
176
     1
 90
        1
176
     1
 40
0.0
176
     1
 90
        0
176
     1
290
     0
176
     1
290
     1
176
     1
290
     1
176
     1
290
     0
176
     1
290
     0
176
     1
290
     0
176
     1
290
     0
176
     1
290
     0
176
     1
290
     0
176
     1
 90
       50
176
     1
 40
0.0
176
     1
 40
1.0
176
     1
 90
        0
176
     1
 62
    18
420
        0
176
     1
 90
       50
176
     1
 90
        3
176
     1
 62
     5
420
      255
176
     1
290
     0
176
     1
 90
       50
176
     1
 90
       50
176
     1
 90
       50
176
     1
290
     0
176
     1
 90
       50
176
     1
 62
   256
176
     0
 40
1.0
176
     0
 90
        2
176
     1
  1
strokes_ogs.tif
176
     1
290
     0
176
     1
 40
1.0
176
     1
 40
1.0
176
     1
  0
VISUALSTYLE
  5
34
102
{ACAD_REACTORS
330
29
102
}
330
29
100
AcDbVisualStyle
  2
Dim
 70
    11
177
     3
291
     1
 70
    58
 90
        2
176
     1
 90
        2
176
     1
 90
        0
176
     1
 90
        0
176
     1
 40
0.6
176
     1
 40
30.0
176
     1
 62
     7
420
 16777215
176
     1
 90
        1
176
     1
 90
        4
176
     1
 62
     7
176
     1
 62
   257
176
     1
 90
        1
176
     1
 90
        1
176
     1
 40
1.0
176
     1
 90
        8
176
     1
 62
     7
176
     1
 40
1.0
176
     1
 90
        1
176
     1
 90
        6
176
     1
 90
        2
176
     1
 62
     7
176
     1
 90
        5
176
     1
 90
        0
176
     1
 90
        0
176
     1
290
     0
176
     1
 90
        1
176
     1
 40
-50.0
176
     1
 90
        0
176
     1
290
     0
176
     1
290
     1
176
     1
290
     1
176
     1
290
     0
176
     1
290
     0
176
     1
290
     0
176
     1
290
     0
176
     1
290
     0
176
     1
290
     0
176
     1
 90
       50
176
     1
 40
0.0
176
     1
 40
1.0
176
     1
 90
        0
176
     1
 62
    18
420
        0
176
     1
 90
       50
176
     1
 90
        3
176
     1
 62
     5
420
      255
176
     1
290
     0
176
     1
 90
       50
176
     1
 90
       50
176
     1
 90
       50
176
     1
290
     0
176
     1
 90
       50
176
     1
 62
   256
176
     0
 40
1.0
176
     0
 90
        2
176
     1
  1
strokes_ogs.tif
176
     1
290
     0
176
     1
 40
1.0
176
     1
 40
1.0
176
     1
  0
VISUALSTYLE
  5
41
102
{ACAD_REACTORS
330
29
102
}
330
29
100
AcDbVisualStyle
  2
EdgeColorOff
 70
    22
177
     3
291
     1
 70
    58
 90
        2
176
     0
 90
        2
176
     0
 90
        0
176
     0
 90
        0
176
     0
 40
0.6
176
     0
 40
30.0
176
     0
 62
     7
420
 16777215
176
     0
 90
        1
176
     0
 90
        4
176
     0
 62
     7
176
     0
 62
   257
176
     0
 90
        1
176
     0
 90
        1
176
     0
 40
1.0
176
     0
 90
        8
176
     2
 62
     7
176
     0
 40
1.0
176
     0
 90
        1
176
     0
 90
        6
176
     0
 90
        2
176
     0
 62
     7
176
     0
 90
        5
176
     0
 90
        0
176
     0
 90
        0
176
     0
290
     0
176
     0
 90
        1
176
     0
 40
0.0
176
     0
 90
        0
176
     0
290
     0
176
     0
290
     1
176
     0
290
     1
176
     0
290
     0
176
     0
290
     0
176
     0
290
     0
176
     0
290
     0
176
     0
290
     0
176
     0
290
     0
176
     0
 90
       50
176
     0
 40
0.0
176
     0
 40
1.0
176
     0
 90
        0
176
     0
 62
    18
420
        0
176
     0
 90
       50
176
     0
 90
        3
176
     0
 62
     5
420
      255
176
     0
290
     0
176
     0
 90
       50
176
     0
 90
       50
176
     0
 90
       50
176
     0
290
     0
176
     0
 90
       50
176
     0
 62
   256
176
     0
 40
1.0
176
     0
 90
        2
176
     0
  1
strokes_ogs.tif
176
     0
290
     0
176
     0
 40
1.0
176
     0
 40
1.0
176
     0
  0
VISUALSTYLE
  5
38
102
{ACAD_REACTORS
330
29
102
}
330
29
100
AcDbVisualStyle
  2
Facepattern
 70
    15
177
     3
291
     1
 70
    58
 90
        2
176
     1
 90
        2
176
     1
 90
        0
176
     1
 90
        0
176
     1
 40
0.6
176
     1
 40
30.0
176
     1
 62
     7
420
 16777215
176
     1
 90
        1
176
     1
 90
        4
176
     1
 62
     7
176
     1
 62
   257
176
     1
 90
        1
176
     1
 90
        1
176
     1
 40
1.0
176
     1
 90
        8
176
     1
 62
     7
176
     1
 40
1.0
176
     1
 90
        1
176
     1
 90
        6
176
     1
 90
        2
176
     1
 62
     7
176
     1
 90
        5
176
     1
 90
        0
176
     1
 90
        0
176
     1
290
     0
176
     1
 90
        1
176
     1
 40
0.0
176
     1
 90
        0
176
     1
290
     0
176
     1
290
     1
176
     1
290
     1
176
     1
290
     0
176
     1
290
     0
176
     1
290
     0
176
     1
290
     0
176
     1
290
     0
176
     1
290
     0
176
     1
 90
       50
176
     1
 40
0.0
176
     1
 40
1.0
176
     1
 90
        0
176
     1
 62
    18
420
        0
176
     1
 90
       50
176
     1
 90
        3
176
     1
 62
     5
420
      255
176
     1
290
     0
176
     1
 90
       50
176
     1
 90
       50
176
     1
 90
       50
176
     1
290
     0
176
     1
 90
       50
176
     1
 62
   256
176
     0
 40
1.0
176
     0
 90
        2
176
     1
  1
strokes_ogs.tif
176
     1
290
     0
176
     1
 40
1.0
176
     1
 40
1.0
176
     1
  0
VISUALSTYLE
  5
2A
102
{ACAD_REACTORS
330
29
102
}
330
29
100
AcDbVisualStyle
  2
Flat
 70
     0
177
     3
291
     1
 70
    58
 90
        2
176
     1
 90
        1
176
     1
 90
        1
176
     1
 90
        2
176
     1
 40
0.6
176
     1
 40
30.0
176
     1
 62
     7
420
 16777215
176
     1
 90
        0
176
     1
 90
        0
176
     1
 62
     7
176
     1
 62
   257
176
     1
 90
        1
176
     1
 90
        1
176
     1
 40
1.0
176
     1
 90
        8
176
     1
 62
     7
176
     1
 40
1.0
176
     1
 90
        1
176
     1
 90
        6
176
     1
 90
        2
176
     1
 62
     7
176
     1
 90
        5
176
     1
 90
        0
176
     1
 90
        0
176
     1
290
     0
176
     1
 90
       13
176
     1
 40
0.0
176
     1
 90
        0
176
     1
290
     0
176
     1
290
     1
176
     1
290
     1
176
     1
290
     0
176
     1
290
     0
176
     1
290
     0
176
     1
290
     0
176
     1
290
     0
176
     1
290
     0
176
     1
 90
       50
176
     1
 40
0.0
176
     1
 40
1.0
176
     1
 90
        0
176
     1
 62
    18
420
        0
176
     1
 90
       50
176
     1
 90
        3
176
     1
 62
     5
420
      255
176
     1
290
     0
176
     1
 90
       50
176
     1
 90
       50
176
     1
 90
       50
176
     1
290
     0
176
     1
 90
       50
176
     1
 62
   256
176
     0
 40
1.0
176
     0
 90
        2
176
     1
  1
strokes_ogs.tif
176
     1
290
     0
176
     1
 40
1.0
176
     1
 40
1.0
176
     1
  0
VISUALSTYLE
  5
2B
102
{ACAD_REACTORS
330
29
102
}
330
29
100
AcDbVisualStyle
  2
FlatWithEdges
 70
     1
177
     3
291
     1
 70
    58
 90
        2
176
     1
 90
        1
176
     1
 90
        1
176
     1
 90
        2
176
     1
 40
0.6
176
     1
 40
30.0
176
     1
 62
     7
420
 16777215
176
     1
 90
        1
176
     1
 90
        0
176
     1
 62
     7
176
     1
 62
   257
176
     1
 90
        1
176
     1
 90
        1
176
     1
 40
1.0
176
     1
 90
        0
176
     1
 62
   257
176
     1
 40
1.0
176
     1
 90
        1
176
     1
 90
        6
176
     1
 90
        2
176
     1
 62
     7
176
     1
 90
        5
176
     1
 90
        0
176
     1
 90
        0
176
     1
290
     0
176
     1
 90
       13
176
     1
 40
0.0
176
     1
 90
        0
176
     1
290
     0
176
     1
290
     1
176
     1
290
     1
176
     1
290
     0
176
     1
290
     0
176
     1
290
     0
176
     1
290
     0
176
     1
290
     0
176
     1
290
     0
176
     1
 90
       50
176
     1
 40
0.0
176
     1
 40
1.0
176
     1
 90
        0
176
     1
 62
    18
420
        0
176
     1
 90
       50
176
     1
 90
        3
176
     1
 62
     5
420
      255
176
     1
290
     0
176
     1
 90
       50
176
     1
 90
       50
176
     1
 90
       50
176
     1
290
     0
176
     1
 90
       50
176
     1
 62
   256
176
     0
 40
1.0
176
     0
 90
        2
176
     1
  1
strokes_ogs.tif
176
     1
290
     0
176
     1
 40
1.0
176
     1
 40
1.0
176
     1
  0
VISUALSTYLE
  5
2C
102
{ACAD_REACTORS
330
29
102
}
330
29
100
AcDbVisualStyle
  2
Gouraud
 70
     2
177
     3
291
     1
 70
    58
 90
        2
176
     1
 90
        2
176
     1
 90
        1
176
     1
 90
        2
176
     1
 40
0.6
176
     1
 40
30.0
176
     1
 62
     7
420
 16777215
176
     1
 90
        0
176
     1
 90
        0
176
     1
 62
     7
176
     1
 62
   257
176
     1
 90
        1
176
     1
 90
        1
176
     1
 40
1.0
176
     1
 90
        0
176
     1
 62
     7
176
     1
 40
1.0
176
     1
 90
        1
176
     1
 90
        6
176
     1
 90
        2
176
     1
 62
     7
176
     1
 90
        5
176
     1
 90
        0
176
     1
 90
        0
176
     1
290
     0
176
     1
 90
       13
176
     1
 40
0.0
176
     1
 90
        0
176
     1
290
     0
176
     1
290
     1
176
     1
290
     1
176
     1
290
     0
176
     1
290
     0
176
     1
290
     0
176
     1
290
     0
176
     1
290
     0
176
     1
290
     0
176
     1
 90
       50
176
     1
 40
0.0
176
     1
 40
1.0
176
     1
 90
        0
176
     1
 62
    18
420
        0
176
     1
 90
       50
176
     1
 90
        3
176
     1
 62
     5
420
      255
176
     1
290
     0
176
     1
 90
       50
176
     1
 90
       50
176
     1
 90
       50
176
     1
290
     0
176
     1
 90
       50
176
     1
 62
   256
176
     0
 40
1.0
176
     0
 90
        2
176
     1
  1
strokes_ogs.tif
176
     1
290
     0
176
     1
 40
1.0
176
     1
 40
1.0
176
     1
  0
VISUALSTYLE
  5
2D
102
{ACAD_REACTORS
330
29
102
}
330
29
100
AcDbVisualStyle
  2
GouraudWithEdges
 70
     3
177
     3
291
     1
 70
    58
 90
        2
176
     1
 90
        2
176
     1
 90
        1
176
     1
 90
        2
176
     1
 40
0.6
176
     1
 40
30.0
176
     1
 62
     7
420
 16777215
176
     1
 90
        1
176
     1
 90
        0
176
     1
 62
     7
176
     1
 62
   257
176
     1
 90
        1
176
     1
 90
        1
176
     1
 40
1.0
176
     1
 90
        0
176
     1
 62
   257
176
     1
 40
1.0
176
     1
 90
        1
176
     1
 90
        6
176
     1
 90
        2
176
     1
 62
     7
176
     1
 90
        5
176
     1
 90
        0
176
     1
 90
        0
176
     1
290
     0
176
     1
 90
       13
176
     1
 40
0.0
176
     1
 90
        0
176
     1
290
     0
176
     1
290
     1
176
     1
290
     1
176
     1
290
     0
176
     1
290
     0
176
     1
290
     0
176
     1
290
     0
176
     1
290
     0
176
     1
290
     0
176
     1
 90
       50
176
     1
 40
0.0
176
     1
 40
1.0
176
     1
 90
        0
176
     1
 62
    18
420
        0
176
     1
 90
       50
176
     1
 90
        3
176
     1
 62
     5
420
      255
176
     1
290
     0
176
     1
 90
       50
176
     1
 90
       50
176
     1
 90
       50
176
     1
290
     0
176
     1
 90
       50
176
     1
 62
   256
176
     0
 40
1.0
176
     0
 90
        2
176
     1
  1
strokes_ogs.tif
176
     1
290
     0
176
     1
 40
1.0
176
     1
 40
1.0
176
     1
  0
VISUALSTYLE
  5
31
102
{ACAD_REACTORS
330
29
102
}
330
29
100
AcDbVisualStyle
  2
Hidden
 70
     6
177
     3
291
     0
 70
    58
 90
        1
176
     1
 90
        2
176
     1
 90
        2
176
     1
 90
        0
176
     1
 40
0.6
176
     1
 40
30.0
176
     1
 62
     7
420
 16777215
176
     1
 90
        2
176
     1
 90
        2
176
     1
 62
     7
176
     1
 62
   257
176
     1
 90
        2
176
     1
 90
        1
176
     1
 40
40.0
176
     1
 90
        0
176
     1
 62
   257
176
     1
 40
1.0
176
     1
 90
        1
176
     1
 90
        6
176
     1
 90
        2
176
     1
 62
     7
176
     1
 90
        3
176
     1
 90
        0
176
     1
 90
        0
176
     1
290
     0
176
     1
 90
        1
176
     1
 40
0.0
176
     1
 90
        0
176
     1
290
     0
176
     1
290
     1
176
     1
290
     1
176
     1
290
     0
176
     1
290
     0
176
     1
290
     0
176
     1
290
     0
176
     1
290
     0
176
     1
290
     0
176
     1
 90
       50
176
     1
 40
0.0
176
     1
 40
1.0
176
     1
 90
        0
176
     1
 62
    18
420
        0
176
     1
 90
       50
176
     1
 90
        3
176
     1
 62
     5
420
      255
176
     1
290
     0
176
     1
 90
       50
176
     1
 90
       50
176
     1
 90
       50
176
     1
290
     0
176
     1
 90
       50
176
     1
 62
   256
176
     0
 40
1.0
176
     0
 90
        2
176
     1
  1
strokes_ogs.tif
176
     1
290
     0
176
     1
 40
1.0
176
     1
 40
1.0
176
     1
  0
VISUALSTYLE
  5
3F
102
{ACAD_REACTORS
330
29
102
}
330
29
100
AcDbVisualStyle
  2
JitterOff
 70
    20
177
     3
291
     1
 70
    58
 90
        2
176
     0
 90
        2
176
     0
 90
        0
176
     0
 90
        0
176
     0
 40
0.6
176
     0
 40
30.0
176
     0
 62
     7
420
 16777215
176
     0
 90
        1
176
     0
 90
        4
176
     0
 62
     7
176
     0
 62
   257
176
     0
 90
        1
176
     0
 90
        1
176
     0
 40
1.0
176
     0
 90
       10
176
     2
 62
     7
176
     0
 40
1.0
176
     0
 90
        1
176
     0
 90
        6
176
     0
 90
        2
176
     0
 62
     7
176
     0
 90
        5
176
     0
 90
        0
176
     0
 90
        0
176
     0
290
     0
176
     0
 90
        1
176
     0
 40
0.0
176
     0
 90
        0
176
     0
290
     0
176
     0
290
     1
176
     0
290
     1
176
     0
290
     0
176
     0
290
     0
176
     0
290
     0
176
     0
290
     0
176
     0
290
     0
176
     0
290
     0
176
     0
 90
       50
176
     0
 40
0.0
176
     0
 40
1.0
176
     0
 90
        0
176
     0
 62
    18
420
        0
176
     0
 90
       50
176
     0
 90
        3
176
     0
 62
     5
420
      255
176
     0
290
     0
176
     0
 90
       50
176
     0
 90
       50
176
     0
 90
       50
176
     0
290
     0
176
     0
 90
       50
176
     0
 62
   256
176
     0
 40
1.0
176
     0
 90
        2
176
     0
  1
strokes_ogs.tif
176
     0
290
     0
176
     0
 40
1.0
176
     0
 40
1.0
176
     0
  0
VISUALSTYLE
  5
37
102
{ACAD_REACTORS
330
29
102
}
330
29
100
AcDbVisualStyle
  2
Linepattern
 70
    14
177
     3
291
     1
 70
    58
 90
        2
176
     1
 90
        2
176
     1
 90
        0
176
     1
 90
        0
176
     1
 40
0.6
176
     1
 40
30.0
176
     1
 62
     7
420
 16777215
176
     1
 90
        1
176
     1
 90
        4
176
     1
 62
     7
176
     1
 62
   257
176
     1
 90
        7
176
     1
 90
        7
176
     1
 40
1.0
176
     1
 90
        8
176
     1
 62
     7
176
     1
 40
1.0
176
     1
 90
        1
176
     1
 90
        6
176
     1
 90
        2
176
     1
 62
     7
176
     1
 90
        5
176
     1
 90
        0
176
     1
 90
        0
176
     1
290
     0
176
     1
 90
        1
176
     1
 40
0.0
176
     1
 90
        0
176
     1
290
     0
176
     1
290
     1
176
     1
290
     1
176
     1
290
     0
176
     1
290
     0
176
     1
290
     0
176
     1
290
     0
176
     1
290
     0
176
     1
290
     0
176
     1
 90
       50
176
     1
 40
0.0
176
     1
 40
1.0
176
     1
 90
        0
176
     1
 62
    18
420
        0
176
     1
 90
       50
176
     1
 90
        3
176
     1
 62
     5
420
      255
176
     1
290
     0
176
     1
 90
       50
176
     1
 90
       50
176
     1
 90
       50
176
     1
290
     0
176
     1
 90
       50
176
     1
 62
   256
176
     0
 40
1.0
176
     0
 90
        2
176
     1
  1
strokes_ogs.tif
176
     1
290
     0
176
     1
 40
1.0
176
     1
 40
1.0
176
     1
  0
VISUALSTYLE
  5
40
102
{ACAD_REACTORS
330
29
102
}
330
29
100
AcDbVisualStyle
  2
OverhangOff
 70
    21
177
     3
291
     1
 70
    58
 90
        2
176
     0
 90
        2
176
     0
 90
        0
176
     0
 90
        0
176
     0
 40
0.6
176
     0
 40
30.0
176
     0
 62
     7
420
 16777215
176
     0
 90
        1
176
     0
 90
        4
176
     0
 62
     7
176
     0
 62
   257
176
     0
 90
        1
176
     0
 90
        1
176
     0
 40
1.0
176
     0
 90
        9
176
     2
 62
     7
176
     0
 40
1.0
176
     0
 90
        1
176
     0
 90
        6
176
     0
 90
        2
176
     0
 62
     7
176
     0
 90
        5
176
     0
 90
        0
176
     0
 90
        0
176
     0
290
     0
176
     0
 90
        1
176
     0
 40
0.0
176
     0
 90
        0
176
     0
290
     0
176
     0
290
     1
176
     0
290
     1
176
     0
290
     0
176
     0
290
     0
176
     0
290
     0
176
     0
290
     0
176
     0
290
     0
176
     0
290
     0
176
     0
 90
       50
176
     0
 40
0.0
176
     0
 40
1.0
176
     0
 90
        0
176
     0
 62
    18
420
        0
176
     0
 90
       50
176
     0
 90
        3
176
     0
 62
     5
420
      255
176
     0
290
     0
176
     0
 90
       50
176
     0
 90
       50
176
     0
 90
       50
176
     0
290
     0
176
     0
 90
       50
176
     0
 62
   256
176
     0
 40
1.0
176
     0
 90
        2
176
     0
  1
strokes_ogs.tif
176
     0
290
     0
176
     0
 40
1.0
176
     0
 40
1.0
176
     0
  0
VISUALSTYLE
  5
33
102
{ACAD_REACTORS
330
29
102
}
330
29
100
AcDbVisualStyle
  2
Realistic
 70
     8
177
     3
291
     0
 70
    58
 90
        2
176
     1
 90
        3
176
     1
 90
        0
176
     1
 90
        2
176
     1
 40
0.6
176
     1
 40
30.0
176
     1
 62
     7
420
 16777215
176
     1
 90
        0
176
     1
 90
        0
176
     1
 62
     7
176
     1
 62
   257
176
     1
 90
        1
176
     1
 90
        1
176
     1
 40
1.0
176
     1
 90
        8
176
     1
 62
   257
176
     1
 40
1.0
176
     1
 90
        1
176
     1
 90
        6
176
     1
 90
        2
176
     1
 62
     7
176
     1
 90
        3
176
     1
 90
        0
176
     1
 90
        0
176
     1
290
     0
176
     1
 90
       13
176
     1
 40
0.0
176
     1
 90
        0
176
     1
290
     0
176
     1
290
     1
176
     1
290
     1
176
     1
290
     0
176
     1
290
     0
176
     1
290
     0
176
     1
290
     0
176
     1
290
     0
176
     1
290
     0
176
     1
 90
       50
176
     1
 40
0.0
176
     1
 40
1.0
176
     1
 90
        0
176
     1
 62
    18
420
        0
176
     1
 90
       50
176
     1
 90
        3
176
     1
 62
     5
420
      255
176
     1
290
     0
176
     1
 90
       50
176
     1
 90
       50
176
     1
 90
       50
176
     1
290
     0
176
     1
 90
       50
176
     1
 62
   256
176
     0
 40
1.0
176
     0
 90
        2
176
     1
  1
strokes_ogs.tif
176
     1
290
     0
176
     1
 40
1.0
176
     1
 40
1.0
176
     1
  0
VISUALSTYLE
  5
3E
102
{ACAD_REACTORS
330
29
102
}
330
29
100
AcDbVisualStyle
  2
Shaded
 70
    27
177
     3
291
     0
 70
    58
 90
        2
176
     1
 90
        2
176
     1
 90
        1
176
     1
 90
        2
176
     1
 40
0.6
176
     1
 40
30.0
176
     1
 62
     7
420
 16777215
176
     1
 90
        0
176
     1
 90
        4
176
     1
 62
     7
176
     1
 62
   257
176
     1
 90
        1
176
     1
 90
        1
176
     1
 40
1.0
176
     1
 90
        8
176
     1
 62
   257
176
     1
 40
1.0
176
     1
 90
        1
176
     1
 90
        6
176
     1
 90
        2
176
     1
 62
     8
420
  7895160
176
     1
 90
        3
176
     1
 90
        0
176
     1
 90
        0
176
     1
290
     0
176
     1
 90
        5
176
     1
 40
0.0
176
     1
 90
        0
176
     1
290
     0
176
     1
290
     1
176
     1
290
     1
176
     1
290
     0
176
     1
290
     0
176
     1
290
     0
176
     1
290
     0
176
     1
290
     0
176
     1
290
     0
176
     1
 90
       50
176
     1
 40
0.0
176
     1
 40
1.0
176
     1
 90
        0
176
     1
 62
    18
420
        0
176
     1
 90
       50
176
     1
 90
        3
176
     1
 62
     5
420
      255
176
     1
290
     0
176
     1
 90
       50
176
     1
 90
       50
176
     1
 90
       50
176
     1
290
     0
176
     1
 90
       50
176
     1
 62
   256
176
     0
 40
1.0
176
     0
 90
        2
176
     1
  1
strokes_ogs.tif
176
     1
290
     0
176
     1
 40
1.0
176
     1
 40
1.0
176
     1
  0
VISUALSTYLE
  5
3D
102
{ACAD_REACTORS
330
29
102
}
330
29
100
AcDbVisualStyle
  2
Shaded with edges
 70
    26
177
     3
291
     0
 70
    58
 90
        2
176
     1
 90
        2
176
     1
 90
        1
176
     1
 90
        2
176
     1
 40
0.6
176
     1
 40
30.0
176
     1
 62
     7
420
 16777215
176
     1
 90
        1
176
     1
 90
        2
176
     1
 62
     7
176
     1
 62
   257
176
     1
 90
        2
176
     1
 90
        1
176
     1
 40
1.0
176
     1
 90
        8
176
     1
 62
   257
176
     1
 40
1.0
176
     1
 90
        1
176
     1
 90
        6
176
     1
 90
        2
176
     1
 62
     7
176
     1
 90
        3
176
     1
 90
        0
176
     1
 90
        0
176
     1
290
     0
176
     1
 90
        5
176
     1
 40
0.0
176
     1
 90
        0
176
     1
290
     0
176
     1
290
     1
176
     1
290
     1
176
     1
290
     0
176
     1
290
     0
176
     1
290
     0
176
     1
290
     0
176
     1
290
     0
176
     1
290
     0
176
     1
 90
       50
176
     1
 40
0.0
176
     1
 40
1.0
176
     1
 90
        0
176
     1
 62
    18
420
        0
176
     1
 90
       50
176
     1
 90
        3
176
     1
 62
     5
420
      255
176
     1
290
     0
176
     1
 90
       50
176
     1
 90
       50
176
     1
 90
       50
176
     1
290
     0
176
     1
 90
       50
176
     1
 62
   256
176
     0
 40
1.0
176
     0
 90
        2
176
     1
  1
strokes_ogs.tif
176
     1
290
     0
176
     1
 40
1.0
176
     1
 40
1.0
176
     1
  0
VISUALSTYLE
  5
3A
102
{ACAD_REACTORS
330
29
102
}
330
29
100
AcDbVisualStyle
  2
Shades of Gray
 70
    23
177
     3
291
     0
 70
    58
 90
        2
176
     1
 90
        2
176
     1
 90
        3
176
     1
 90
        0
176
     1
 40
0.6
176
     1
 40
30.0
176
     1
 62
     7
420
 16777215
176
     1
 90
        2
176
     1
 90
        2
176
     1
 62
     7
176
     1
 62
     7
176
     1
 90
        1
176
     1
 90
        1
176
     1
 40
40.0
176
     1
 90
        8
176
     1
 62
     7
176
     1
 40
1.0
176
     1
 90
        1
176
     1
 90
        6
176
     1
 90
        2
176
     1
 62
     7
176
     1
 90
        3
176
     1
 90
        0
176
     1
 90
        0
176
     1
290
     0
176
     1
 90
        1
176
     1
 40
0.0
176
     1
 90
        0
176
     1
290
     0
176
     1
290
     1
176
     1
290
     1
176
     1
290
     0
176
     1
290
     0
176
     1
290
     0
176
     1
290
     0
176
     1
290
     0
176
     1
290
     0
176
     1
 90
       50
176
     1
 40
0.0
176
     1
 40
1.0
176
     1
 90
        0
176
     1
 62
    18
420
        0
176
     1
 90
       50
176
     1
 90
        3
176
     1
 62
     5
420
      255
176
     1
290
     0
176
     1
 90
       50
176
     1
 90
       50
176
     1
 90
       50
176
     1
290
     0
176
     1
 90
       50
176
     1
 62
   256
176
     0
 40
1.0
176
     0
 90
        2
176
     1
  1
strokes_ogs.tif
176
     1
290
     0
176
     1
 40
1.0
176
     1
 40
1.0
176
     1
  0
VISUALSTYLE
  5
3B
102
{ACAD_REACTORS
330
29
102
}
330
29
100
AcDbVisualStyle
  2
Sketchy
 70
    24
177
     3
291
     0
 70
    58
 90
        1
176
     1
 90
        2
176
     1
 90
        2
176
     1
 90
        0
176
     1
 40
0.6
176
     1
 40
30.0
176
     1
 62
     7
420
 16777215
176
     1
 90
        2
176
     1
 90
        2
176
     1
 62
     7
176
     1
 62
     7
176
     1
 90
        1
176
     1
 90
        1
176
     1
 40
40.0
176
     1
 90
       11
176
     1
 62
     7
176
     1
 40
1.0
176
     1
 90
        1
176
     1
 90
        6
176
     1
 90
        2
176
     1
 62
     7
176
     1
 90
        6
176
     1
 90
        0
176
     1
 90
        0
176
     1
290
     0
176
     1
 90
        1
176
     1
 40
0.0
176
     1
 90
        0
176
     1
290
     0
176
     1
290
     1
176
     1
290
     1
176
     1
290
     0
176
     1
290
     0
176
     1
290
     0
176
     1
290
     0
176
     1
290
     0
176
     1
290
     0
176
     1
 90
       50
176
     1
 40
0.0
176
     1
 40
1.0
176
     1
 90
        0
176
     1
 62
    18
420
        0
176
     1
 90
       50
176
     1
 90
        3
176
     1
 62
     5
420
      255
176
     1
290
     0
176
     1
 90
       50
176
     1
 90
       50
176
     1
 90
       50
176
     1
290
     0
176
     1
 90
       50
176
     1
 62
   256
176
     0
 40
1.0
176
     0
 90
        2
176
     1
  1
strokes_ogs.tif
176
     1
290
     0
176
     1
 40
1.0
176
     1
 40
1.0
176
     1
  0
VISUALSTYLE
  5
36
102
{ACAD_REACTORS
330
29
102
}
330
29
100
AcDbVisualStyle
  2
Thicken
 70
    13
177
     3
291
     1
 70
    58
 90
        2
176
     1
 90
        2
176
     1
 90
        0
176
     1
 90
        0
176
     1
 40
0.6
176
     1
 40
30.0
176
     1
 62
     7
420
 16777215
176
     1
 90
        1
176
     1
 90
        4
176
     1
 62
     7
176
     1
 62
   257
176
     1
 90
        1
176
     1
 90
        1
176
     1
 40
1.0
176
     1
 90
       12
176
     1
 62
     7
176
     1
 40
1.0
176
     1
 90
        1
176
     1
 90
        6
176
     1
 90
        2
176
     1
 62
     7
176
     1
 90
        5
176
     1
 90
        0
176
     1
 90
        0
176
     1
290
     0
176
     1
 90
        1
176
     1
 40
0.0
176
     1
 90
        0
176
     1
290
     0
176
     1
290
     1
176
     1
290
     1
176
     1
290
     0
176
     1
290
     0
176
     1
290
     0
176
     1
290
     0
176
     1
290
     0
176
     1
290
     0
176
     1
 90
       50
176
     1
 40
0.0
176
     1
 40
1.0
176
     1
 90
        0
176
     1
 62
    18
420
        0
176
     1
 90
       50
176
     1
 90
        3
176
     1
 62
     5
420
      255
176
     1
290
     0
176
     1
 90
       50
176
     1
 90
       50
176
     1
 90
       50
176
     1
290
     0
176
     1
 90
       50
176
     1
 62
   256
176
     0
 40
1.0
176
     0
 90
        2
176
     1
  1
strokes_ogs.tif
176
     1
290
     0
176
     1
 40
1.0
176
     1
 40
1.0
176
     1
  0
VISUALSTYLE
  5
30
102
{ACAD_REACTORS
330
29
102
}
330
29
100
AcDbVisualStyle
  2
Wireframe
 70
     5
177
     3
291
     0
 70
    58
 90
        0
176
     1
 90
        2
176
     1
 90
        0
176
     1
 90
        0
176
     1
 40
0.6
176
     1
 40
30.0
176
     1
 62
     7
420
 16777215
176
     1
 90
        1
176
     1
 90
        4
176
     1
 62
     7
176
     1
 62
   257
176
     1
 90
        1
176
     1
 90
        1
176
     1
 40
1.0
176
     1
 90
        0
176
     1
 62
   257
176
     1
 40
1.0
176
     1
 90
        1
176
     1
 90
        6
176
     1
 90
        2
176
     1
 62
     7
176
     1
 90
        3
176
     1
 90
        0
176
     1
 90
        0
176
     1
290
     0
176
     1
 90
        1
176
     1
 40
0.0
176
     1
 90
        0
176
     1
290
     0
176
     1
290
     1
176
     1
290
     1
176
     1
290
     0
176
     1
290
     0
176
     1
290
     0
176
     1
290
     0
176
     1
290
     0
176
     1
290
     0
176
     1
 90
       50
176
     1
 40
0.0
176
     1
 40
1.0
176
     1
 90
        0
176
     1
 62
    18
420
        0
176
     1
 90
       50
176
     1
 90
        3
176
     1
 62
     5
420
      255
176
     1
290
     0
176
     1
 90
       50
176
     1
 90
       50
176
     1
 90
       50
176
     1
290
     0
176
     1
 90
       50
176
     1
 62
   256
176
     0
 40
1.0
176
     0
 90
        2
176
     1
  1
strokes_ogs.tif
176
     1
290
     0
176
     1
 40
1.0
176
     1
 40
1.0
176
     1
  0
VISUALSTYLE
  5
3C
102
{ACAD_REACTORS
330
29
102
}
330
29
100
AcDbVisualStyle
  2
X-Ray
 70
    25
177
     3
291
     0
 70
    58
 90
        2
176
     1
 90
        2
176
     1
 90
        1
176
     1
 90
        1
176
     1
 40
0.5
176
     1
 40
30.0
176
     1
 62
     7
420
 16777215
176
     1
 90
        1
176
     1
 90
        0
176
     1
 62
     7
176
     1
 62
   257
176
     1
 90
        1
176
     1
 90
        1
176
     1
 40
1.0
176
     1
 90
        8
176
     1
 62
     7
176
     1
 40
1.0
176
     1
 90
        1
176
     1
 90
        6
176
     1
 90
        2
176
     1
 62
     7
176
     1
 90
        3
176
     1
 90
        0
176
     1
 90
        0
176
     1
290
     0
176
     1
 90
       13
176
     1
 40
0.0
176
     1
 90
        0
176
     1
290
     0
176
     1
290
     1
176
     1
290
     1
176
     1
290
     0
176
     1
290
     0
176
     1
290
     0
176
     1
290
     0
176
     1
290
     0
176
     1
290
     0
176
     1
 90
       50
176
     1
 40
0.0
176
     1
 40
1.0
176
     1
 90
        0
176
     1
 62
    18
420
        0
176
     1
 90
       50
176
     1
 90
        3
176
     1
 62
     5
420
      255
176
     1
290
     0
176
     1
 90
       50
176
     1
 90
       50
176
     1
 90
       50
176
     1
290
     0
176
     1
 90
       50
176
     1
 62
   256
176
     0
 40
1.0
176
     0
 90
        2
176
     1
  1
strokes_ogs.tif
176
     1
290
     0
176
     1
 40
1.0
176
     1
 40
1.0
176
     1
  0
DICTIONARYVAR
  5
1AD
102
{ACAD_REACTORS
330
1A8
102
}
330
1A8
100
DictionaryVariables
280
     0
  1
1:1
  0
DICTIONARYVAR
  5
1AA
102
{ACAD_REACTORS
330
1A8
102
}
330
1A8
100
DictionaryVariables
280
     0
  1
STANDARD
  0
DICTIONARYVAR
  5
1A9
102
{ACAD_REACTORS
330
1A8
102
}
330
1A8
100
DictionaryVariables
280
     0
  1
STANDARD
  0
DICTIONARYVAR
  5
1AB
102
{ACAD_REACTORS
330
1A8
102
}
330
1A8
100
DictionaryVariables
280
     0
  1
Imperial24
  0
DICTIONARYVAR
  5
1AC
102
{ACAD_REACTORS
330
1A8
102
}
330
1A8
100
DictionaryVariables
280
     0
  1
Imperial24
  0
DICTIONARY
  5
1A
330
19
100
AcDbDictionary
280
     1
281
     1
  3
BUMPTILE
360
1C
  3
DIFFUSETILE
360
1B
  3
OPACITYTILE
360
1F
  3
REFLECTIONTILE
360
1E
  3
REFRACTIONTILE
360
20
  3
SPECULARTILE
360
1D
  0
DICTIONARY
  5
12
330
11
100
AcDbDictionary
280
     1
281
     1
  3
BUMPTILE
360
14
  3
DIFFUSETILE
360
13
  3
OPACITYTILE
360
17
  3
REFLECTIONTILE
360
16
  3
REFRACTIONTILE
360
18
  3
SPECULARTILE
360
15
  0
DICTIONARY
  5
22
330
21
100
AcDbDictionary
280
     1
281
     1
  3
BUMPTILE
360
24
  3
DIFFUSETILE
360
23
  3
OPACITYTILE
360
27
  3
REFLECTIONTILE
360
26
  3
REFRACTIONTILE
360
28
  3
SPECULARTILE
360
25
  0
DICTIONARY
  5
1AE
330
65
100
AcDbDictionary
280
     1
281
     1
  3
ACAD_ROUNDTRIP_2008_TABLESTYLE_CELLSTYLEMAP
360
1AF
  0
XRECORD
  5
1C
102
{ACAD_REACTORS
330
1A
102
}
330
1A
100
AcDbXrecord
280
     1
270
     1
271
     1
  0
XRECORD
  5
1B
102
{ACAD_REACTORS
330
1A
102
}
330
1A
100
AcDbXrecord
280
     1
270
     1
271
     1
  0
XRECORD
  5
1F
102
{ACAD_REACTORS
330
1A
102
}
330
1A
100
AcDbXrecord
280
     1
270
     1
271
     1
  0
XRECORD
  5
1E
102
{ACAD_REACTORS
330
1A
102
}
330
1A
100
AcDbXrecord
280
     1
270
     1
271
     1
  0
XRECORD
  5
20
102
{ACAD_REACTORS
330
1A
102
}
330
1A
100
AcDbXrecord
280
     1
270
     1
271
     1
  0
XRECORD
  5
1D
102
{ACAD_REACTORS
330
1A
102
}
330
1A
100
AcDbXrecord
280
     1
270
     1
271
     1
  0
XRECORD
  5
14
102
{ACAD_REACTORS
330
12
102
}
330
12
100
AcDbXrecord
280
     1
270
     1
271
     1
  0
XRECORD
  5
13
102
{ACAD_REACTORS
330
12
102
}
330
12
100
AcDbXrecord
280
     1
270
     1
271
     1
  0
XRECORD
  5
17
102
{ACAD_REACTORS
330
12
102
}
330
12
100
AcDbXrecord
280
     1
270
     1
271
     1
  0
XRECORD
  5
16
102
{ACAD_REACTORS
330
12
102
}
330
12
100
AcDbXrecord
280
     1
270
     1
271
     1
  0
XRECORD
  5
18
102
{ACAD_REACTORS
330
12
102
}
330
12
100
AcDbXrecord
280
     1
270
     1
271
     1
  0
XRECORD
  5
15
102
{ACAD_REACTORS
330
12
102
}
330
12
100
AcDbXrecord
280
     1
270
     1
271
     1
  0
XRECORD
  5
24
102
{ACAD_REACTORS
330
22
102
}
330
22
100
AcDbXrecord
280
     1
270
     1
271
     1
  0
XRECORD
  5
23
102
{ACAD_REACTORS
330
22
102
}
330
22
100
AcDbXrecord
280
     1
270
     1
271
     1
  0
XRECORD
  5
27
102
{ACAD_REACTORS
330
22
102
}
330
22
100
AcDbXrecord
280
     1
270
     1
271
     1
  0
XRECORD
  5
26
102
{ACAD_REACTORS
330
22
102
}
330
22
100
AcDbXrecord
280
     1
270
     1
271
     1
  0
XRECORD
  5
28
102
{ACAD_REACTORS
330
22
102
}
330
22
100
AcDbXrecord
280
     1
270
     1
271
     1
  0
XRECORD
  5
25
102
{ACAD_REACTORS
330
22
102
}
330
22
100
AcDbXrecord
280
     1
270
     1
271
     1
  0
CELLSTYLEMAP
  5
1AF
102
{ACAD_REACTORS
330
1AE
102
}
330
1AE
100
AcDbCellStyleMap
 90
        3
300
CELLSTYLE
  1
TABLEFORMAT_BEGIN
 90
        5
170
     1
 91
        0
 92
    32768
 62
   257
 93
        1
300
CONTENTFORMAT
  1
CONTENTFORMAT_BEGIN
 90
        0
 91
        0
 92
      512
 93
        0
300

 40
0.0
140
1.0
 94
        5
 62
     0
340
55
144
0.25
309
CONTENTFORMAT_END
171
     0
 94
        0
309
TABLEFORMAT_END
  1
CELLSTYLE_BEGIN
 90
        1
 91
        1
300
_TITLE
309
CELLSTYLE_END
300
CELLSTYLE
  1
TABLEFORMAT_BEGIN
 90
        5
170
     1
 91
        0
 92
        0
 62
   257
 93
        1
300
CONTENTFORMAT
  1
CONTENTFORMAT_BEGIN
 90
        0
 91
        0
 92
      512
 93
        0
300

 40
0.0
140
1.0
 94
        5
 62
     0
340
55
144
0.18
309
CONTENTFORMAT_END
171
     0
 94
        0
309
TABLEFORMAT_END
  1
CELLSTYLE_BEGIN
 90
        2
 91
        1
300
_HEADER
309
CELLSTYLE_END
300
CELLSTYLE
  1
TABLEFORMAT_BEGIN
 90
        5
170
     1
 91
        0
 92
        0
 62
   257
 93
        1
300
CONTENTFORMAT
  1
CONTENTFORMAT_BEGIN
 90
        0
 91
        0
 92
      512
 93
        0
300

 40
0.0
140
1.0
 94
        2
 62
     0
340
55
144
0.18
309
CONTENTFORMAT_END
171
     0
 94
        0
309
TABLEFORMAT_END
  1
CELLSTYLE_BEGIN
 90
        3
 91
        2
300
_DATA
309
CELLSTYLE_END
  0
ENDSEC
  0
EOF
