  0
SECTION
  2
HEADER
  9
$ACADVER
  1
AC1032
  9
$ACADMAINTVER
 90
      197
  9
$DWGCODEPAGE
  3
ANSI_932
  9
$REQUIREDVERSIONS
160
                 0
  9
$INSBASE
 10
0.0
 20
0.0
 30
0.0
  9
$EXTMIN
 10
1.000000000000000E+20
 20
1.000000000000000E+20
 30
1.000000000000000E+20
  9
$EXTMAX
 10
-1.000000000000000E+20
 20
-1.000000000000000E+20
 30
-1.000000000000000E+20
  9
$LIMMIN
 10
0.0
 20
0.0
  9
$LIMMAX
 10
12.0
 20
9.0
  9
$ORTHOMODE
 70
     0
  9
$REGENMODE
 70
     1
  9
$FILLMODE
 70
     1
  9
$QTEXTMODE
 70
     0
  9
$MIRRTEXT
 70
     0
  9
$LTSCALE
 40
1.0
  9
$ATTMODE
 70
     1
  9
$TEXTSIZE
 40
0.2
  9
$TRACEWID
 40
0.05
  9
$TEXTSTYLE
  7
Standard
  9
$CLAYER
  8
0
  9
$CELTYPE
  6
ByLayer
  9
$CECOLOR
 62
   256
  9
$CELTSCALE
 40
1.0
  9
$DISPSILH
 70
     0
  9
$DIMSCALE
 40
1.0
  9
$DIMASZ
 40
0.18
  9
$DIMEXO
 40
0.0625
  9
$DIMDLI
 40
0.38
  9
$DIMRND
 40
0.0
  9
$DIMDLE
 40
0.0
  9
$DIMEXE
 40
0.18
  9
$DIMTP
 40
0.0
  9
$DIMTM
 40
0.0
  9
$DIMTXT
 40
0.18
  9
$DIMCEN
 40
0.09
  9
$DIMTSZ
 40
0.0
  9
$DIMTOL
 70
     0
  9
$DIMLIM
 70
     0
  9
$DIMTIH
 70
     1
  9
$DIMTOH
 70
     1
  9
$DIMSE1
 70
     0
  9
$DIMSE2
 70
     0
  9
$DIMTAD
 70
     0
  9
$DIMZIN
 70
     0
  9
$DIMBLK
  1

  9
$DIMASO
 70
     1
  9
$DIMSHO
 70
     1
  9
$DIMPOST
  1

  9
$DIMAPOST
  1

  9
$DIMALT
 70
     0
  9
$DIMALTD
 70
     2
  9
$DIMALTF
 40
25.4
  9
$DIMLFAC
 40
1.0
  9
$DIMTOFL
 70
     0
  9
$DIMTVP
 40
0.0
  9
$DIMTIX
 70
     0
  9
$DIMSOXD
 70
     0
  9
$DIMSAH
 70
     0
  9
$DIMBLK1
  1

  9
$DIMBLK2
  1

  9
$DIMSTYLE
  2
Standard
  9
$DIMCLRD
 70
     0
  9
$DIMCLRE
 70
     0
  9
$DIMCLRT
 70
     0
  9
$DIMTFAC
 40
1.0
  9
$DIMGAP
 40
0.09
  9
$DIMJUST
 70
     0
  9
$DIMSD1
 70
     0
  9
$DIMSD2
 70
     0
  9
$DIMTOLJ
 70
     1
  9
$DIMTZIN
 70
     0
  9
$DIMALTZ
 70
     0
  9
$DIMALTTZ
 70
     0
  9
$DIMUPT
 70
     0
  9
$DIMDEC
 70
     4
  9
$DIMTDEC
 70
     4
  9
$DIMALTU
 70
     2
  9
$DIMALTTD
 70
     2
  9
$DIMTXSTY
  7
Standard
  9
$DIMAUNIT
 70
     0
  9
$DIMADEC
 70
     0
  9
$DIMALTRND
 40
0.0
  9
$DIMAZIN
 70
     0
  9
$DIMDSEP
 70
    46
  9
$DIMATFIT
 70
     3
  9
$DIMFRAC
 70
     0
  9
$DIMLDRBLK
  1

  9
$DIMLUNIT
 70
     2
  9
$DIMLWD
 70
    -2
  9
$DIMLWE
 70
    -2
  9
$DIMTMOVE
 70
     0
  9
$DIMFXL
 40
1.0
  9
$DIMFXLON
 70
     0
  9
$DIMJOGANG
 40
0.7853981633974483
  9
$DIMTFILL
 70
     0
  9
$DIMTFILLCLR
 70
     0
  9
$DIMARCSYM
 70
     0
  9
$DIMLTYPE
  6

  9
$DIMLTEX1
  6

  9
$DIMLTEX2
  6

  9
$DIMTXTDIRECTION
 70
     0
  9
$LUNITS
 70
     2
  9
$LUPREC
 70
     4
  9
$SKETCHINC
 40
0.1
  9
$FILLETRAD
 40
0.0
  9
$AUNITS
 70
     0
  9
$AUPREC
 70
     0
  9
$MENU
  1
.
  9
$ELEVATION
 40
0.0
  9
$PELEVATION
 40
0.0
  9
$THICKNESS
 40
0.0
  9
$LIMCHECK
 70
     0
  9
$CHAMFERA
 40
0.0
  9
$CHAMFERB
 40
0.0
  9
$CHAMFERC
 40
0.0
  9
$CHAMFERD
 40
0.0
  9
$SKPOLY
 70
     0
  9
$TDCREATE
 40
2459549.537766204
  9
$TDUCREATE
 40
2459549.162766204
  9
$TDUPDATE
 40
2459549.537766204
  9
$TDUUPDATE
 40
2459549.162766204
  9
$TDINDWG
 40
0.0000000000
  9
$TDUSRTIMER
 40
0.0000000000
  9
$USRTIMER
 70
     1
  9
$ANGBASE
 50
0.0
  9
$ANGDIR
 70
     0
  9
$PDMODE
 70
     0
  9
$PDSIZE
 40
0.0
  9
$PLINEWID
 40
0.0
  9
$SPLFRAME
 70
     0
  9
$SPLINETYPE
 70
     6
  9
$SPLINESEGS
 70
     8
  9
$HANDSEED
  5
1A0
  9
$SURFTAB1
 70
     6
  9
$SURFTAB2
 70
     6
  9
$SURFTYPE
 70
     6
  9
$SURFU
 70
     6
  9
$SURFV
 70
     6
  9
$UCSBASE
  2

  9
$UCSNAME
  2

  9
$UCSORG
 10
0.0
 20
0.0
 30
0.0
  9
$UCSXDIR
 10
1.0
 20
0.0
 30
0.0
  9
$UCSYDIR
 10
0.0
 20
1.0
 30
0.0
  9
$UCSORTHOREF
  2

  9
$UCSORTHOVIEW
 70
     0
  9
$UCSORGTOP
 10
0.0
 20
0.0
 30
0.0
  9
$UCSORGBOTTOM
 10
0.0
 20
0.0
 30
0.0
  9
$UCSORGLEFT
 10
0.0
 20
0.0
 30
0.0
  9
$UCSORGRIGHT
 10
0.0
 20
0.0
 30
0.0
  9
$UCSORGFRONT
 10
0.0
 20
0.0
 30
0.0
  9
$UCSORGBACK
 10
0.0
 20
0.0
 30
0.0
  9
$PUCSBASE
  2

  9
$PUCSNAME
  2

  9
$PUCSORG
 10
0.0
 20
0.0
 30
0.0
  9
$PUCSXDIR
 10
1.0
 20
0.0
 30
0.0
  9
$PUCSYDIR
 10
0.0
 20
1.0
 30
0.0
  9
$PUCSORTHOREF
  2

  9
$PUCSORTHOVIEW
 70
     0
  9
$PUCSORGTOP
 10
0.0
 20
0.0
 30
0.0
  9
$PUCSORGBOTTOM
 10
0.0
 20
0.0
 30
0.0
  9
$PUCSORGLEFT
 10
0.0
 20
0.0
 30
0.0
  9
$PUCSORGRIGHT
 10
0.0
 20
0.0
 30
0.0
  9
$PUCSORGFRONT
 10
0.0
 20
0.0
 30
0.0
  9
$PUCSORGBACK
 10
0.0
 20
0.0
 30
0.0
  9
$USERI1
 70
     0
  9
$USERI2
 70
     0
  9
$USERI3
 70
     0
  9
$USERI4
 70
     0
  9
$USERI5
 70
     0
  9
$USERR1
 40
0.0
  9
$USERR2
 40
0.0
  9
$USERR3
 40
0.0
  9
$USERR4
 40
0.0
  9
$USERR5
 40
0.0
  9
$WORLDVIEW
 70
     1
  9
$SHADEDGE
 70
     3
  9
$SHADEDIF
 70
    70
  9
$TILEMODE
 70
     1
  9
$MAXACTVP
 70
    64
  9
$PINSBASE
 10
0.0
 20
0.0
 30
0.0
  9
$PLIMCHECK
 70
     0
  9
$PEXTMIN
 10
1.000000000000000E+20
 20
1.000000000000000E+20
 30
1.000000000000000E+20
  9
$PEXTMAX
 10
-1.000000000000000E+20
 20
-1.000000000000000E+20
 30
-1.000000000000000E+20
  9
$PLIMMIN
 10
0.0
 20
0.0
  9
$PLIMMAX
 10
12.0
 20
9.0
  9
$UNITMODE
 70
     0
  9
$VISRETAIN
 70
     1
  9
$PLINEGEN
 70
     0
  9
$PSLTSCALE
 70
     1
  9
$TREEDEPTH
 70
  3020
  9
$CMLSTYLE
  2
Standard
  9
$CMLJUST
 70
     0
  9
$CMLSCALE
 40
1.0
  9
$PROXYGRAPHICS
 70
     1
  9
$MEASUREMENT
 70
     0
  9
$CELWEIGHT
370
    -1
  9
$ENDCAPS
280
     0
  9
$JOINSTYLE
280
     0
  9
$LWDISPLAY
290
     1
  9
$INSUNITS
 70
     4
  9
$HYPERLINKBASE
  1

  9
$STYLESHEET
  1

  9
$XEDIT
290
     1
  9
$CEPSNTYPE
380
     0
  9
$PSTYLEMODE
290
     1
  9
$FINGERPRINTGUID
  2
{E8C9D00A-84DA-4647-9B3A-2E04A258451C}
  9
$VERSIONGUID
  2
{0625FCF1-EA37-764A-AE29-AD0D10A1B6EA}
  9
$EXTNAMES
290
     1
  9
$PSVPSCALE
 40
0.0
  9
$OLESTARTUP
290
     0
  9
$SORTENTS
280
   127
  9
$INDEXCTL
280
     0
  9
$HIDETEXT
280
     1
  9
$XCLIPFRAME
280
     2
  9
$HALOGAP
280
     0
  9
$OBSCOLOR
 70
   257
  9
$OBSLTYPE
280
     0
  9
$INTERSECTIONDISPLAY
280
     0
  9
$INTERSECTIONCOLOR
 70
   257
  9
$DIMASSOC
280
     2
  9
$PROJECTNAME
  1

  9
$CAMERADISPLAY
290
     0
  9
$LENSLENGTH
 40
50.0
  9
$CAMERAHEIGHT
 40
0.0
  9
$STEPSPERSEC
 40
2.0
  9
$STEPSIZE
 40
6.0
  9
$3DDWFPREC
 40
2.0
  9
$PSOLWIDTH
 40
0.25
  9
$PSOLHEIGHT
 40
4.0
  9
$LOFTANG1
 40
1.570796326794896
  9
$LOFTANG2
 40
1.570796326794896
  9
$LOFTMAG1
 40
0.0
  9
$LOFTMAG2
 40
0.0
  9
$LOFTPARAM
 70
     7
  9
$LOFTNORMALS
280
     1
  9
$LATITUDE
 40
37.795
  9
$LONGITUDE
 40
-122.394
  9
$NORTHDIRECTION
 40
0.0
  9
$TIMEZONE
 70
 -8000
  9
$LIGHTGLYPHDISPLAY
280
     1
  9
$TILEMODELIGHTSYNCH
280
     1
  9
$CMATERIAL
347
11
  9
$SOLIDHIST
280
     0
  9
$SHOWHIST
280
     1
  9
$DWFFRAME
280
     2
  9
$DGNFRAME
280
     0
  9
$REALWORLDSCALE
290
     1
  9
$INTERFERECOLOR
 62
     1
  9
$INTERFEREOBJVS
345
33
  9
$INTERFEREVPVS
346
30
  9
$CSHADOW
280
     0
  9
$SHADOWPLANELOCATION
 40
0.0
  0
ENDSEC
  0
SECTION
  2
CLASSES
  0
CLASS
  1
ACDBDICTIONARYWDFLT
  2
AcDbDictionaryWithDefault
  3
ObjectDBX Classes
 90
        0
 91
        1
280
     0
281
     0
  0
CLASS
  1
MATERIAL
  2
AcDbMaterial
  3
ObjectDBX Classes
 90
     1153
 91
        3
280
     0
281
     0
  0
CLASS
  1
VISUALSTYLE
  2
AcDbVisualStyle
  3
ObjectDBX Classes
 90
     4095
 91
       24
280
     0
281
     0
  0
CLASS
  1
SCALE
  2
AcDbScale
  3
ObjectDBX Classes
 90
     1153
 91
       17
280
     0
281
     0
  0
CLASS
  1
TABLESTYLE
  2
AcDbTableStyle
  3
ObjectDBX Classes
 90
     4095
 91
        1
280
     0
281
     0
  0
CLASS
  1
MLEADERSTYLE
  2
AcDbMLeaderStyle
  3
ACDB_MLEADERSTYLE_CLASS
 90
     4095
 91
        1
280
     0
281
     0
  0
CLASS
  1
ACDBSECTIONVIEWSTYLE
  2
AcDbSectionViewStyle
  3
ObjectDBX Classes
 90
     1025
 91
        1
280
     0
281
     0
  0
CLASS
  1
ACDBDETAILVIEWSTYLE
  2
AcDbDetailViewStyle
  3
ObjectDBX Classes
 90
     1025
 91
        1
280
     0
281
     0
  0
CLASS
  1
DICTIONARYVAR
  2
AcDbDictionaryVar
  3
ObjectDBX Classes
 90
        0
 91
        5
280
     0
281
     0
  0
CLASS
  1
CELLSTYLEMAP
  2
AcDbCellStyleMap
  3
ObjectDBX Classes
 90
     1152
 91
        1
280
     0
281
     0
  0
ENDSEC
  0
SECTION
  2
TABLES
  0
TABLE
  2
VPORT
  5
8
330
0
100
AcDbSymbolTable
 70
     1
  0
VPORT
  5
57
330
8
100
AcDbSymbolTableRecord
100
AcDbViewportTableRecord
  2
*Active
 70
     0
 10
0.0
 20
0.0
 11
1.0
 21
1.0
 12
0.0
 22
0.0
 13
0.0
 23
0.0
 14
1.0
 24
1.0
 15
0.0
 25
0.0
 16
0.0
 26
0.0
 36
1.0
 17
104.9513888626509
 27
148.5194444073147
 37
0.0
 40
303.0547499242999
 41
0.7073171871859853
 42
50.0
 43
0.0
 44
0.0
 50
0.0
 51
0.0
 71
     0
 72
   100
 73
     1
 74
     1
 75
     0
 76
     0
 77
     0
 78
     0
281
     0
 65
     1
110
0.0
120
0.0
130
0.0
111
1.0
121
0.0
131
0.0
112
0.0
122
1.0
132
0.0
 79
     0
146
0.0
 60
     3
 61
     5
292
     1
282
     1
141
0.0
142
0.0
 63
   250
421
  3355443
  0
ENDTAB
  0
TABLE
  2
LTYPE
  5
5
330
0
100
AcDbSymbolTable
 70
     6
  0
LTYPE
  5
5B
330
5
100
AcDbSymbolTableRecord
100
AcDbLinetypeTableRecord
  2
ByBlock
 70
     0
  3

 72
    65
 73
     0
 40
0.0
  0
LTYPE
  5
5C
330
5
100
AcDbSymbolTableRecord
100
AcDbLinetypeTableRecord
  2
ByLayer
 70
     0
  3

 72
    65
 73
     0
 40
0.0
  0
LTYPE
  5
5D
330
5
100
AcDbSymbolTableRecord
100
AcDbLinetypeTableRecord
  2
Continuous
 70
     0
  3
Solid line
 72
    65
 73
     0
 40
0.0
  0
LTYPE
  5
B1
330
5
100
AcDbSymbolTableRecord
100
AcDbLinetypeTableRecord
  2
AI-Linetype-0
 70
     0
  3
Adobe Illustrator Linetype No. 0
 72
    65
 73
     4
 40
50.77648250052169
 49
31.73530181515239
 74
     0
 49
-6.347060228456434
 74
     0
 49
6.347060228456434
 74
     0
 49
-6.347060228456434
 74
     0
  0
LTYPE
  5
BF
330
5
100
AcDbSymbolTableRecord
100
AcDbLinetypeTableRecord
  2
AI-Linetype-1
 70
     0
  3
Adobe Illustrator Linetype No. 1
 72
    65
 73
     4
 40
50.77648250052169
 49
31.73530181515239
 74
     0
 49
-6.347060228456434
 74
     0
 49
6.347060228456434
 74
     0
 49
-6.347060228456434
 74
     0
  0
LTYPE
  5
E0
330
5
100
AcDbSymbolTableRecord
100
AcDbLinetypeTableRecord
  2
AI-Linetype-2
 70
     0
  3
Adobe Illustrator Linetype No. 2
 72
    65
 73
     4
 40
50.77648250052169
 49
31.73530181515239
 74
     0
 49
-6.347060228456434
 74
     0
 49
6.347060228456434
 74
     0
 49
-6.347060228456434
 74
     0
  0
LTYPE
  5
E4
330
5
100
AcDbSymbolTableRecord
100
AcDbLinetypeTableRecord
  2
AI-Linetype-3
 70
     0
  3
Adobe Illustrator Linetype No. 3
 72
    65
 73
     4
 40
50.77648250052169
 49
31.73530181515239
 74
     0
 49
-6.347060228456434
 74
     0
 49
6.347060228456434
 74
     0
 49
-6.347060228456434
 74
     0
  0
LTYPE
  5
E8
330
5
100
AcDbSymbolTableRecord
100
AcDbLinetypeTableRecord
  2
AI-Linetype-4
 70
     0
  3
Adobe Illustrator Linetype No. 4
 72
    65
 73
     4
 40
50.77648250052169
 49
31.73530181515239
 74
     0
 49
-6.347060228456434
 74
     0
 49
6.347060228456434
 74
     0
 49
-6.347060228456434
 74
     0
  0
ENDTAB
  0
TABLE
  2
LAYER
  5
2
330
0
100
AcDbSymbolTable
 70
     4
  0
LAYER
  5
54
330
2
100
AcDbSymbolTableRecord
100
AcDbLayerTableRecord
  2
0
 70
     0
 62
     7
  6
Continuous
370
    -3
390
F
347
21
348
0
  0
LAYER
  5
78
330
2
100
AcDbSymbolTableRecord
100
AcDbLayerTableRecord
  2
CLASS1
 70
     0
 62
     7
  6
Continuous
370
     0
390
F
347
21
348
0
  0
LAYER
  5
A7
330
2
100
AcDbSymbolTableRecord
100
AcDbLayerTableRecord
  2
DEFPOINTS
 70
     0
 62
     7
  6
Continuous
290
     0
370
     0
390
F
347
21
348
0
  0
LAYER
  5
AC
330
2
100
AcDbSymbolTableRecord
100
AcDbLayerTableRecord
  2
CLASS2
 70
     0
 62
     7
  6
Continuous
370
     0
390
F
347
21
348
0
  0
ENDTAB
  0
TABLE
  2
STYLE
  5
3
330
0
100
AcDbSymbolTable
 70
     2
  0
STYLE
  5
55
330
3
100
AcDbSymbolTableRecord
100
AcDbTextStyleTableRecord
  2
Standard
 70
     0
 40
0.0
 41
1.0
 50
0.0
 71
     0
 42
0.2
  3
txt
  4

  0
STYLE
  5
5A
330
3
100
AcDbSymbolTableRecord
100
AcDbTextStyleTableRecord
  2
Annotative
 70
     0
 40
0.0
 41
1.0
 50
0.0
 71
     0
 42
0.2
  3
txt
  4

1001
AcadAnnotative
1000
AnnotativeData
1002
{
1070
     1
1070
     1
1002
}
  0
ENDTAB
  0
TABLE
  2
VIEW
  5
6
330
0
100
AcDbSymbolTable
 70
     0
  0
ENDTAB
  0
TABLE
  2
UCS
  5
7
330
0
100
AcDbSymbolTable
 70
     0
  0
ENDTAB
  0
TABLE
  2
APPID
  5
9
330
0
100
AcDbSymbolTable
 70
     2
  0
APPID
  5
56
330
9
100
AcDbSymbolTableRecord
100
AcDbRegAppTableRecord
  2
ACAD
 70
     0
  0
APPID
  5
5E
330
9
100
AcDbSymbolTableRecord
100
AcDbRegAppTableRecord
  2
AcadAnnotative
 70
     0
  0
ENDTAB
  0
TABLE
  2
DIMSTYLE
  5
A
330
0
100
AcDbSymbolTable
 70
     2
100
AcDbDimStyleTable
 71
     0
  0
DIMSTYLE
105
58
330
A
100
AcDbSymbolTableRecord
100
AcDbDimStyleTableRecord
  2
Standard
 70
     0
340
55
  0
DIMSTYLE
105
59
330
A
100
AcDbSymbolTableRecord
100
AcDbDimStyleTableRecord
  2
Annotative
 70
     0
340
55
1001
AcadAnnotative
1000
AnnotativeData
1002
{
1070
     1
1070
     1
1002
}
  0
ENDTAB
  0
TABLE
  2
BLOCK_RECORD
  5
1
330
0
100
AcDbSymbolTable
 70
    12
  0
BLOCK_RECORD
  5
70
330
1
100
AcDbSymbolTableRecord
100
AcDbBlockTableRecord
  2
*Model_Space
340
73
 70
     0
280
     1
281
     0
  0
BLOCK_RECORD
  5
6C
330
1
100
AcDbSymbolTableRecord
100
AcDbBlockTableRecord
  2
*Paper_Space
340
6F
 70
     0
280
     1
281
     0
  0
BLOCK_RECORD
  5
74
330
1
100
AcDbSymbolTableRecord
100
AcDbBlockTableRecord
  2
*Paper_Space0
340
77
 70
     0
280
     1
281
     0
  0
BLOCK_RECORD
  5
79
330
1
100
AcDbSymbolTableRecord
100
AcDbBlockTableRecord
  2
Block_0
340
0
102
{BLKREFS
331
7A
102
}
 70
     0
280
     1
281
     0
  0
BLOCK_RECORD
  5
10B
330
1
100
AcDbSymbolTableRecord
100
AcDbBlockTableRecord
  2
Block_1
340
0
102
{BLKREFS
331
10C
102
}
 70
     0
280
     1
281
     0
  0
BLOCK_RECORD
  5
119
330
1
100
AcDbSymbolTableRecord
100
AcDbBlockTableRecord
  2
Block_2
340
0
102
{BLKREFS
331
11A
102
}
 70
     0
280
     1
281
     0
  0
BLOCK_RECORD
  5
127
330
1
100
AcDbSymbolTableRecord
100
AcDbBlockTableRecord
  2
Block_3
340
0
102
{BLKREFS
331
128
102
}
 70
     0
280
     1
281
     0
  0
BLOCK_RECORD
  5
135
330
1
100
AcDbSymbolTableRecord
100
AcDbBlockTableRecord
  2
Block_4
340
0
102
{BLKREFS
331
136
102
}
 70
     0
280
     1
281
     0
  0
BLOCK_RECORD
  5
142
330
1
100
AcDbSymbolTableRecord
100
AcDbBlockTableRecord
  2
Block_5
340
0
102
{BLKREFS
331
143
102
}
 70
     0
280
     1
281
     0
  0
BLOCK_RECORD
  5
150
330
1
100
AcDbSymbolTableRecord
100
AcDbBlockTableRecord
  2
Block_6
340
0
102
{BLKREFS
331
151
102
}
 70
     0
280
     1
281
     0
  0
BLOCK_RECORD
  5
161
330
1
100
AcDbSymbolTableRecord
100
AcDbBlockTableRecord
  2
Block_7
340
0
102
{BLKREFS
331
162
102
}
 70
     0
280
     1
281
     0
  0
BLOCK_RECORD
  5
172
330
1
100
AcDbSymbolTableRecord
100
AcDbBlockTableRecord
  2
Block_8
340
0
102
{BLKREFS
331
173
102
}
 70
     0
280
     1
281
     0
  0
BLOCK_RECORD
  5
180
330
1
100
AcDbSymbolTableRecord
100
AcDbBlockTableRecord
  2
Block_9
340
0
102
{BLKREFS
331
181
102
}
 70
     0
280
     1
281
     0
  0
BLOCK_RECORD
  5
18E
330
1
100
AcDbSymbolTableRecord
100
AcDbBlockTableRecord
  2
Block_10
340
0
102
{BLKREFS
331
18F
102
}
 70
     0
280
     1
281
     0
  0
ENDTAB
  0
ENDSEC
  0
SECTION
  2
BLOCKS
  0
BLOCK
  5
71
330
70
100
AcDbEntity
  8
0
100
AcDbBlockBegin
  2
*Model_Space
 70
     0
 10
0.0
 20
0.0
 30
0.0
  3
*Model_Space
  1

  0
ENDBLK
  5
72
330
70
100
AcDbEntity
  8
0
100
AcDbBlockEnd
  0
BLOCK
  5
6D
330
6C
100
AcDbEntity
 67
     1
  8
0
100
AcDbBlockBegin
  2
*Paper_Space
 70
     0
 10
0.0
 20
0.0
 30
0.0
  3
*Paper_Space
  1

  0
ENDBLK
  5
6E
330
6C
100
AcDbEntity
 67
     1
  8
0
100
AcDbBlockEnd
  0
BLOCK
  5
75
330
74
100
AcDbEntity
 67
     1
  8
0
100
AcDbBlockBegin
  2
*Paper_Space0
 70
     0
 10
0.0
 20
0.0
 30
0.0
  3
*Paper_Space0
  1

  0
ENDBLK
  5
76
330
74
100
AcDbEntity
 67
     1
  8
0
100
AcDbBlockEnd
  0
BLOCK
  5
7B
330
79
100
AcDbEntity
  8
0
100
AcDbBlockBegin
  2
Block_0
 70
     0
 10
0.0
 20
0.0
 30
0.0
  3
Block_0
  1

  0
MTEXT
  5
7D
330
79
100
AcDbEntity
  8
CLASS1
100
AcDbMText
 10
86.84474752162378
 20
54.06319443092865
 30
0.0
 40
0.2
 41
0.0
 46
0.0
 71
     7
 72
     1
  1
\C143;\c13415014;\FKozGoPr6N-Regular|b0|i0|c128;\H2.497667;\W0.863539;※1　（　）内寸法は参考寸法である。
 73
     1
 44
1.0
  0
MTEXT
  5
7E
330
79
100
AcDbEntity
  8
CLASS1
100
AcDbMText
 10
86.84474752162378
 20
47.66615811321909
 30
0.0
 40
0.2
 41
0.0
 46
0.0
 71
     7
 72
     1
  1
\C143;\c13415014;\FKozGoPr6N-Regular|b0|i0|c128;\H2.497667;\W0.863539;※２　テール管の差込代は、15mm以上を確保すること。
 73
     1
 44
1.0
  0
MTEXT
  5
7F
330
79
100
AcDbEntity
  8
CLASS1
100
AcDbMText
 10
86.84474752162378
 20
41.2691191040287
 30
0.0
 40
0.2
 41
0.0
 46
0.0
 71
     7
 72
     1
  1
\C143;\c13415014;\FKozGoPr6N-Regular|b0|i0|c128;\H2.497667;\W0.863539;※3　壁排水管の差込代は、40mm以上を確保すること。
 73
     1
 44
1.0
  0
ENDBLK
  5
7C
330
79
100
AcDbEntity
  8
0
100
AcDbBlockEnd
  0
BLOCK
  5
10D
330
10B
100
AcDbEntity
  8
0
100
AcDbBlockBegin
  2
Block_1
 70
     0
 10
0.0
 20
0.0
 30
0.0
  3
Block_1
  1

  0
LINE
  5
10F
330
10B
100
AcDbEntity
  8
CLASS2
 62
   143
420
  6730444
370
    25
100
AcDbLine
 10
193.5891308418803
 20
181.8866254748987
 30
0.0
 11
193.5891308418803
 21
151.9005143712842
 31
0.0
  0
LINE
  5
110
330
10B
100
AcDbEntity
  8
CLASS2
 62
   143
420
  6730444
370
    25
100
AcDbLine
 10
152.8585723261373
 20
181.8866254748987
 30
0.0
 11
195.0884363970611
 21
181.8866254748987
 31
0.0
  0
LINE
  5
111
330
10B
100
AcDbEntity
  8
CLASS2
 62
   143
420
  6730444
370
    25
100
AcDbLine
 10
152.8585723261373
 20
151.9005143712842
 30
0.0
 11
195.0884363970611
 21
151.9005143712842
 31
0.0
  0
LINE
  5
112
330
10B
100
AcDbEntity
  8
CLASS2
 62
   143
420
  6730444
370
     0
100
AcDbLine
 10
192.8472557318481
 20
179.1179078829983
 30
0.0
 11
193.5891308418803
 21
181.8866254748987
 31
0.0
  0
LINE
  5
113
330
10B
100
AcDbEntity
  8
CLASS2
 62
   143
420
  6730444
370
     0
100
AcDbLine
 10
193.5891308418803
 20
181.8866254748987
 30
0.0
 11
194.3310059519125
 21
179.1179078829983
 31
0.0
  0
LINE
  5
114
330
10B
100
AcDbEntity
  8
CLASS2
 62
   143
420
  6730444
370
     0
100
AcDbLine
 10
193.5891308418803
 20
181.8866254748987
 30
0.0
 11
193.5891308418803
 21
179.1179078829983
 31
0.0
  0
LINE
  5
115
330
10B
100
AcDbEntity
  8
CLASS2
 62
   143
420
  6730444
370
     0
100
AcDbLine
 10
194.3310059519125
 20
154.6692319631846
 30
0.0
 11
193.5891308418803
 21
151.9005143712842
 31
0.0
  0
LINE
  5
116
330
10B
100
AcDbEntity
  8
CLASS2
 62
   143
420
  6730444
370
     0
100
AcDbLine
 10
193.5891308418803
 20
151.9005143712842
 30
0.0
 11
192.8472557318481
 21
154.6692319631846
 31
0.0
  0
LINE
  5
117
330
10B
100
AcDbEntity
  8
CLASS2
 62
   143
420
  6730444
370
     0
100
AcDbLine
 10
193.5891308418803
 20
151.9005143712842
 30
0.0
 11
193.5891308418803
 21
154.6692319631846
 31
0.0
  0
MTEXT
  5
118
330
10B
100
AcDbEntity
  8
CLASS2
100
AcDbMText
 10
193.0893606338972
 20
161.3961778025329
 30
0.0
 40
0.2
 41
0.0
 46
0.0
 71
     7
 72
     1
  1
\C143;\c13415014;\FKozGoPr6N-Regular|b0|i0|c128;\H2.498843;\W1.200000;∅60.0
 11
0.0000000000000001
 21
1.0
 31
0.0
 73
     1
 44
1.0
  0
ENDBLK
  5
10E
330
10B
100
AcDbEntity
  8
0
100
AcDbBlockEnd
  0
BLOCK
  5
11B
330
119
100
AcDbEntity
  8
0
100
AcDbBlockBegin
  2
Block_2
 70
     0
 10
0.0
 20
0.0
 30
0.0
  3
Block_2
  1

  0
LINE
  5
11D
330
119
100
AcDbEntity
  8
CLASS2
 62
   143
420
  6730444
370
    25
100
AcDbLine
 10
182.9221215621395
 20
173.1406764030111
 30
0.0
 11
182.9221215621395
 21
160.6464634431719
 31
0.0
  0
LINE
  5
11E
330
119
100
AcDbEntity
  8
CLASS2
 62
   143
420
  6730444
370
    25
100
AcDbLine
 10
167.8516298770187
 20
173.1406764030111
 30
0.0
 11
184.4214271173203
 21
173.1406764030111
 31
0.0
  0
LINE
  5
11F
330
119
100
AcDbEntity
  8
CLASS2
 62
   143
420
  6730444
370
    25
100
AcDbLine
 10
167.8516298770187
 20
160.6464634431719
 30
0.0
 11
184.4214271173203
 21
160.6464634431719
 31
0.0
  0
LINE
  5
120
330
119
100
AcDbEntity
  8
CLASS2
 62
   143
420
  6730444
370
     0
100
AcDbLine
 10
182.180246452108
 20
170.3719588111106
 30
0.0
 11
182.9221215621395
 21
173.1406764030111
 31
0.0
  0
LINE
  5
121
330
119
100
AcDbEntity
  8
CLASS2
 62
   143
420
  6730444
370
     0
100
AcDbLine
 10
182.9221215621395
 20
173.1406764030111
 30
0.0
 11
183.6639966721717
 21
170.3719588111106
 31
0.0
  0
LINE
  5
122
330
119
100
AcDbEntity
  8
CLASS2
 62
   143
420
  6730444
370
     0
100
AcDbLine
 10
182.9221215621395
 20
173.1406764030111
 30
0.0
 11
182.9221215621395
 21
170.3719588111106
 31
0.0
  0
LINE
  5
123
330
119
100
AcDbEntity
  8
CLASS2
 62
   143
420
  6730444
370
     0
100
AcDbLine
 10
183.6639966721717
 20
163.4151810350723
 30
0.0
 11
182.9221215621395
 21
160.6464634431719
 31
0.0
  0
LINE
  5
124
330
119
100
AcDbEntity
  8
CLASS2
 62
   143
420
  6730444
370
     0
100
AcDbLine
 10
182.9221215621395
 20
160.6464634431719
 30
0.0
 11
182.180246452108
 21
163.4151810350723
 31
0.0
  0
LINE
  5
125
330
119
100
AcDbEntity
  8
CLASS2
 62
   143
420
  6730444
370
     0
100
AcDbLine
 10
182.9221215621395
 20
160.6464634431719
 30
0.0
 11
182.9221215621395
 21
163.4151810350723
 31
0.0
  0
MTEXT
  5
126
330
119
100
AcDbEntity
  8
CLASS2
100
AcDbMText
 10
182.4223545466117
 20
161.3858425160771
 30
0.0
 40
0.2
 41
0.0
 46
0.0
 71
     7
 72
     1
  1
\C143;\c13415014;\FKozGoPr6N-Regular|b0|i0|c128;\H2.498843;\W1.150000;∅25.0
 11
0.0000000000000001
 21
1.0
 31
0.0
 73
     1
 44
1.0
  0
ENDBLK
  5
11C
330
119
100
AcDbEntity
  8
0
100
AcDbBlockEnd
  0
BLOCK
  5
129
330
127
100
AcDbEntity
  8
0
100
AcDbBlockBegin
  2
Block_3
 70
     0
 10
0.0
 20
0.0
 30
0.0
  3
Block_3
  1

  0
LINE
  5
12B
330
127
100
AcDbEntity
  8
CLASS2
 62
   143
420
  6730444
370
    25
100
AcDbLine
 10
166.3523233223006
 20
98.4425978832597
 30
0.0
 11
91.38704556326448
 21
98.4425978832597
 31
0.0
  0
LINE
  5
12C
330
127
100
AcDbEntity
  8
CLASS2
 62
   143
420
  6730444
370
    25
100
AcDbLine
 10
166.3523233223006
 20
159.1471588875279
 30
0.0
 11
166.3523233223006
 21
96.94329232807898
 31
0.0
  0
LINE
  5
12D
330
127
100
AcDbEntity
  8
CLASS2
 62
   143
420
  6730444
370
    25
100
AcDbLine
 10
91.38704556326448
 20
140.1559551885724
 30
0.0
 11
91.38704556326448
 21
96.94329232807898
 31
0.0
  0
LINE
  5
12E
330
127
100
AcDbEntity
  8
CLASS2
 62
   143
420
  6730444
370
     0
100
AcDbLine
 10
163.5836057304002
 20
99.18447299329194
 30
0.0
 11
166.3523233223006
 21
98.4425978832597
 31
0.0
  0
LINE
  5
12F
330
127
100
AcDbEntity
  8
CLASS2
 62
   143
420
  6730444
370
     0
100
AcDbLine
 10
166.3523233223006
 20
98.4425978832597
 30
0.0
 11
163.5836057304002
 21
97.7007227732275
 31
0.0
  0
LINE
  5
130
330
127
100
AcDbEntity
  8
CLASS2
 62
   143
420
  6730444
370
     0
100
AcDbLine
 10
166.3523233223006
 20
98.4425978832597
 30
0.0
 11
163.5836057304002
 21
98.4425978832597
 31
0.0
  0
LINE
  5
131
330
127
100
AcDbEntity
  8
CLASS2
 62
   143
420
  6730444
370
     0
100
AcDbLine
 10
94.15576315516489
 20
97.7007227732275
 30
0.0
 11
91.38704556326448
 21
98.4425978832597
 31
0.0
  0
LINE
  5
132
330
127
100
AcDbEntity
  8
CLASS2
 62
   143
420
  6730444
370
     0
100
AcDbLine
 10
91.38704556326448
 20
98.4425978832597
 30
0.0
 11
94.15576315516489
 21
99.18447299329194
 31
0.0
  0
LINE
  5
133
330
127
100
AcDbEntity
  8
CLASS2
 62
   143
420
  6730444
370
     0
100
AcDbLine
 10
91.38704556326448
 20
98.4425978832597
 30
0.0
 11
94.15576315516489
 21
98.4425978832597
 31
0.0
  0
MTEXT
  5
134
330
127
100
AcDbEntity
  8
CLASS2
100
AcDbMText
 10
123.2472897539375
 20
98.94236718989114
 30
0.0
 40
0.2
 41
0.0
 46
0.0
 71
     7
 72
     1
  1
\C143;\c13415014;\FKozGoPr6N-Regular|b0|i0|c128;\H2.498843;\W1.350000;(350.0)
 73
     1
 44
1.0
  0
ENDBLK
  5
12A
330
127
100
AcDbEntity
  8
0
100
AcDbBlockEnd
  0
BLOCK
  5
137
330
135
100
AcDbEntity
  8
0
100
AcDbBlockBegin
  2
Block_4
 70
     0
 10
0.0
 20
0.0
 30
0.0
  3
Block_4
  1

  0
LINE
  5
139
330
135
100
AcDbEntity
  8
CLASS2
 62
   143
420
  6730444
370
    25
100
AcDbLine
 10
91.38704556326448
 20
98.4425978832597
 30
0.0
 11
61.40093445964989
 21
98.4425978832597
 31
0.0
  0
LINE
  5
13A
330
135
100
AcDbEntity
  8
CLASS2
 62
   143
420
  6730444
370
    25
100
AcDbLine
 10
61.40093445964989
 20
140.1559551885724
 30
0.0
 11
61.40093445964989
 21
96.94329232807898
 31
0.0
  0
LINE
  5
13B
330
135
100
AcDbEntity
  8
CLASS2
 62
   143
420
  6730444
370
     0
100
AcDbLine
 10
88.61832797136406
 20
99.18447299329194
 30
0.0
 11
91.38704556326448
 21
98.4425978832597
 31
0.0
  0
LINE
  5
13C
330
135
100
AcDbEntity
  8
CLASS2
 62
   143
420
  6730444
370
     0
100
AcDbLine
 10
91.38704556326448
 20
98.4425978832597
 30
0.0
 11
88.61832797136406
 21
97.7007227732275
 31
0.0
  0
LINE
  5
13D
330
135
100
AcDbEntity
  8
CLASS2
 62
   143
420
  6730444
370
     0
100
AcDbLine
 10
91.38704556326448
 20
98.4425978832597
 30
0.0
 11
88.61832797136406
 21
98.4425978832597
 31
0.0
  0
LINE
  5
13E
330
135
100
AcDbEntity
  8
CLASS2
 62
   143
420
  6730444
370
     0
100
AcDbLine
 10
64.16965205155031
 20
97.7007227732275
 30
0.0
 11
61.40093445964989
 21
98.4425978832597
 31
0.0
  0
LINE
  5
13F
330
135
100
AcDbEntity
  8
CLASS2
 62
   143
420
  6730444
370
     0
100
AcDbLine
 10
61.40093445964989
 20
98.4425978832597
 30
0.0
 11
64.16965205155031
 21
99.18447299329194
 31
0.0
  0
LINE
  5
140
330
135
100
AcDbEntity
  8
CLASS2
 62
   143
420
  6730444
370
     0
100
AcDbLine
 10
61.40093445964989
 20
98.4425978832597
 30
0.0
 11
64.16965205155031
 21
98.4425978832597
 31
0.0
  0
MTEXT
  5
141
330
135
100
AcDbEntity
  8
CLASS2
100
AcDbMText
 10
71.89607448899756
 20
98.94236718989114
 30
0.0
 40
0.2
 41
0.0
 46
0.0
 71
     7
 72
     1
  1
\C143;\c13415014;\FKozGoPr6N-Regular|b0|i0|c128;\H2.498843;\W1.350000;60.0
 73
     1
 44
1.0
  0
ENDBLK
  5
138
330
135
100
AcDbEntity
  8
0
100
AcDbBlockEnd
  0
BLOCK
  5
144
330
142
100
AcDbEntity
  8
0
100
AcDbBlockBegin
  2
Block_5
 70
     0
 10
0.0
 20
0.0
 30
0.0
  3
Block_5
  1

  0
LINE
  5
146
330
142
100
AcDbEntity
  8
CLASS2
 62
   143
420
  6730444
370
    25
100
AcDbLine
 10
22.44447821938874
 20
126.6622041924085
 30
0.0
 11
22.44447821938874
 21
202.0695451976308
 31
0.0
  0
LINE
  5
147
330
142
100
AcDbEntity
  8
CLASS2
 62
   143
420
  6730444
370
    25
100
AcDbLine
 10
74.8946834567394
 20
126.6622041924085
 30
0.0
 11
20.94517266420801
 21
126.6622041924085
 31
0.0
  0
LINE
  5
148
330
142
100
AcDbEntity
  8
CLASS2
 62
   143
420
  6730444
370
    25
100
AcDbLine
 10
50.28935009715004
 20
202.0695451976308
 30
0.0
 11
20.94517266420801
 21
202.0695451976308
 31
0.0
  0
LINE
  5
149
330
142
100
AcDbEntity
  8
CLASS2
 62
   143
420
  6730444
370
     0
100
AcDbLine
 10
23.18635332942095
 20
129.4309217843089
 30
0.0
 11
22.44447821938874
 21
126.6622041924085
 31
0.0
  0
LINE
  5
14A
330
142
100
AcDbEntity
  8
CLASS2
 62
   143
420
  6730444
370
     0
100
AcDbLine
 10
22.44447821938874
 20
126.6622041924085
 30
0.0
 11
21.70260310935685
 21
129.4309217843089
 31
0.0
  0
LINE
  5
14B
330
142
100
AcDbEntity
  8
CLASS2
 62
   143
420
  6730444
370
     0
100
AcDbLine
 10
22.44447821938874
 20
126.6622041924085
 30
0.0
 11
22.44447821938874
 21
129.4309217843089
 31
0.0
  0
LINE
  5
14C
330
142
100
AcDbEntity
  8
CLASS2
 62
   143
420
  6730444
370
     0
100
AcDbLine
 10
21.70260310935685
 20
199.3008276057303
 30
0.0
 11
22.44447821938874
 21
202.0695451976308
 31
0.0
  0
LINE
  5
14D
330
142
100
AcDbEntity
  8
CLASS2
 62
   143
420
  6730444
370
     0
100
AcDbLine
 10
22.44447821938874
 20
202.0695451976308
 30
0.0
 11
23.18635332942095
 21
199.3008276057303
 31
0.0
  0
LINE
  5
14E
330
142
100
AcDbEntity
  8
CLASS2
 62
   143
420
  6730444
370
     0
100
AcDbLine
 10
22.44447821938874
 20
202.0695451976308
 30
0.0
 11
22.44447821938874
 21
199.3008276057303
 31
0.0
  0
MTEXT
  5
14F
330
142
100
AcDbEntity
  8
CLASS2
100
AcDbMText
 10
21.94471994487189
 20
148.9411240947092
 30
0.0
 40
0.2
 41
0.0
 46
0.0
 71
     7
 72
     1
  1
\C143;\c13415014;\FKozGoPr6N-Regular|b0|i0|c128;\H2.498843;\W1.250000;(152.0～177.0)
 11
0.0000000000000001
 21
1.0
 31
0.0
 73
     1
 44
1.0
  0
ENDBLK
  5
145
330
142
100
AcDbEntity
  8
0
100
AcDbBlockEnd
  0
BLOCK
  5
152
330
150
100
AcDbEntity
  8
0
100
AcDbBlockBegin
  2
Block_6
 70
     0
 10
0.0
 20
0.0
 30
0.0
  3
Block_6
  1

  0
LINE
  5
154
330
150
100
AcDbEntity
  8
CLASS2
 62
   143
420
  6730444
370
    25
100
AcDbLine
 10
71.27136269792281
 20
163.885392243751
 30
0.0
 11
51.53050622137665
 21
163.885392243751
 31
0.0
  0
LINE
  5
155
330
150
100
AcDbEntity
  8
CLASS2
 62
   143
420
  6730444
370
    25
100
AcDbLine
 10
51.53050622137665
 20
163.885392243751
 30
0.0
 11
27.42191778064461
 21
163.885392243751
 31
0.0
  0
LINE
  5
156
330
150
100
AcDbEntity
  8
CLASS2
 62
   143
420
  6730444
370
    25
100
AcDbLine
 10
71.27136269792281
 20
162.4678418214201
 30
0.0
 11
71.27136269792281
 21
162.3860866885702
 31
0.0
  0
LINE
  5
157
330
150
100
AcDbEntity
  8
CLASS2
 62
   143
420
  6730444
370
    25
100
AcDbLine
 10
51.53050622137665
 20
162.4678418214201
 30
0.0
 11
51.53050622137665
 21
162.3860866885702
 31
0.0
  0
LINE
  5
158
330
150
100
AcDbEntity
  8
CLASS2
 62
   143
420
  6730444
370
    25
100
AcDbLine
 10
71.27136269792281
 20
163.885392243751
 30
0.0
 11
77.61842288152127
 21
163.885392243751
 31
0.0
  0
LINE
  5
159
330
150
100
AcDbEntity
  8
CLASS2
 62
   143
420
  6730444
370
    25
100
AcDbLine
 10
51.53050622137665
 20
163.885392243751
 30
0.0
 11
45.18344603777818
 21
163.885392243751
 31
0.0
  0
LINE
  5
15A
330
150
100
AcDbEntity
  8
CLASS2
 62
   143
420
  6730444
370
     0
100
AcDbLine
 10
74.04008028982324
 20
163.1435171337187
 30
0.0
 11
71.27136269792281
 21
163.885392243751
 31
0.0
  0
LINE
  5
15B
330
150
100
AcDbEntity
  8
CLASS2
 62
   143
420
  6730444
370
     0
100
AcDbLine
 10
71.27136269792281
 20
163.885392243751
 30
0.0
 11
74.04008028982324
 21
164.6272673537828
 31
0.0
  0
LINE
  5
15C
330
150
100
AcDbEntity
  8
CLASS2
 62
   143
420
  6730444
370
     0
100
AcDbLine
 10
71.27136269792281
 20
163.885392243751
 30
0.0
 11
74.04008028982324
 21
163.885392243751
 31
0.0
  0
LINE
  5
15D
330
150
100
AcDbEntity
  8
CLASS2
 62
   143
420
  6730444
370
     0
100
AcDbLine
 10
48.76178862947623
 20
164.6272673537828
 30
0.0
 11
51.53050622137665
 21
163.885392243751
 31
0.0
  0
LINE
  5
15E
330
150
100
AcDbEntity
  8
CLASS2
 62
   143
420
  6730444
370
     0
100
AcDbLine
 10
51.53050622137665
 20
163.885392243751
 30
0.0
 11
48.76178862947623
 21
163.1435171337187
 31
0.0
  0
LINE
  5
15F
330
150
100
AcDbEntity
  8
CLASS2
 62
   143
420
  6730444
370
     0
100
AcDbLine
 10
51.53050622137665
 20
163.885392243751
 30
0.0
 11
48.76178862947623
 21
163.885392243751
 31
0.0
  0
MTEXT
  5
160
330
150
100
AcDbEntity
  8
CLASS2
100
AcDbMText
 10
27.88003810609423
 20
164.3851641773824
 30
0.0
 40
0.2
 41
0.0
 46
0.0
 71
     7
 72
     1
  1
\C143;\c13415014;\FKozGoPr6N-Regular|b0|i0|c128;\H2.498843;\W1.000000;六角対辺36.0
 73
     1
 44
1.0
  0
ENDBLK
  5
153
330
150
100
AcDbEntity
  8
0
100
AcDbBlockEnd
  0
BLOCK
  5
163
330
161
100
AcDbEntity
  8
0
100
AcDbBlockBegin
  2
Block_7
 70
     0
 10
0.0
 20
0.0
 30
0.0
  3
Block_7
  1

  0
LINE
  5
165
330
161
100
AcDbEntity
  8
CLASS2
 62
   143
420
  6730444
370
    25
100
AcDbLine
 10
51.53050622137665
 20
203.5565604454072
 30
0.0
 11
71.27136269792281
 21
203.5565604454072
 31
0.0
  0
LINE
  5
166
330
161
100
AcDbEntity
  8
CLASS2
 62
   143
420
  6730444
370
    25
100
AcDbLine
 10
27.4219157815705
 20
203.5565604454072
 30
0.0
 11
51.53050622137665
 21
203.5565604454072
 31
0.0
  0
LINE
  5
167
330
161
100
AcDbEntity
  8
CLASS2
 62
   143
420
  6730444
370
    25
100
AcDbLine
 10
51.53050622137665
 20
204.9682026043134
 30
0.0
 11
51.53050622137665
 21
205.055866000588
 31
0.0
  0
LINE
  5
168
330
161
100
AcDbEntity
  8
CLASS2
 62
   143
420
  6730444
370
    25
100
AcDbLine
 10
71.27136269792281
 20
204.9682026043134
 30
0.0
 11
71.27136269792281
 21
205.055866000588
 31
0.0
  0
LINE
  5
169
330
161
100
AcDbEntity
  8
CLASS2
 62
   143
420
  6730444
370
    25
100
AcDbLine
 10
51.53050622137665
 20
203.5565604454072
 30
0.0
 11
45.18344603777818
 21
203.5565604454072
 31
0.0
  0
LINE
  5
16A
330
161
100
AcDbEntity
  8
CLASS2
 62
   143
420
  6730444
370
    25
100
AcDbLine
 10
71.27136269792281
 20
203.5565604454072
 30
0.0
 11
77.61842288152127
 21
203.5565604454072
 31
0.0
  0
LINE
  5
16B
330
161
100
AcDbEntity
  8
CLASS2
 62
   143
420
  6730444
370
     0
100
AcDbLine
 10
48.76178862947623
 20
204.2984355554391
 30
0.0
 11
51.53050622137665
 21
203.5565604454072
 31
0.0
  0
LINE
  5
16C
330
161
100
AcDbEntity
  8
CLASS2
 62
   143
420
  6730444
370
     0
100
AcDbLine
 10
51.53050622137665
 20
203.5565604454072
 30
0.0
 11
48.76178862947623
 21
202.814685335375
 31
0.0
  0
LINE
  5
16D
330
161
100
AcDbEntity
  8
CLASS2
 62
   143
420
  6730444
370
     0
100
AcDbLine
 10
51.53050622137665
 20
203.5565604454072
 30
0.0
 11
48.76178862947623
 21
203.5565604454072
 31
0.0
  0
LINE
  5
16E
330
161
100
AcDbEntity
  8
CLASS2
 62
   143
420
  6730444
370
     0
100
AcDbLine
 10
74.04008028982324
 20
202.814685335375
 30
0.0
 11
71.27136269792281
 21
203.5565604454072
 31
0.0
  0
LINE
  5
16F
330
161
100
AcDbEntity
  8
CLASS2
 62
   143
420
  6730444
370
     0
100
AcDbLine
 10
71.27136269792281
 20
203.5565604454072
 30
0.0
 11
74.04008028982324
 21
204.2984355554391
 31
0.0
  0
LINE
  5
170
330
161
100
AcDbEntity
  8
CLASS2
 62
   143
420
  6730444
370
     0
100
AcDbLine
 10
71.27136269792281
 20
203.5565604454072
 30
0.0
 11
74.04008028982324
 21
203.5565604454072
 31
0.0
  0
MTEXT
  5
171
330
161
100
AcDbEntity
  8
CLASS2
100
AcDbMText
 10
27.88003810609423
 20
204.0563214957524
 30
0.0
 40
0.2
 41
0.0
 46
0.0
 71
     7
 72
     1
  1
\C143;\c13415014;\FKozGoPr6N-Regular|b0|i0|c128;\H2.498843;\W1.000000;六角対辺36.0
 73
     1
 44
1.0
  0
ENDBLK
  5
164
330
161
100
AcDbEntity
  8
0
100
AcDbBlockEnd
  0
BLOCK
  5
174
330
172
100
AcDbEntity
  8
0
100
AcDbBlockBegin
  2
Block_8
 70
     0
 10
0.0
 20
0.0
 30
0.0
  3
Block_8
  1

  0
LINE
  5
176
330
172
100
AcDbEntity
  8
CLASS2
 62
   143
420
  6730444
370
    25
100
AcDbLine
 10
81.51661732499123
 20
180.9442049830045
 30
0.0
 11
101.2574738015374
 21
180.9442049830045
 31
0.0
  0
LINE
  5
177
330
172
100
AcDbEntity
  8
CLASS2
 62
   143
420
  6730444
370
    25
100
AcDbLine
 10
81.51661732499123
 20
148.0023209273509
 30
0.0
 11
81.51661732499123
 21
182.4435105381853
 31
0.0
  0
LINE
  5
178
330
172
100
AcDbEntity
  8
CLASS2
 62
   143
420
  6730444
370
    25
100
AcDbLine
 10
101.2574738015374
 20
148.0023209273509
 30
0.0
 11
101.2574738015374
 21
182.4435105381853
 31
0.0
  0
LINE
  5
179
330
172
100
AcDbEntity
  8
CLASS2
 62
   143
420
  6730444
370
     0
100
AcDbLine
 10
84.28533491689165
 20
180.2023298729726
 30
0.0
 11
81.51661732499123
 21
180.9442049830045
 31
0.0
  0
LINE
  5
17A
330
172
100
AcDbEntity
  8
CLASS2
 62
   143
420
  6730444
370
     0
100
AcDbLine
 10
81.51661732499123
 20
180.9442049830045
 30
0.0
 11
84.28533491689165
 21
181.6860800930367
 31
0.0
  0
LINE
  5
17B
330
172
100
AcDbEntity
  8
CLASS2
 62
   143
420
  6730444
370
     0
100
AcDbLine
 10
81.51661732499123
 20
180.9442049830045
 30
0.0
 11
84.28533491689165
 21
180.9442049830045
 31
0.0
  0
LINE
  5
17C
330
172
100
AcDbEntity
  8
CLASS2
 62
   143
420
  6730444
370
     0
100
AcDbLine
 10
98.48875620963697
 20
181.6860800930367
 30
0.0
 11
101.2574738015374
 21
180.9442049830045
 31
0.0
  0
LINE
  5
17D
330
172
100
AcDbEntity
  8
CLASS2
 62
   143
420
  6730444
370
     0
100
AcDbLine
 10
101.2574738015374
 20
180.9442049830045
 30
0.0
 11
98.48875620963697
 21
180.2023298729726
 31
0.0
  0
LINE
  5
17E
330
172
100
AcDbEntity
  8
CLASS2
 62
   143
420
  6730444
370
     0
100
AcDbLine
 10
101.2574738015374
 20
180.9442049830045
 30
0.0
 11
98.48875620963697
 21
180.9442049830045
 31
0.0
  0
MTEXT
  5
17F
330
172
100
AcDbEntity
  8
CLASS2
100
AcDbMText
 10
81.84979508790886
 20
181.4439635776859
 30
0.0
 40
0.2
 41
0.0
 46
0.0
 71
     7
 72
     1
  1
\C143;\c13415014;\FKozGoPr6N-Regular|b0|i0|c128;\H2.498843;\W1.000000;六角対辺36.0
 73
     1
 44
1.0
  0
ENDBLK
  5
175
330
172
100
AcDbEntity
  8
0
100
AcDbBlockEnd
  0
BLOCK
  5
182
330
180
100
AcDbEntity
  8
0
100
AcDbBlockBegin
  2
Block_9
 70
     0
 10
0.0
 20
0.0
 30
0.0
  3
Block_9
  1

  0
LINE
  5
184
330
180
100
AcDbEntity
  8
CLASS2
 62
   143
420
  6730444
370
    25
100
AcDbLine
 10
79.64656449166243
 20
126.6622041924085
 30
0.0
 11
79.64656449166243
 21
166.8935699230915
 31
0.0
  0
LINE
  5
185
330
180
100
AcDbEntity
  8
CLASS2
 62
   143
420
  6730444
370
    25
100
AcDbLine
 10
76.39398901192013
 20
126.6622041924085
 30
0.0
 11
81.14587004684317
 21
126.6622041924085
 31
0.0
  0
LINE
  5
186
330
180
100
AcDbEntity
  8
CLASS2
 62
   143
420
  6730444
370
    25
100
AcDbLine
 10
104.8807945603539
 20
166.8935699230915
 30
0.0
 11
78.1472589364817
 21
166.8935699230915
 31
0.0
  0
LINE
  5
187
330
180
100
AcDbEntity
  8
CLASS2
 62
   143
420
  6730444
370
     0
100
AcDbLine
 10
80.38843960169465
 20
129.4309217843089
 30
0.0
 11
79.64656449166243
 21
126.6622041924085
 31
0.0
  0
LINE
  5
188
330
180
100
AcDbEntity
  8
CLASS2
 62
   143
420
  6730444
370
     0
100
AcDbLine
 10
79.64656449166243
 20
126.6622041924085
 30
0.0
 11
78.90468938163022
 21
129.4309217843089
 31
0.0
  0
LINE
  5
189
330
180
100
AcDbEntity
  8
CLASS2
 62
   143
420
  6730444
370
     0
100
AcDbLine
 10
79.64656449166243
 20
126.6622041924085
 30
0.0
 11
79.64656449166243
 21
129.4309217843089
 31
0.0
  0
LINE
  5
18A
330
180
100
AcDbEntity
  8
CLASS2
 62
   143
420
  6730444
370
     0
100
AcDbLine
 10
78.90468938163022
 20
164.1248523311911
 30
0.0
 11
79.64656449166243
 21
166.8935699230915
 31
0.0
  0
LINE
  5
18B
330
180
100
AcDbEntity
  8
CLASS2
 62
   143
420
  6730444
370
     0
100
AcDbLine
 10
79.64656449166243
 20
166.8935699230915
 30
0.0
 11
80.38843960169465
 21
164.1248523311911
 31
0.0
  0
LINE
  5
18C
330
180
100
AcDbEntity
  8
CLASS2
 62
   143
420
  6730444
370
     0
100
AcDbLine
 10
79.64656449166243
 20
166.8935699230915
 30
0.0
 11
79.64656449166243
 21
164.1248523311911
 31
0.0
  0
MTEXT
  5
18D
330
180
100
AcDbEntity
  8
CLASS2
100
AcDbMText
 10
79.14679470202862
 20
139.7499538496111
 30
0.0
 40
0.2
 41
0.0
 46
0.0
 71
     7
 72
     1
  1
\C143;\c13415014;\FKozGoPr6N-Regular|b0|i0|c128;\H2.498843;\W1.350000;(80.5)
 11
0.0000000000000001
 21
1.0
 31
0.0
 73
     1
 44
1.0
  0
ENDBLK
  5
183
330
180
100
AcDbEntity
  8
0
100
AcDbBlockEnd
  0
BLOCK
  5
190
330
18E
100
AcDbEntity
  8
0
100
AcDbBlockBegin
  2
Block_10
 70
     0
 10
0.0
 20
0.0
 30
0.0
  3
Block_10
  1

  0
LINE
  5
192
330
18E
100
AcDbEntity
  8
CLASS2
 62
   143
420
  6730444
370
     0
100
AcDbLine
 10
72.30354188860343
 20
207.3217924068732
 30
0.0
 11
69.87971527790055
 21
205.7916811874409
 31
0.0
  0
LINE
  5
193
330
18E
100
AcDbEntity
  8
CLASS2
 62
   143
420
  6730444
370
     0
100
AcDbLine
 10
69.87971527790055
 20
205.7916811874409
 30
0.0
 11
71.21375599842117
 21
208.3287092004073
 31
0.0
  0
LINE
  5
194
330
18E
100
AcDbEntity
  8
CLASS2
 62
   143
420
  6730444
370
     0
100
AcDbLine
 10
69.87971527790055
 20
205.7916811874409
 30
0.0
 11
71.7586489435123
 21
207.8252508036403
 31
0.0
  0
LWPOLYLINE
  5
195
330
18E
100
AcDbEntity
  8
CLASS2
 62
   143
420
  6730444
370
    25
100
AcDbPolyline
 90
        3
 70
     0
 43
0.0
 10
71.7586489435123
 20
207.8252508036403
 10
74.74947371464601
 20
211.062219991679
 10
90.20113884874593
 20
211.062219991679
  0
ENDBLK
  5
191
330
18E
100
AcDbEntity
  8
0
100
AcDbBlockEnd
  0
ENDSEC
  0
SECTION
  2
ENTITIES
  0
INSERT
  5
7A
330
70
100
AcDbEntity
  8
CLASS1
100
AcDbBlockReference
  2
Block_0
 10
0.0
 20
0.0
 30
0.0
  0
MTEXT
  5
80
330
70
100
AcDbEntity
  8
CLASS1
100
AcDbMText
 10
195.3261911539679
 20
6.835069442735677
 30
0.0
 40
0.2
 41
0.0
 46
0.0
 71
     7
 72
     1
  1
\C143;\c13415014;\FKozGoPr6N-Regular|b0|i0|c128;\H2.498843;\W1.000000;A4
 73
     1
 44
1.0
  0
MTEXT
  5
81
330
70
100
AcDbEntity
  8
CLASS1
100
AcDbMText
 10
78.46604921710495
 20
11.083101624791
 30
0.0
 40
0.2
 41
0.0
 46
0.0
 71
     7
 72
     1
  1
\C143;\c13415014;\FKozGoPr6N-Regular|b0|i0|c128;\H2.497667;\W1.004785;2021年11月23日 作成
 73
     1
 44
1.0
  0
MTEXT
  5
82
330
70
100
AcDbEntity
  8
CLASS1
100
AcDbMText
 10
110.8882788486885
 20
21.15984644890655
 30
0.0
 40
0.2
 41
0.0
 46
0.0
 71
     7
 72
     1
  1
\C143;\c13415014;\FKozGoPr6N-Regular|b0|i0|c128;\H2.497667;\W0.833333;熊谷
 73
     1
 44
1.0
  0
MTEXT
  5
83
330
70
100
AcDbEntity
  8
CLASS1
100
AcDbMText
 10
95.89522329688122
 20
21.15984644890655
 30
0.0
 40
0.2
 41
0.0
 46
0.0
 71
     7
 72
     1
  1
\C143;\c13415014;\FKozGoPr6N-Regular|b0|i0|c128;\H2.497667;\W0.833333;中田
 73
     1
 44
1.0
  0
MTEXT
  5
84
330
70
100
AcDbEntity
  8
CLASS1
100
AcDbMText
 10
81.12429027648543
 20
21.15984644890655
 30
0.0
 40
0.2
 41
0.0
 46
0.0
 71
     7
 72
     1
  1
\C143;\c13415014;\FKozGoPr6N-Regular|b0|i0|c128;\H2.497667;\W0.833333;伊藤
 73
     1
 44
1.0
  0
MTEXT
  5
85
330
70
100
AcDbEntity
  8
CLASS1
100
AcDbMText
 10
147.7156067372952
 20
13.94081034841638
 30
0.0
 40
0.2
 41
0.0
 46
0.0
 71
     7
 72
     1
  1
\C143;\c13415014;\FKozGoPr6N-Regular|b0|i0|c128;\H2.997200;\W0.862069;Pトラップ
 73
     1
 44
1.0
  0
MTEXT
  5
86
330
70
100
AcDbEntity
  8
CLASS1
100
AcDbMText
 10
147.5152636689046
 20
26.95088239631811
 30
0.0
 40
0.2
 41
0.0
 46
0.0
 71
     7
 72
     1
  1
\C143;\c13415014;\FKozGoPr6N-Regular|b0|i0|c128;\H2.997200;\W1.052632;SC-MDW-P
 73
     1
 44
1.0
  0
LINE
  5
87
330
70
100
AcDbEntity
  8
CLASS1
 62
     4
420
    65535
370
    25
100
AcDbLine
 10
76.96435183261087
 20
15.08124999622969
 30
0.0
 11
121.9435184880324
 21
15.08124999622969
 31
0.0
  0
LINE
  5
88
330
70
100
AcDbEntity
  8
CLASS1
 62
     4
420
    65535
370
    25
100
AcDbLine
 10
76.96435183261087
 20
30.07430554803698
 30
0.0
 11
121.9435184880324
 21
30.07430554803698
 31
0.0
  0
LINE
  5
89
330
70
100
AcDbEntity
  8
CLASS1
 62
     4
420
    65535
370
    25
100
AcDbLine
 10
9.995370367871421
 20
35.07199073197253
 30
0.0
 11
137.1364784485859
 21
35.07199073197253
 31
0.0
  0
LINE
  5
8A
330
70
100
AcDbEntity
  8
CLASS1
 62
     4
420
    65535
370
    25
100
AcDbLine
 10
9.995370367871421
 20
22.57777777213334
 30
0.0
 11
76.96435183261087
 21
22.57777777213334
 31
0.0
  0
LINE
  5
8B
330
70
100
AcDbEntity
  8
CLASS1
 62
     4
420
    65535
370
    25
100
AcDbLine
 10
56.97361109686771
 20
35.07199073197253
 30
0.0
 11
56.97361109686771
 21
22.57777777213334
 31
0.0
  0
LINE
  5
8C
330
70
100
AcDbEntity
  8
CLASS1
 62
     4
420
    65535
370
    25
100
AcDbLine
 10
36.98287036112455
 20
35.07199073197253
 30
0.0
 11
36.98287036112455
 21
22.57777777213334
 31
0.0
  0
LINE
  5
8D
330
70
100
AcDbEntity
  8
CLASS1
 62
     4
420
    65535
370
    25
100
AcDbLine
 10
61.97129628080358
 20
35.07199073197253
 30
0.0
 11
61.97129628080358
 21
22.57777777213334
 31
0.0
  0
LINE
  5
8E
330
70
100
AcDbEntity
  8
CLASS1
 62
     4
420
    65535
370
    25
100
AcDbLine
 10
72.74865944709052
 20
31.5589289036845
 30
0.0
 11
65.04890180271932
 21
25.1424648663998
 31
0.0
  0
LINE
  5
8F
330
70
100
AcDbEntity
  8
CLASS1
 62
     4
420
    65535
370
    25
100
AcDbLine
 10
137.1364784485859
 20
35.07199073197253
 30
0.0
 11
199.9074073574303
 21
35.07199073197253
 31
0.0
  0
LINE
  5
90
330
70
100
AcDbEntity
  8
CLASS1
 62
     4
420
    65535
370
    25
100
AcDbLine
 10
121.9435184880324
 20
22.57777777213334
 30
0.0
 11
199.9074073574303
 21
22.57777777213334
 31
0.0
  0
MTEXT
  5
91
330
70
100
AcDbEntity
  8
CLASS1
100
AcDbMText
 10
109.0712708942274
 20
30.97541333589764
 30
0.0
 40
0.2
 41
0.0
 46
0.0
 71
     7
 72
     1
  1
\C140;\c16760576;\FKozGoPr6N-Regular|b0|i0|c128;\H2.497667;\W1.043411;承　認
 73
     1
 44
1.0
  0
MTEXT
  5
92
330
70
100
AcDbEntity
  8
CLASS1
100
AcDbMText
 10
79.08515979061284
 20
30.97541333589764
 30
0.0
 40
0.2
 41
0.0
 46
0.0
 71
     7
 72
     1
  1
\C140;\c16760576;\FKozGoPr6N-Regular|b0|i0|c128;\H2.497667;\W1.043411;製　図
 73
     1
 44
1.0
  0
MTEXT
  5
93
330
70
100
AcDbEntity
  8
CLASS1
100
AcDbMText
 10
94.07821534242012
 20
30.97541333589764
 30
0.0
 40
0.2
 41
0.0
 46
0.0
 71
     7
 72
     1
  1
\C140;\c16760576;\FKozGoPr6N-Regular|b0|i0|c128;\H2.497667;\W1.043411;検　図
 73
     1
 44
1.0
  0
MTEXT
  5
94
330
70
100
AcDbEntity
  8
CLASS1
100
AcDbMText
 10
122.8326186826707
 20
29.72984444616726
 30
0.0
 40
0.2
 41
0.0
 46
0.0
 71
     7
 72
     1
  1
\C140;\c16760576;\FKozGoPr6N-Regular|b0|i0|c128;\H2.747433;\W1.043411;品
 73
     1
 44
1.0
  0
MTEXT
  5
95
330
70
100
AcDbEntity
  8
CLASS1
100
AcDbMText
 10
122.8326186826707
 20
24.73216015939178
 30
0.0
 40
0.2
 41
0.0
 46
0.0
 71
     7
 72
     1
  1
\C140;\c16760576;\FKozGoPr6N-Regular|b0|i0|c128;\H2.497667;\W1.043411;番
 73
     1
 44
1.0
  0
MTEXT
  5
96
330
70
100
AcDbEntity
  8
CLASS1
100
AcDbMText
 10
122.8326186826707
 20
17.23563238348813
 30
0.0
 40
0.2
 41
0.0
 46
0.0
 71
     7
 72
     1
  1
\C140;\c16760576;\FKozGoPr6N-Regular|b0|i0|c128;\H2.497667;\W1.043411;品
 73
     1
 44
1.0
  0
MTEXT
  5
97
330
70
100
AcDbEntity
  8
CLASS1
100
AcDbMText
 10
38.35611592499485
 20
26.87461659501339
 30
0.0
 40
0.2
 41
0.0
 46
0.0
 71
     7
 72
     1
  1
\C140;\c16760576;\FKozGoPr6N-Regular|b0|i0|c128;\H2.497667;\W1.043411;単位ｍｍ
 73
     1
 44
1.0
  0
MTEXT
  5
98
330
70
100
AcDbEntity
  8
CLASS1
100
AcDbMText
 10
57.86270949718526
 20
24.73216015939178
 30
0.0
 40
0.2
 41
0.0
 46
0.0
 71
     7
 72
     1
  1
\C140;\c16760576;\FKozGoPr6N-Regular|b0|i0|c128;\H2.497667;\W1.043411;度
 73
     1
 44
1.0
  0
MTEXT
  5
99
330
70
100
AcDbEntity
  8
CLASS1
100
AcDbMText
 10
57.86270949718526
 20
29.72984444616726
 30
0.0
 40
0.2
 41
0.0
 46
0.0
 71
     7
 72
     1
  1
\C140;\c16760576;\FKozGoPr6N-Regular|b0|i0|c128;\H2.497667;\W1.043411;尺
 73
     1
 44
1.0
  0
MTEXT
  5
9A
330
70
100
AcDbEntity
  8
CLASS1
100
AcDbMText
 10
65.10709934726218
 20
29.4919121562555
 30
0.0
 40
0.2
 41
0.0
 46
0.0
 71
     7
 72
     1
  1
\C110;\c8388352;\FKozGoPr6N-Regular|b0|i0|c128;\H3.748264;\W1.399883;1
 73
     1
 44
1.0
  0
MTEXT
  5
9B
330
70
100
AcDbEntity
  8
CLASS1
100
AcDbMText
 10
71.20371257273456
 20
24.25732103377129
 30
0.0
 40
0.2
 41
0.0
 46
0.0
 71
     7
 72
     1
  1
\C110;\c8388352;\FKozGoPr6N-Regular|b0|i0|c128;\H3.748264;\W1.143000;2
 73
     1
 44
1.0
  0
MTEXT
  5
9C
330
70
100
AcDbEntity
  8
CLASS1
100
AcDbMText
 10
122.8326186826707
 20
12.23794675097222
 30
0.0
 40
0.2
 41
0.0
 46
0.0
 71
     7
 72
     1
  1
\C140;\c16760576;\FKozGoPr6N-Regular|b0|i0|c128;\H2.497667;\W1.043411;名
 73
     1
 44
1.0
  0
LINE
  5
9D
330
70
100
AcDbEntity
  8
CLASS1
 62
     4
420
    65535
370
    25
100
AcDbLine
 10
76.96435183261087
 20
35.07199073197253
 30
0.0
 11
76.96435183261087
 21
10.08356481229414
 31
0.0
  0
LINE
  5
9E
330
70
100
AcDbEntity
  8
CLASS1
 62
     4
420
    65535
370
    25
100
AcDbLine
 10
126.9412036719686
 20
35.07199073197253
 30
0.0
 11
126.9412036719686
 21
10.08356481229414
 31
0.0
  0
LINE
  5
9F
330
70
100
AcDbEntity
  8
CLASS1
 62
     4
420
    65535
370
    25
100
AcDbLine
 10
91.95740738441816
 20
35.07199073197253
 30
0.0
 11
91.95740738441816
 21
15.08124999622969
 31
0.0
  0
LINE
  5
A0
330
70
100
AcDbEntity
  8
CLASS1
 62
     4
420
    65535
370
    25
100
AcDbLine
 10
106.9504629362251
 20
35.07199073197253
 30
0.0
 11
106.9504629362251
 21
15.08124999622969
 31
0.0
  0
LINE
  5
A1
330
70
100
AcDbEntity
  8
CLASS1
 62
     4
420
    65535
370
    25
100
AcDbLine
 10
121.9435184880324
 20
35.07199073197253
 30
0.0
 11
121.9435184880324
 21
10.08356481229414
 31
0.0
  0
LINE
  5
A2
330
70
100
AcDbEntity
  8
CLASS1
 62
   120
420
    65471
370
    25
100
AcDbLine
 10
9.995370367871421
 20
10.08356481229414
 30
0.0
 11
9.995370367871421
 21
286.9553240023354
 31
0.0
  0
LINE
  5
A3
330
70
100
AcDbEntity
  8
CLASS1
 62
   120
420
    65471
370
    25
100
AcDbLine
 10
9.995370367871421
 20
286.9553240023354
 30
0.0
 11
199.9074073574303
 21
286.9553240023354
 31
0.0
  0
LINE
  5
A4
330
70
100
AcDbEntity
  8
CLASS1
 62
   120
420
    65471
370
    25
100
AcDbLine
 10
199.9074073574303
 20
10.08356481229414
 30
0.0
 11
199.9074073574303
 21
286.9553240023354
 31
0.0
  0
LINE
  5
A5
330
70
100
AcDbEntity
  8
CLASS1
 62
   120
420
    65471
370
    25
100
AcDbLine
 10
9.995370367871421
 20
10.08356481229414
 30
0.0
 11
199.9074073574303
 21
10.08356481229414
 31
0.0
  0
MTEXT
  5
A6
330
70
100
AcDbEntity
  8
CLASS1
100
AcDbMText
 10
19.16162108895959
 20
15.08124999622969
 30
0.0
 40
0.2
 41
0.0
 46
0.0
 71
     7
 72
     1
  1
\C143;\c15120496;\FKozGoPr6N-Regular|b0|i0|c128;\H2.497667;\W1.000000;MARDAK INTERNATIONAL
 73
     1
 44
1.0
  0
LINE
  5
A8
330
70
100
AcDbEntity
  8
DEFPOINTS
 62
     4
420
    65535
370
    25
100
AcDbLine
 10
209.9027777253021
 20
0.0881944444223958
 30
0.0
 11
209.9027777253021
 21
296.9506943702068
 31
0.0
  0
LINE
  5
A9
330
70
100
AcDbEntity
  8
DEFPOINTS
 62
     4
420
    65535
370
    25
100
AcDbLine
 10
0.0
 20
0.0881944444223958
 30
0.0
 11
0.0
 21
296.9506943702068
 31
0.0
  0
LINE
  5
AA
330
70
100
AcDbEntity
  8
DEFPOINTS
 62
     4
420
    65535
370
    25
100
AcDbLine
 10
0.0
 20
0.0881944444223958
 30
0.0
 11
209.9027777253021
 21
0.0881944444223958
 31
0.0
  0
LINE
  5
AB
330
70
100
AcDbEntity
  8
DEFPOINTS
 62
     4
420
    65535
370
    25
100
AcDbLine
 10
0.0
 20
296.9506943702068
 30
0.0
 11
209.9027777253021
 21
296.9506943702068
 31
0.0
  0
LINE
  5
AD
330
70
100
AcDbEntity
  8
CLASS2
 62
   110
420
    65407
370
    25
100
AcDbLine
 10
55.57863122036474
 20
142.2794416371155
 30
0.0
 11
67.22323769893503
 21
142.2794416371155
 31
0.0
  0
LINE
  5
AE
330
70
100
AcDbEntity
  8
CLASS2
 62
   110
420
    65407
370
    25
100
AcDbLine
 10
55.07886270197106
 20
144.6494429055042
 30
0.0
 11
67.72300621732838
 21
144.6494429055042
 31
0.0
  0
SPLINE
  5
AF
330
70
100
AcDbEntity
  8
CLASS2
 62
     3
420
    65280
370
    25
100
AcDbSpline
210
0.0
220
0.0
230
1.0
 70
     8
 71
     3
 72
     8
 73
     4
 74
     0
 42
0.0000000001
 43
0.0000000001
 40
0.0
 40
0.0
 40
0.0
 40
0.0
 40
1.0
 40
1.0
 40
1.0
 40
1.0
 10
150.8594992520999
 20
181.8866254748987
 30
0.0
 10
146.9952958159399
 20
181.8866254748987
 30
0.0
 10
143.8627399945896
 20
178.7540696535488
 30
0.0
 10
143.8627399945896
 20
174.8898662173888
 30
0.0
  0
LINE
  5
B0
330
70
100
AcDbEntity
  8
CLASS2
  6
AI-Linetype-0
 62
   110
420
    65407
370
    25
100
AcDbLine
 10
106.3801011150714
 20
166.8935699230915
 30
0.0
 11
170.095400612569
 21
166.8935699230915
 31
0.0
  0
SPLINE
  5
B2
330
70
100
AcDbEntity
  8
CLASS2
 62
     3
420
    65280
370
    25
100
AcDbSpline
210
0.0
220
0.0
230
1.0
 70
     8
 71
     3
 72
     8
 73
     4
 74
     0
 42
0.0000000001
 43
0.0000000001
 40
0.0
 40
0.0
 40
0.0
 40
0.0
 40
1.0
 40
1.0
 40
1.0
 40
1.0
 10
143.8627399945896
 20
158.8972736287941
 30
0.0
 10
143.8627399945896
 20
155.0330701926341
 30
0.0
 10
146.9952958159399
 20
151.9005143712842
 30
0.0
 10
150.8594992520999
 20
151.9005143712842
 30
0.0
  0
LINE
  5
B3
330
70
100
AcDbEntity
  8
CLASS2
 62
     3
420
    65280
370
    25
100
AcDbLine
 10
143.8627399945896
 20
158.8972736287941
 30
0.0
 11
143.8627399945896
 21
166.8935699230915
 31
0.0
  0
ELLIPSE
  5
B4
330
70
100
AcDbEntity
  8
CLASS2
 62
     3
420
    65280
370
    25
100
AcDbEllipse
 10
99.17766512242787
 20
146.5030143726335
 30
0.0
 11
0.0000000000000002
 21
2.468814889341759
 31
0.0
210
0.0
220
0.0
230
1.0
 40
0.82267399999998
 41
0.0
 42
6.283185307179586
  0
SPLINE
  5
B5
330
70
100
AcDbEntity
  8
CLASS2
 62
     3
420
    65280
370
    25
100
AcDbSpline
210
0.0
220
0.0
230
1.0
 70
     8
 71
     3
 72
    11
 73
     7
 74
     0
 42
0.0000000001
 43
0.0000000001
 40
0.0
 40
0.0
 40
0.0
 40
0.0
 40
1.0
 40
1.0
 40
1.0
 40
2.0
 40
2.0
 40
2.0
 40
2.0
 10
91.38704556326448
 20
144.0341995559096
 30
0.0
 10
93.63045968336972
 20
144.0341995559096
 30
0.0
 10
95.44910615934737
 20
145.1395255992006
 30
0.0
 10
95.44910615934737
 20
146.5030143726335
 30
0.0
 10
95.44910615934737
 20
147.8665031460664
 30
0.0
 10
93.63045968336972
 20
148.9718291893574
 30
0.0
 10
91.38704556326448
 20
148.9718291893574
 30
0.0
  0
SPLINE
  5
B6
330
70
100
AcDbEntity
  8
CLASS2
 62
     3
420
    65280
370
    25
100
AcDbSpline
210
0.0
220
0.0
230
1.0
 70
     8
 71
     3
 72
     8
 73
     4
 74
     0
 42
0.0000000001
 43
0.0000000001
 40
0.0
 40
0.0
 40
0.0
 40
0.0
 40
1.0
 40
1.0
 40
1.0
 40
1.0
 10
100.1329946820799
 20
143.7542876146598
 30
0.0
 10
101.6323001746898
 20
145.2800959988882
 30
0.0
 10
101.6323001746898
 20
147.7259327463788
 30
0.0
 10
100.1329946820799
 20
149.2517411306072
 30
0.0
  0
LINE
  5
B7
330
70
100
AcDbEntity
  8
CLASS2
 62
     3
420
    65280
370
    25
100
AcDbLine
 10
100.1329946351518
 20
143.754287521469
 30
0.0
 11
91.38704556326448
 21
143.754287521469
 31
0.0
  0
LINE
  5
B8
330
70
100
AcDbEntity
  8
CLASS2
 62
     3
420
    65280
370
    25
100
AcDbLine
 10
91.38704556326448
 20
149.2517412237983
 30
0.0
 11
100.1329946351518
 21
149.2517412237983
 31
0.0
  0
LINE
  5
B9
330
70
100
AcDbEntity
  8
CLASS2
 62
     3
420
    65280
370
    25
100
AcDbLine
 10
106.3801011150714
 20
160.6464634431719
 30
0.0
 11
143.8627399945896
 21
160.6464634431719
 31
0.0
  0
SPLINE
  5
BA
330
70
100
AcDbEntity
  8
CLASS2
 62
     3
420
    65280
370
    25
100
AcDbSpline
210
0.0
220
0.0
230
1.0
 70
     8
 71
     3
 72
     8
 73
     4
 74
     0
 42
0.0000000001
 43
0.0000000001
 40
0.0
 40
0.0
 40
0.0
 40
0.0
 40
1.0
 40
1.0
 40
1.0
 40
1.0
 10
106.3801011150714
 20
173.1406764030111
 30
0.0
 10
94.64948354101395
 20
173.1406764030111
 30
0.0
 10
85.13993908334455
 20
163.631131945342
 30
0.0
 10
85.13993908334455
 20
151.9005143712842
 30
0.0
  0
SPLINE
  5
BB
330
70
100
AcDbEntity
  8
CLASS2
 62
     3
420
    65280
370
    25
100
AcDbSpline
210
0.0
220
0.0
230
1.0
 70
     8
 71
     3
 72
     8
 73
     4
 74
     0
 42
0.0000000001
 43
0.0000000001
 40
0.0
 40
0.0
 40
0.0
 40
0.0
 40
1.0
 40
1.0
 40
1.0
 40
1.0
 10
106.3801011150714
 20
160.6464634431715
 30
0.0
 10
101.5498468198714
 20
160.6464634431715
 30
0.0
 10
97.63415204318407
 20
156.7307686664842
 30
0.0
 10
97.63415204318407
 20
151.9005143712842
 30
0.0
  0
LINE
  5
BC
330
70
100
AcDbEntity
  8
CLASS2
 62
     3
420
    65280
370
    25
100
AcDbLine
 10
85.13993908334455
 20
151.9005143712842
 30
0.0
 11
85.13993908334455
 21
149.2517412237983
 31
0.0
  0
LINE
  5
BD
330
70
100
AcDbEntity
  8
CLASS2
 62
     3
420
    65280
370
    25
100
AcDbLine
 10
97.63415204318407
 20
151.9005143712842
 30
0.0
 11
97.63415204318407
 21
149.2517412237983
 31
0.0
  0
SPLINE
  5
BE
330
70
100
AcDbEntity
  8
CLASS2
  6
AI-Linetype-1
 62
   110
420
    65407
370
    25
100
AcDbSpline
210
0.0
220
0.0
230
1.0
 70
     8
 71
     3
 72
     8
 73
     4
 74
     0
 42
0.0000000001
 43
0.0000000001
 40
0.0
 40
0.0
 40
0.0
 40
0.0
 40
1.0
 40
1.0
 40
1.0
 40
1.0
 10
106.3801011150714
 20
166.8935699230915
 30
0.0
 10
98.09966518044252
 20
166.8935699230915
 30
0.0
 10
91.38704556326448
 20
160.1809503059131
 30
0.0
 10
91.38704556326448
 20
151.9005143712842
 30
0.0
  0
ELLIPSE
  5
C0
330
70
100
AcDbEntity
  8
CLASS2
 62
     3
420
    65280
370
    25
100
AcDbEllipse
 10
53.61031390094928
 20
163.9671473766008
 30
0.0
 11
0.0000000000000002
 21
2.468814889341759
 31
0.0
210
0.0
220
0.0
230
1.0
 40
0.82267399999998
 41
0.0
 42
6.283185307179586
  0
SPLINE
  5
C1
330
70
100
AcDbEntity
  8
CLASS2
 62
     3
420
    65280
370
    25
100
AcDbSpline
210
0.0
220
0.0
230
1.0
 70
     8
 71
     3
 72
    11
 73
     7
 74
     0
 42
0.0000000001
 43
0.0000000001
 40
0.0
 40
0.0
 40
0.0
 40
0.0
 40
1.0
 40
1.0
 40
1.0
 40
2.0
 40
2.0
 40
2.0
 40
2.0
 10
61.40093445964989
 20
166.4359621933247
 30
0.0
 10
59.15752033954433
 20
166.4359621933247
 30
0.0
 10
57.33887386356667
 20
165.3306361500338
 30
0.0
 10
57.33887386356667
 20
163.9671473766008
 30
0.0
 10
57.33887386356667
 20
162.6036586031679
 30
0.0
 10
59.15752033954433
 20
161.4983325598769
 30
0.0
 10
61.40093445964989
 20
161.4983325598769
 30
0.0
  0
SPLINE
  5
C2
330
70
100
AcDbEntity
  8
CLASS2
 62
     3
420
    65280
370
    25
100
AcDbSpline
210
0.0
220
0.0
230
1.0
 70
     8
 71
     3
 72
     8
 73
     4
 74
     0
 42
0.0000000001
 43
0.0000000001
 40
0.0
 40
0.0
 40
0.0
 40
0.0
 40
1.0
 40
1.0
 40
1.0
 40
1.0
 10
52.6549853408341
 20
166.7158741345745
 30
0.0
 10
51.15567984822416
 20
165.1900657503458
 30
0.0
 10
51.15567984822416
 20
162.7442290028558
 30
0.0
 10
52.6549853408341
 20
161.2184206186271
 30
0.0
  0
LINE
  5
C3
330
70
100
AcDbEntity
  8
CLASS2
 62
     3
420
    65280
370
    25
100
AcDbLine
 10
52.6549853877622
 20
161.218420525436
 30
0.0
 11
61.40093445964989
 21
161.218420525436
 31
0.0
  0
LINE
  5
C4
330
70
100
AcDbEntity
  8
CLASS2
 62
     3
420
    65280
370
    25
100
AcDbLine
 10
61.40093445964989
 20
166.7158742277656
 30
0.0
 11
52.6549853877622
 21
166.7158742277656
 31
0.0
  0
ELLIPSE
  5
C5
330
70
100
AcDbEntity
  8
CLASS2
 62
     3
420
    65280
370
    25
100
AcDbEllipse
 10
53.61031390094928
 20
203.4688970491327
 30
0.0
 11
0.0000000000000002
 21
2.468814889341679
 31
0.0
210
0.0
220
0.0
230
1.0
 40
0.8226739999999418
 41
0.0
 42
6.283185307179586
  0
SPLINE
  5
C6
330
70
100
AcDbEntity
  8
CLASS2
 62
     3
420
    65280
370
    25
100
AcDbSpline
210
0.0
220
0.0
230
1.0
 70
     8
 71
     3
 72
    11
 73
     7
 74
     0
 42
0.0000000001
 43
0.0000000001
 40
0.0
 40
0.0
 40
0.0
 40
0.0
 40
1.0
 40
1.0
 40
1.0
 40
2.0
 40
2.0
 40
2.0
 40
2.0
 10
61.40093445964989
 20
205.9377118658565
 30
0.0
 10
59.15752033954433
 20
205.9377118658565
 30
0.0
 10
57.33887386356667
 20
204.8323858225656
 30
0.0
 10
57.33887386356667
 20
203.4688970491326
 30
0.0
 10
57.33887386356667
 20
202.1054082757
 30
0.0
 10
59.15752033954433
 20
201.0000822324091
 30
0.0
 10
61.40093445964989
 20
201.0000822324091
 30
0.0
  0
SPLINE
  5
C7
330
70
100
AcDbEntity
  8
CLASS2
 62
     3
420
    65280
370
    25
100
AcDbSpline
210
0.0
220
0.0
230
1.0
 70
     8
 71
     3
 72
     8
 73
     4
 74
     0
 42
0.0000000001
 43
0.0000000001
 40
0.0
 40
0.0
 40
0.0
 40
0.0
 40
1.0
 40
1.0
 40
1.0
 40
1.0
 10
52.6549853408341
 20
206.2176238071063
 30
0.0
 10
51.15567984822416
 20
204.691815422878
 30
0.0
 10
51.15567984822416
 20
202.2459786753877
 30
0.0
 10
52.6549853408341
 20
200.7201702911593
 30
0.0
  0
LINE
  5
C8
330
70
100
AcDbEntity
  8
CLASS2
 62
     3
420
    65280
370
    25
100
AcDbLine
 10
52.6549853877622
 20
206.2176239002974
 30
0.0
 11
61.40093445964989
 21
206.2176239002974
 31
0.0
  0
LINE
  5
C9
330
70
100
AcDbEntity
  8
CLASS2
 62
     3
420
    65280
370
    25
100
AcDbLine
 10
61.40093445964989
 20
200.7201701979682
 30
0.0
 11
52.6549853877622
 21
200.7201701979682
 31
0.0
  0
LINE
  5
CA
330
70
100
AcDbEntity
  8
CLASS2
 62
     3
420
    65280
370
    25
100
AcDbLine
 10
98.97553074655235
 20
143.754287521469
 30
0.0
 11
98.87557704287381
 21
143.6543338177898
 31
0.0
  0
LINE
  5
CB
330
70
100
AcDbEntity
  8
CLASS2
 62
     3
420
    65280
370
    25
100
AcDbLine
 10
91.38704556326448
 20
143.6543338177898
 30
0.0
 11
98.87557704287381
 21
143.6543338177898
 31
0.0
  0
LINE
  5
CC
330
70
100
AcDbEntity
  8
CLASS2
 62
     3
420
    65280
370
    25
100
AcDbLine
 10
98.87557704287381
 20
143.6543338177898
 30
0.0
 11
98.87557704287381
 21
143.754287521469
 31
0.0
  0
SPLINE
  5
CD
330
70
100
AcDbEntity
  8
CLASS2
 62
     3
420
    65280
370
    25
100
AcDbSpline
210
0.0
220
0.0
230
1.0
 70
     8
 71
     3
 72
     8
 73
     4
 74
     0
 42
0.0000000001
 43
0.0000000001
 40
0.0
 40
0.0
 40
0.0
 40
0.0
 40
1.0
 40
1.0
 40
1.0
 40
1.0
 10
54.60596855701442
 20
160.6464637581088
 30
0.0
 10
54.58809263153646
 20
160.5533252663171
 30
0.0
 10
54.57909418357737
 20
160.4587007653674
 30
0.0
 10
54.57909418357737
 20
160.3638623376866
 30
0.0
  0
LINE
  5
CE
330
70
100
AcDbEntity
  8
CLASS2
 62
     3
420
    65280
370
    25
100
AcDbLine
 10
53.40463816535256
 20
161.1542282578596
 30
0.0
 11
53.91240298004056
 21
160.6464634431719
 31
0.0
  0
LINE
  5
CF
330
70
100
AcDbEntity
  8
CLASS2
 62
   110
420
    65407
370
    25
100
AcDbLine
 10
53.91240298004056
 20
160.6464634431719
 30
0.0
 11
53.91240298004056
 21
161.218420525436
 31
0.0
  0
LINE
  5
D0
330
70
100
AcDbEntity
  8
CLASS2
 62
     3
420
    65280
370
    25
100
AcDbLine
 10
53.40463816535256
 20
161.218420525436
 30
0.0
 11
53.40463816535256
 21
161.1542282578596
 31
0.0
  0
LINE
  5
D1
330
70
100
AcDbEntity
  8
CLASS2
 62
     3
420
    65280
370
    25
100
AcDbLine
 10
53.40463816535256
 20
161.1542282578596
 30
0.0
 11
61.40093445964989
 21
161.1542282578596
 31
0.0
  0
LINE
  5
D2
330
70
100
AcDbEntity
  8
CLASS2
 62
     3
420
    65280
370
    25
100
AcDbLine
 10
61.40093445964989
 20
160.6464634431719
 30
0.0
 11
53.91240298004056
 21
160.6464634431719
 31
0.0
  0
SPLINE
  5
D3
330
70
100
AcDbEntity
  8
CLASS2
 62
     3
420
    65280
370
    25
100
AcDbSpline
210
0.0
220
0.0
230
1.0
 70
     8
 71
     3
 72
     8
 73
     4
 74
     0
 42
0.0000000001
 43
0.0000000001
 40
0.0
 40
0.0
 40
0.0
 40
0.0
 40
1.0
 40
1.0
 40
1.0
 40
1.0
 10
55.15382797972996
 20
142.2794416371155
 30
0.0
 10
55.15382797972996
 20
142.6155015275519
 30
0.0
 10
55.08604172024661
 20
142.9481087124824
 30
0.0
 10
54.95452450106716
 20
143.25736503177
 30
0.0
  0
SPLINE
  5
D4
330
70
100
AcDbEntity
  8
CLASS2
 62
     3
420
    65280
370
    25
100
AcDbSpline
210
0.0
220
0.0
230
1.0
 70
     8
 71
     3
 72
     8
 73
     4
 74
     0
 42
0.0000000001
 43
0.0000000001
 40
0.0
 40
0.0
 40
0.0
 40
0.0
 40
1.0
 40
1.0
 40
1.0
 40
1.0
 10
54.57909418357737
 20
144.6494429055042
 30
0.0
 10
54.57909418357737
 20
144.3133830150679
 30
0.0
 10
54.64688044306074
 20
143.9807758301374
 30
0.0
 10
54.77839766224018
 20
143.6715195108497
 30
0.0
  0
LINE
  5
D5
330
70
100
AcDbEntity
  8
CLASS2
 62
     3
420
    65280
370
    25
100
AcDbLine
 10
54.77839787056456
 20
143.6715188580634
 30
0.0
 11
54.95452429274278
 21
143.2573656845563
 31
0.0
  0
SPLINE
  5
D6
330
70
100
AcDbEntity
  8
CLASS2
 62
     3
420
    65280
370
    25
100
AcDbSpline
210
0.0
220
0.0
230
1.0
 70
     8
 71
     3
 72
     8
 73
     4
 74
     0
 42
0.0000000001
 43
0.0000000001
 40
0.0
 40
0.0
 40
0.0
 40
0.0
 40
1.0
 40
1.0
 40
1.0
 40
1.0
 10
68.00498964702199
 20
143.5867419012989
 30
0.0
 10
68.14856253014061
 20
143.907727224322
 30
0.0
 10
68.22277473572208
 20
144.2553999946509
 30
0.0
 10
68.22277473572208
 20
144.6070315494966
 30
0.0
  0
SPLINE
  5
D7
330
70
100
AcDbEntity
  8
CLASS2
 62
     3
420
    65280
370
    25
100
AcDbSpline
210
0.0
220
0.0
230
1.0
 70
     8
 71
     3
 72
     8
 73
     4
 74
     0
 42
0.0000000001
 43
0.0000000001
 40
0.0
 40
0.0
 40
0.0
 40
0.0
 40
1.0
 40
1.0
 40
1.0
 40
1.0
 10
67.86582602826958
 20
143.2756144556889
 30
0.0
 10
67.72225314515096
 20
142.9546291326664
 30
0.0
 10
67.64804093956948
 20
142.6069563623368
 30
0.0
 10
67.64804093956948
 20
142.2553248074918
 30
0.0
  0
LINE
  5
D8
330
70
100
AcDbEntity
  8
CLASS2
 62
     3
420
    65280
370
    25
100
AcDbLine
 10
67.86582606636693
 20
143.2756142322364
 30
0.0
 11
68.00498960892463
 21
143.5867421247513
 31
0.0
  0
LINE
  5
D9
330
70
100
AcDbEntity
  8
CLASS2
 62
     3
420
    65280
370
    25
100
AcDbLine
 10
68.22277473572208
 20
144.6070315494966
 30
0.0
 11
68.22277473572208
 21
160.6464634431719
 31
0.0
  0
LINE
  5
DA
330
70
100
AcDbEntity
  8
CLASS2
 62
     3
420
    65280
370
    25
100
AcDbLine
 10
54.57909418357737
 20
144.6494429055042
 30
0.0
 11
54.57909418357737
 21
160.3638623376866
 31
0.0
  0
LINE
  5
DB
330
70
100
AcDbEntity
  8
CLASS2
 62
     3
420
    65280
370
    25
100
AcDbLine
 10
55.15382797972996
 20
141.6552597442158
 30
0.0
 11
55.15382797972996
 21
142.2794416371155
 31
0.0
  0
LINE
  5
DC
330
70
100
AcDbEntity
  8
CLASS2
 62
     3
420
    65280
370
    25
100
AcDbLine
 10
67.64804093956948
 20
141.6552597442158
 30
0.0
 11
67.64804093956948
 21
142.2553248074918
 31
0.0
  0
SPLINE
  5
DD
330
70
100
AcDbEntity
  8
CLASS2
 62
     3
420
    65280
370
    25
100
AcDbSpline
210
0.0
220
0.0
230
1.0
 70
     8
 71
     3
 72
    11
 73
     7
 74
     0
 42
0.0000000001
 43
0.0000000001
 40
0.0
 40
0.0
 40
0.0
 40
0.0
 40
1.0
 40
1.0
 40
1.0
 40
2.0
 40
2.0
 40
2.0
 40
2.0
 10
67.64804093956948
 20
141.6552597442158
 30
0.0
 10
67.64804093956948
 20
136.8250054490154
 30
0.0
 10
71.56373571625682
 20
132.9093106723284
 30
0.0
 10
76.39399001145718
 20
132.9093106723284
 30
0.0
 10
81.22424430665722
 20
132.9093106723284
 30
0.0
 10
85.13993908334455
 20
136.8250054490154
 30
0.0
 10
85.13993908334455
 20
141.6552597442158
 30
0.0
  0
SPLINE
  5
DE
330
70
100
AcDbEntity
  8
CLASS2
 62
     3
420
    65280
370
    25
100
AcDbSpline
210
0.0
220
0.0
230
1.0
 70
     8
 71
     3
 72
    11
 73
     7
 74
     0
 42
0.0000000001
 43
0.0000000001
 40
0.0
 40
0.0
 40
0.0
 40
0.0
 40
1.0
 40
1.0
 40
1.0
 40
2.0
 40
2.0
 40
2.0
 40
2.0
 10
55.15382797972996
 20
141.6552597442158
 30
0.0
 10
55.15382797972996
 20
129.9246421701576
 30
0.0
 10
64.66337243739904
 20
120.4150977124885
 30
0.0
 10
76.39399001145718
 20
120.4150977124885
 30
0.0
 10
88.124607585515
 20
120.4150977124885
 30
0.0
 10
97.63415204318407
 20
129.9246421701576
 30
0.0
 10
97.63415204318407
 20
141.6552597442158
 30
0.0
  0
SPLINE
  5
DF
330
70
100
AcDbEntity
  8
CLASS2
  6
AI-Linetype-2
 62
   110
420
    65407
370
    25
100
AcDbSpline
210
0.0
220
0.0
230
1.0
 70
     8
 71
     3
 72
    11
 73
     7
 74
     0
 42
0.0000000001
 43
0.0000000001
 40
0.0
 40
0.0
 40
0.0
 40
0.0
 40
1.0
 40
1.0
 40
1.0
 40
2.0
 40
2.0
 40
2.0
 40
2.0
 10
61.40093445964989
 20
141.6552597442158
 30
0.0
 10
61.40093445964989
 20
133.3748238095868
 30
0.0
 10
68.11355407682793
 20
126.6622041924085
 30
0.0
 10
76.39399001145718
 20
126.6622041924085
 30
0.0
 10
84.67442594608611
 20
126.6622041924085
 30
0.0
 10
91.38704556326448
 20
133.3748238095868
 30
0.0
 10
91.38704556326448
 20
141.6552597442158
 30
0.0
  0
LINE
  5
E1
330
70
100
AcDbEntity
  8
CLASS2
 62
     3
420
    65280
370
    25
100
AcDbLine
 10
85.13993908334455
 20
141.6552597442158
 30
0.0
 11
85.13993908334455
 21
143.6543338177898
 31
0.0
  0
LINE
  5
E2
330
70
100
AcDbEntity
  8
CLASS2
 62
     3
420
    65280
370
    25
100
AcDbLine
 10
97.63415204318407
 20
141.6552597442158
 30
0.0
 11
97.63415204318407
 21
143.6543338177898
 31
0.0
  0
LINE
  5
E3
330
70
100
AcDbEntity
  8
CLASS2
  6
AI-Linetype-3
 62
   110
420
    65407
370
    25
100
AcDbLine
 10
91.38704556326448
 20
141.6552597442158
 30
0.0
 11
91.38704556326448
 21
151.9005143712842
 31
0.0
  0
LINE
  5
E5
330
70
100
AcDbEntity
  8
CLASS2
 62
     3
420
    65280
370
    25
100
AcDbLine
 10
67.64804093956948
 20
200.7201701979682
 30
0.0
 11
67.64804093956948
 21
166.7158742277656
 31
0.0
  0
LINE
  5
E6
330
70
100
AcDbEntity
  8
CLASS2
 62
     3
420
    65280
370
    25
100
AcDbLine
 10
55.15382797972996
 20
200.7201701979682
 30
0.0
 11
55.15382797972996
 21
166.7158742277656
 31
0.0
  0
LINE
  5
E7
330
70
100
AcDbEntity
  8
CLASS2
  6
AI-Linetype-4
 62
   110
420
    65407
370
    25
100
AcDbLine
 10
61.40093445964989
 20
207.9497706086607
 30
0.0
 11
61.40093445964989
 21
141.6552597442158
 31
0.0
  0
SPLINE
  5
E9
330
70
100
AcDbEntity
  8
CLASS2
 62
     3
420
    65280
370
    25
100
AcDbSpline
210
0.0
220
0.0
230
1.0
 70
     8
 71
     3
 72
    11
 73
     7
 74
     0
 42
0.0000000001
 43
0.0000000001
 40
0.0
 40
0.0
 40
0.0
 40
0.0
 40
1.0
 40
1.0
 40
1.0
 40
2.0
 40
2.0
 40
2.0
 40
2.0
 10
61.40093445964989
 20
161.4983325598769
 30
0.0
 10
63.64434857975513
 20
161.4983325598769
 30
0.0
 10
65.46299505573277
 20
162.6036586031679
 30
0.0
 10
65.46299505573277
 20
163.9671473766008
 30
0.0
 10
65.46299505573277
 20
165.3306361500338
 30
0.0
 10
63.64434857975513
 20
166.4359621933247
 30
0.0
 10
61.40093445964989
 20
166.4359621933247
 30
0.0
  0
LINE
  5
EA
330
70
100
AcDbEntity
  8
CLASS2
 62
     3
420
    65280
370
    25
100
AcDbLine
 10
70.14688353153726
 20
161.218420525436
 30
0.0
 11
61.40093445964989
 21
161.218420525436
 31
0.0
  0
LINE
  5
EB
330
70
100
AcDbEntity
  8
CLASS2
 62
     3
420
    65280
370
    25
100
AcDbLine
 10
61.40093445964989
 20
166.7158742277656
 30
0.0
 11
70.14688353153726
 21
166.7158742277656
 31
0.0
  0
LINE
  5
EC
330
70
100
AcDbEntity
  8
CLASS2
 62
     3
420
    65280
370
    25
100
AcDbLine
 10
69.3972307539469
 20
161.1542282578596
 30
0.0
 11
61.40093445964989
 21
161.1542282578596
 31
0.0
  0
LINE
  5
ED
330
70
100
AcDbEntity
  8
CLASS2
 62
     3
420
    65280
370
    25
100
AcDbLine
 10
61.40093445964989
 20
160.6464634431719
 30
0.0
 11
68.88946593925921
 21
160.6464634431719
 31
0.0
  0
ELLIPSE
  5
EE
330
70
100
AcDbEntity
  8
CLASS2
 62
     3
420
    65280
370
    25
100
AcDbEllipse
 10
69.19155401881328
 20
163.9671473766008
 30
0.0
 11
0.0000000000000002
 21
2.468814889341759
 31
0.0
210
0.0
220
0.0
230
1.0
 40
0.82267399999998
 41
0.0
 42
6.283185307179586
  0
SPLINE
  5
EF
330
70
100
AcDbEntity
  8
CLASS2
 62
     3
420
    65280
370
    25
100
AcDbSpline
210
0.0
220
0.0
230
1.0
 70
     8
 71
     3
 72
     8
 73
     4
 74
     0
 42
0.0000000001
 43
0.0000000001
 40
0.0
 40
0.0
 40
0.0
 40
0.0
 40
1.0
 40
1.0
 40
1.0
 40
1.0
 10
70.14688357846535
 20
161.2184206186271
 30
0.0
 10
71.6461890710753
 20
162.7442290028558
 30
0.0
 10
71.6461890710753
 20
165.1900657503458
 30
0.0
 10
70.14688357846535
 20
166.7158741345745
 30
0.0
  0
LINE
  5
F0
330
70
100
AcDbEntity
  8
CLASS2
 62
     3
420
    65280
370
    25
100
AcDbLine
 10
69.3972307539469
 20
161.1542282578596
 30
0.0
 11
68.88946593925921
 21
160.6464634431719
 31
0.0
  0
LINE
  5
F1
330
70
100
AcDbEntity
  8
CLASS2
 62
     3
420
    65280
370
    25
100
AcDbLine
 10
69.3972307539469
 20
161.218420525436
 30
0.0
 11
69.3972307539469
 21
161.1542282578596
 31
0.0
  0
LINE
  5
F2
330
70
100
AcDbEntity
  8
CLASS2
 62
   110
420
    65407
370
    25
100
AcDbLine
 10
68.88946593925921
 20
160.6464634431719
 30
0.0
 11
68.88946593925921
 21
161.218420525436
 31
0.0
  0
SPLINE
  5
F3
330
70
100
AcDbEntity
  8
CLASS2
 62
     3
420
    65280
370
    25
100
AcDbSpline
210
0.0
220
0.0
230
1.0
 70
     8
 71
     3
 72
    11
 73
     7
 74
     0
 42
0.0000000001
 43
0.0000000001
 40
0.0
 40
0.0
 40
0.0
 40
0.0
 40
1.0
 40
1.0
 40
1.0
 40
2.0
 40
2.0
 40
2.0
 40
2.0
 10
61.40093445964989
 20
201.0000822324091
 30
0.0
 10
63.64434857975513
 20
201.0000822324091
 30
0.0
 10
65.46299505573277
 20
202.1054082757
 30
0.0
 10
65.46299505573277
 20
203.4688970491326
 30
0.0
 10
65.46299505573277
 20
204.8323858225656
 30
0.0
 10
63.64434857975513
 20
205.9377118658565
 30
0.0
 10
61.40093445964989
 20
205.9377118658565
 30
0.0
  0
LINE
  5
F4
330
70
100
AcDbEntity
  8
CLASS2
 62
     3
420
    65280
370
    25
100
AcDbLine
 10
70.14688353153726
 20
206.2176239002974
 30
0.0
 11
61.40093445964989
 21
206.2176239002974
 31
0.0
  0
LINE
  5
F5
330
70
100
AcDbEntity
  8
CLASS2
 62
     3
420
    65280
370
    25
100
AcDbLine
 10
61.40093445964989
 20
200.7201701979682
 30
0.0
 11
70.14688353153726
 21
200.7201701979682
 31
0.0
  0
SPLINE
  5
F6
330
70
100
AcDbEntity
  8
CLASS2
 62
     3
420
    65280
370
    25
100
AcDbSpline
210
0.0
220
0.0
230
1.0
 70
     8
 71
     3
 72
     8
 73
     4
 74
     0
 42
0.0000000001
 43
0.0000000001
 40
0.0
 40
0.0
 40
0.0
 40
0.0
 40
1.0
 40
1.0
 40
1.0
 40
1.0
 10
70.14688357846535
 20
200.7201702911593
 30
0.0
 10
71.6461890710753
 20
202.2459786753877
 30
0.0
 10
71.6461890710753
 20
204.691815422878
 30
0.0
 10
70.14688357846535
 20
206.2176238071063
 30
0.0
  0
ELLIPSE
  5
F7
330
70
100
AcDbEntity
  8
CLASS2
 62
     3
420
    65280
370
    25
100
AcDbEllipse
 10
69.19155401881328
 20
203.4688970491327
 30
0.0
 11
0.0000000000000002
 21
2.468814889341679
 31
0.0
210
0.0
220
0.0
230
1.0
 40
0.8226739999999418
 41
0.0
 42
6.283185307179586
  0
SPLINE
  5
F8
330
70
100
AcDbEntity
  8
CLASS2
 62
     3
420
    65280
370
    25
100
AcDbSpline
210
0.0
220
0.0
230
1.0
 70
     8
 71
     3
 72
    11
 73
     7
 74
     0
 42
0.0000000001
 43
0.0000000001
 40
0.0
 40
0.0
 40
0.0
 40
0.0
 40
1.0
 40
1.0
 40
1.0
 40
2.0
 40
2.0
 40
2.0
 40
2.0
 10
91.38704556326448
 20
148.9718291893574
 30
0.0
 10
89.1436314431589
 20
148.9718291893574
 30
0.0
 10
87.32498496718125
 20
147.8665031460664
 30
0.0
 10
87.32498496718125
 20
146.5030143726335
 30
0.0
 10
87.32498496718125
 20
145.1395255992006
 30
0.0
 10
89.1436314431589
 20
144.0341995559096
 30
0.0
 10
91.38704556326448
 20
144.0341995559096
 30
0.0
  0
LINE
  5
F9
330
70
100
AcDbEntity
  8
CLASS2
 62
     3
420
    65280
370
    25
100
AcDbLine
 10
82.64109649137678
 20
143.754287521469
 30
0.0
 11
91.38704556326448
 21
143.754287521469
 31
0.0
  0
LINE
  5
FA
330
70
100
AcDbEntity
  8
CLASS2
 62
     3
420
    65280
370
    25
100
AcDbLine
 10
91.38704556326448
 20
149.2517412237983
 30
0.0
 11
82.64109649137678
 21
149.2517412237983
 31
0.0
  0
LINE
  5
FB
330
70
100
AcDbEntity
  8
CLASS2
 62
     3
420
    65280
370
    25
100
AcDbLine
 10
91.38704556326448
 20
143.6543338177898
 30
0.0
 11
83.89851408365514
 21
143.6543338177898
 31
0.0
  0
ELLIPSE
  5
FC
330
70
100
AcDbEntity
  8
CLASS2
 62
     3
420
    65280
370
    25
100
AcDbEllipse
 10
83.59642500456386
 20
146.5030143726335
 30
0.0
 11
0.0000000000000002
 21
2.468814889341759
 31
0.0
210
0.0
220
0.0
230
1.0
 40
0.82267399999998
 41
0.0
 42
6.283185307179586
  0
SPLINE
  5
FD
330
70
100
AcDbEntity
  8
CLASS2
 62
     3
420
    65280
370
    25
100
AcDbSpline
210
0.0
220
0.0
230
1.0
 70
     8
 71
     3
 72
     8
 73
     4
 74
     0
 42
0.0000000001
 43
0.0000000001
 40
0.0
 40
0.0
 40
0.0
 40
0.0
 40
1.0
 40
1.0
 40
1.0
 40
1.0
 10
82.6410964444487
 20
149.2517411306072
 30
0.0
 10
81.14179095183875
 20
147.7259327463788
 30
0.0
 10
81.14179095183875
 20
145.2800959988882
 30
0.0
 10
82.6410964444487
 20
143.7542876146598
 30
0.0
  0
LINE
  5
FE
330
70
100
AcDbEntity
  8
CLASS2
 62
     3
420
    65280
370
    25
100
AcDbLine
 10
83.89851408365514
 20
143.6543338177898
 30
0.0
 11
83.89851408365514
 21
143.754287521469
 31
0.0
  0
LINE
  5
FF
330
70
100
AcDbEntity
  8
CLASS2
 62
     3
420
    65280
370
    25
100
AcDbLine
 10
83.79856037997628
 20
143.754287521469
 30
0.0
 11
83.89851408365514
 21
143.6543338177898
 31
0.0
  0
LINE
  5
100
330
70
100
AcDbEntity
  8
CLASS2
 62
     3
420
    65280
370
    25
100
AcDbLine
 10
106.3801011150714
 20
173.1406764030111
 30
0.0
 11
143.8627399945896
 21
173.1406764030111
 31
0.0
  0
LINE
  5
101
330
70
100
AcDbEntity
  8
CLASS2
 62
     3
420
    65280
370
    25
100
AcDbLine
 10
143.8627399945896
 20
174.8898662173888
 30
0.0
 11
143.8627399945896
 21
166.8935699230915
 31
0.0
  0
LINE
  5
102
330
70
100
AcDbEntity
  8
CLASS2
 62
     3
420
    65280
370
    25
100
AcDbLine
 10
151.3592677704933
 20
160.6464634431719
 30
0.0
 11
166.3523233223006
 21
160.6464634431719
 31
0.0
  0
LINE
  5
103
330
70
100
AcDbEntity
  8
CLASS2
 62
     3
420
    65280
370
    25
100
AcDbLine
 10
151.3592677704933
 20
151.9005143712842
 30
0.0
 11
150.8594992520999
 21
151.9005143712842
 31
0.0
  0
LINE
  5
104
330
70
100
AcDbEntity
  8
CLASS2
 62
     3
420
    65280
370
    25
100
AcDbLine
 10
151.3592677704933
 20
166.8935699230915
 30
0.0
 11
151.3592677704933
 21
151.9005143712842
 31
0.0
  0
LINE
  5
105
330
70
100
AcDbEntity
  8
CLASS2
 62
     3
420
    65280
370
    25
100
AcDbLine
 10
166.3523233223006
 20
172.7908384401355
 30
0.0
 11
166.3523233223006
 21
166.8935699230915
 31
0.0
  0
LINE
  5
106
330
70
100
AcDbEntity
  8
CLASS2
 62
     3
420
    65280
370
    25
100
AcDbLine
 10
166.3523233223006
 20
166.8935699230915
 30
0.0
 11
166.3523233223006
 21
160.6464634431719
 31
0.0
  0
LINE
  5
107
330
70
100
AcDbEntity
  8
CLASS2
 62
     3
420
    65280
370
    25
100
AcDbLine
 10
166.3523233223006
 20
173.1406764030111
 30
0.0
 11
166.3523233223006
 21
172.7908384401355
 31
0.0
  0
LINE
  5
108
330
70
100
AcDbEntity
  8
CLASS2
 62
     3
420
    65280
370
    25
100
AcDbLine
 10
151.3592677704933
 20
166.8935699230915
 30
0.0
 11
151.3592677704933
 21
181.8866254748987
 31
0.0
  0
LINE
  5
109
330
70
100
AcDbEntity
  8
CLASS2
 62
     3
420
    65280
370
    25
100
AcDbLine
 10
151.3592677704933
 20
181.8866254748987
 30
0.0
 11
150.8594992520999
 21
181.8866254748987
 31
0.0
  0
LINE
  5
10A
330
70
100
AcDbEntity
  8
CLASS2
 62
     3
420
    65280
370
    25
100
AcDbLine
 10
151.3592677704933
 20
173.1406764030111
 30
0.0
 11
166.3523233223006
 21
173.1406764030111
 31
0.0
  0
INSERT
  5
10C
330
70
100
AcDbEntity
  8
CLASS2
100
AcDbBlockReference
  2
Block_1
 10
0.0
 20
0.0
 30
0.0
  0
INSERT
  5
11A
330
70
100
AcDbEntity
  8
CLASS2
100
AcDbBlockReference
  2
Block_2
 10
0.0
 20
0.0
 30
0.0
  0
INSERT
  5
128
330
70
100
AcDbEntity
  8
CLASS2
100
AcDbBlockReference
  2
Block_3
 10
0.0
 20
0.0
 30
0.0
  0
INSERT
  5
136
330
70
100
AcDbEntity
  8
CLASS2
100
AcDbBlockReference
  2
Block_4
 10
0.0
 20
0.0
 30
0.0
  0
INSERT
  5
143
330
70
100
AcDbEntity
  8
CLASS2
100
AcDbBlockReference
  2
Block_5
 10
0.0
 20
0.0
 30
0.0
  0
INSERT
  5
151
330
70
100
AcDbEntity
  8
CLASS2
100
AcDbBlockReference
  2
Block_6
 10
0.0
 20
0.0
 30
0.0
  0
INSERT
  5
162
330
70
100
AcDbEntity
  8
CLASS2
100
AcDbBlockReference
  2
Block_7
 10
0.0
 20
0.0
 30
0.0
  0
INSERT
  5
173
330
70
100
AcDbEntity
  8
CLASS2
100
AcDbBlockReference
  2
Block_8
 10
0.0
 20
0.0
 30
0.0
  0
INSERT
  5
181
330
70
100
AcDbEntity
  8
CLASS2
100
AcDbBlockReference
  2
Block_9
 10
0.0
 20
0.0
 30
0.0
  0
INSERT
  5
18F
330
70
100
AcDbEntity
  8
CLASS2
100
AcDbBlockReference
  2
Block_10
 10
0.0
 20
0.0
 30
0.0
  0
MTEXT
  5
196
330
70
100
AcDbEntity
  8
CLASS2
100
AcDbMText
 10
75.20808162928283
 20
212.3116315522823
 30
0.0
 40
0.2
 41
0.0
 46
0.0
 71
     7
 72
     1
  1
\C143;\c13415014;\FKozGoPr6N-Regular|b0|i0|c128;\H2.498843;\W0.967742;W32山16
 73
     1
 44
1.0
  0
ENDSEC
  0
SECTION
  2
OBJECTS
  0
DICTIONARY
  5
C
330
0
100
AcDbDictionary
281
     1
  3
ACAD_COLOR
350
63
  3
ACAD_DETAILVIEWSTYLE
350
6A
  3
ACAD_GROUP
350
D
  3
ACAD_LAYOUT
350
62
  3
ACAD_MATERIAL
350
10
  3
ACAD_MLEADERSTYLE
350
66
  3
ACAD_MLINESTYLE
350
5F
  3
ACAD_PLOTSETTINGS
350
61
  3
ACAD_PLOTSTYLENAME
350
E
  3
ACAD_SCALELIST
350
42
  3
ACAD_SECTIONVIEWSTYLE
350
68
  3
ACAD_TABLESTYLE
350
64
  3
ACAD_VISUALSTYLE
350
29
  3
ACDB_RECOMPOSE_DATA
350
19F
  3
AcDbVariableDictionary
350
197
  0
DICTIONARY
  5
63
102
{ACAD_REACTORS
330
C
102
}
330
C
100
AcDbDictionary
281
     1
  0
DICTIONARY
  5
6A
102
{ACAD_REACTORS
330
C
102
}
330
C
100
AcDbDictionary
281
     1
  3
Imperial24
350
6B
  0
DICTIONARY
  5
D
102
{ACAD_REACTORS
330
C
102
}
330
C
100
AcDbDictionary
281
     1
  0
DICTIONARY
  5
62
102
{ACAD_REACTORS
330
C
102
}
330
C
100
AcDbDictionary
281
     1
  3
Layout1
350
6F
  3
Layout2
350
77
  3
Model
350
73
  0
DICTIONARY
  5
10
102
{ACAD_REACTORS
330
C
102
}
330
C
100
AcDbDictionary
281
     1
  3
ByBlock
350
19
  3
ByLayer
350
11
  3
Global
350
21
  0
DICTIONARY
  5
66
102
{ACAD_REACTORS
330
C
102
}
330
C
100
AcDbDictionary
281
     1
  3
Standard
350
67
  0
DICTIONARY
  5
5F
102
{ACAD_REACTORS
330
C
102
}
330
C
100
AcDbDictionary
281
     1
  3
Standard
350
60
  0
DICTIONARY
  5
61
102
{ACAD_REACTORS
330
C
102
}
330
C
100
AcDbDictionary
281
     1
  0
ACDBDICTIONARYWDFLT
  5
E
102
{ACAD_REACTORS
330
C
102
}
330
C
100
AcDbDictionary
281
     1
  3
Normal
350
F
100
AcDbDictionaryWithDefault
340
F
  0
DICTIONARY
  5
42
102
{ACAD_REACTORS
330
C
102
}
330
C
100
AcDbDictionary
281
     1
  3
A0
350
43
  3
A1
350
44
  3
A2
350
45
  3
A3
350
46
  3
A4
350
47
  3
A5
350
48
  3
A6
350
49
  3
A7
350
4A
  3
A8
350
4B
  3
A9
350
4C
  3
B0
350
4D
  3
B1
350
4E
  3
B2
350
4F
  3
B3
350
50
  3
B4
350
51
  3
B5
350
52
  3
B6
350
53
  0
DICTIONARY
  5
68
102
{ACAD_REACTORS
330
C
102
}
330
C
100
AcDbDictionary
281
     1
  3
Imperial24
350
69
  0
DICTIONARY
  5
64
102
{ACAD_REACTORS
330
C
102
}
330
C
100
AcDbDictionary
281
     1
  3
Standard
350
65
  0
DICTIONARY
  5
29
102
{ACAD_REACTORS
330
C
102
}
330
C
100
AcDbDictionary
281
     1
  3
2dWireframe
350
2F
  3
Basic
350
2E
  3
Brighten
350
35
  3
ColorChange
350
39
  3
Conceptual
350
32
  3
Dim
350
34
  3
EdgeColorOff
350
41
  3
Facepattern
350
38
  3
Flat
350
2A
  3
FlatWithEdges
350
2B
  3
Gouraud
350
2C
  3
GouraudWithEdges
350
2D
  3
Hidden
350
31
  3
JitterOff
350
3F
  3
Linepattern
350
37
  3
OverhangOff
350
40
  3
Realistic
350
33
  3
Shaded
350
3E
  3
Shaded with edges
350
3D
  3
Shades of Gray
350
3A
  3
Sketchy
350
3B
  3
Thicken
350
36
  3
Wireframe
350
30
  3
X-Ray
350
3C
  0
XRECORD
  5
19F
102
{ACAD_REACTORS
330
C
102
}
330
C
100
AcDbXrecord
280
     1
 90
        1
330
65
  0
DICTIONARY
  5
197
102
{ACAD_REACTORS
330
C
102
}
330
C
100
AcDbDictionary
281
     1
  3
CANNOSCALE
350
19C
  3
CMLEADERSTYLE
350
199
  3
CTABLESTYLE
350
198
  3
CVIEWDETAILSTYLE
350
19A
  3
CVIEWSECTIONSTYLE
350
19B
  0
ACDBDETAILVIEWSTYLE
  5
6B
102
{ACAD_REACTORS
330
6A
102
}
330
6A
100
AcDbModelDocViewStyle
 70
     0
  3
Imperial24
290
     1
300
Imperial24
 90
        0
100
AcDbDetailViewStyle
 70
     0
 71
     0
 90
        3
 71
     1
340
55
 62
   256
 40
0.24
340
0
 62
   256
 40
0.24
300

 40
0.36
280
     3
 71
     2
340
5D
 90
       25
 62
   256
 71
     3
340
55
 62
   256
 40
0.24
 90
        1
 40
0.75
 90
        1
300
%<\AcVar ViewType \f "%tc1">% %<\AcVar ViewDetailId>%\PSCALE %<\AcVar ViewScale \f "%sn">%
 71
     4
340
5D
 90
       25
 62
   256
340
5D
 90
       25
 62
   256
280
     0
  0
LAYOUT
  5
6F
102
{ACAD_REACTORS
330
62
102
}
330
62
100
AcDbPlotSettings
  1

  2

  4

  6

 40
0.0
 41
0.0
 42
0.0
 43
0.0
 44
0.0
 45
0.0
 46
0.0
 47
0.0
 48
0.0
 49
0.0
140
0.0
141
0.0
142
1.0
143
1.0
 70
   688
 72
     0
 73
     0
 74
     5
  7

 75
    16
147
1.0
 76
     0
 77
     2
 78
   300
148
0.0
149
0.0
100
AcDbLayout
  1
Layout1
 70
     1
 71
     1
 10
0.0
 20
0.0
 11
12.0
 21
9.0
 12
0.0
 22
0.0
 32
0.0
 14
0.0
 24
0.0
 34
0.0
 15
0.0
 25
0.0
 35
0.0
146
0.0
 13
0.0
 23
0.0
 33
0.0
 16
1.0
 26
0.0
 36
0.0
 17
0.0
 27
1.0
 37
0.0
 76
     0
330
6C
  0
LAYOUT
  5
77
102
{ACAD_REACTORS
330
62
102
}
330
62
100
AcDbPlotSettings
  1

  2

  4

  6

 40
0.0
 41
0.0
 42
0.0
 43
0.0
 44
0.0
 45
0.0
 46
0.0
 47
0.0
 48
0.0
 49
0.0
140
0.0
141
0.0
142
1.0
143
1.0
 70
   688
 72
     0
 73
     0
 74
     5
  7

 75
    16
147
1.0
 76
     0
 77
     2
 78
   300
148
0.0
149
0.0
100
AcDbLayout
  1
Layout2
 70
     1
 71
     2
 10
0.0
 20
0.0
 11
12.0
 21
9.0
 12
0.0
 22
0.0
 32
0.0
 14
0.0
 24
0.0
 34
0.0
 15
0.0
 25
0.0
 35
0.0
146
0.0
 13
0.0
 23
0.0
 33
0.0
 16
1.0
 26
0.0
 36
0.0
 17
0.0
 27
1.0
 37
0.0
 76
     0
330
74
  0
LAYOUT
  5
73
102
{ACAD_REACTORS
330
62
102
}
330
62
100
AcDbPlotSettings
  1

  2

  4

  6

 40
0.0
 41
0.0
 42
0.0
 43
0.0
 44
0.0
 45
0.0
 46
0.0
 47
0.0
 48
0.0
 49
0.0
140
0.0
141
0.0
142
1.0
143
1.0
 70
  1712
 72
     0
 73
     0
 74
     0
  7

 75
     0
147
1.0
 76
     0
 77
     2
 78
   300
148
0.0
149
0.0
100
AcDbLayout
  1
Model
 70
     1
 71
     0
 10
0.0
 20
0.0
 11
12.0
 21
9.0
 12
0.0
 22
0.0
 32
0.0
 14
0.0
 24
0.0
 34
0.0
 15
0.0
 25
0.0
 35
0.0
146
0.0
 13
0.0
 23
0.0
 33
0.0
 16
1.0
 26
0.0
 36
0.0
 17
0.0
 27
1.0
 37
0.0
 76
     0
330
70
  0
MATERIAL
  5
19
102
{ACAD_XDICTIONARY
360
1A
102
}
102
{ACAD_REACTORS
330
10
102
}
330
10
100
AcDbMaterial
  1
ByBlock
 72
     0
 43
0.0208333333333333
 43
0.0
 43
0.0
 43
0.0
 43
0.0
 43
0.0208333333333333
 43
0.0
 43
0.0
 43
0.0
 43
0.0
 43
1.0
 43
0.0
 43
0.0
 43
0.0
 43
0.0
 43
1.0
 77
     0
 47
0.0208333333333333
 47
0.0
 47
0.0
 47
0.0
 47
0.0
 47
0.0208333333333333
 47
0.0
 47
0.0
 47
0.0
 47
0.0
 47
1.0
 47
0.0
 47
0.0
 47
0.0
 47
0.0
 47
1.0
171
     0
 49
0.0208333333333333
 49
0.0
 49
0.0
 49
0.0
 49
0.0
 49
0.0208333333333333
 49
0.0
 49
0.0
 49
0.0
 49
0.0
 49
1.0
 49
0.0
 49
0.0
 49
0.0
 49
0.0
 49
1.0
175
     0
142
0.0208333333333333
142
0.0
142
0.0
142
0.0
142
0.0
142
0.0208333333333333
142
0.0
142
0.0
142
0.0
142
0.0
142
1.0
142
0.0
142
0.0
142
0.0
142
0.0
142
1.0
179
     0
144
0.0208333333333333
144
0.0
144
0.0
144
0.0
144
0.0
144
0.0208333333333333
144
0.0
144
0.0
144
0.0
144
0.0
144
1.0
144
0.0
144
0.0
144
0.0
144
0.0
144
1.0
147
0.0208333333333333
147
0.0
147
0.0
147
0.0
147
0.0
147
0.0208333333333333
147
0.0
147
0.0
147
0.0
147
0.0
147
1.0
147
0.0
147
0.0
147
0.0
147
0.0
147
1.0
  0
MATERIAL
  5
11
102
{ACAD_XDICTIONARY
360
12
102
}
102
{ACAD_REACTORS
330
10
102
}
330
10
100
AcDbMaterial
  1
ByLayer
 72
     0
 43
0.0208333333333333
 43
0.0
 43
0.0
 43
0.0
 43
0.0
 43
0.0208333333333333
 43
0.0
 43
0.0
 43
0.0
 43
0.0
 43
1.0
 43
0.0
 43
0.0
 43
0.0
 43
0.0
 43
1.0
 77
     0
 47
0.0208333333333333
 47
0.0
 47
0.0
 47
0.0
 47
0.0
 47
0.0208333333333333
 47
0.0
 47
0.0
 47
0.0
 47
0.0
 47
1.0
 47
0.0
 47
0.0
 47
0.0
 47
0.0
 47
1.0
171
     0
 49
0.0208333333333333
 49
0.0
 49
0.0
 49
0.0
 49
0.0
 49
0.0208333333333333
 49
0.0
 49
0.0
 49
0.0
 49
0.0
 49
1.0
 49
0.0
 49
0.0
 49
0.0
 49
0.0
 49
1.0
175
     0
142
0.0208333333333333
142
0.0
142
0.0
142
0.0
142
0.0
142
0.0208333333333333
142
0.0
142
0.0
142
0.0
142
0.0
142
1.0
142
0.0
142
0.0
142
0.0
142
0.0
142
1.0
179
     0
144
0.0208333333333333
144
0.0
144
0.0
144
0.0
144
0.0
144
0.0208333333333333
144
0.0
144
0.0
144
0.0
144
0.0
144
1.0
144
0.0
144
0.0
144
0.0
144
0.0
144
1.0
147
0.0208333333333333
147
0.0
147
0.0
147
0.0
147
0.0
147
0.0208333333333333
147
0.0
147
0.0
147
0.0
147
0.0
147
1.0
147
0.0
147
0.0
147
0.0
147
0.0
147
1.0
  0
MATERIAL
  5
21
102
{ACAD_XDICTIONARY
360
22
102
}
102
{ACAD_REACTORS
330
10
102
}
330
10
100
AcDbMaterial
  1
Global
 72
     0
 43
0.0208333333333333
 43
0.0
 43
0.0
 43
0.0
 43
0.0
 43
0.0208333333333333
 43
0.0
 43
0.0
 43
0.0
 43
0.0
 43
1.0
 43
0.0
 43
0.0
 43
0.0
 43
0.0
 43
1.0
 77
     0
 47
0.0208333333333333
 47
0.0
 47
0.0
 47
0.0
 47
0.0
 47
0.0208333333333333
 47
0.0
 47
0.0
 47
0.0
 47
0.0
 47
1.0
 47
0.0
 47
0.0
 47
0.0
 47
0.0
 47
1.0
171
     0
 49
0.0208333333333333
 49
0.0
 49
0.0
 49
0.0
 49
0.0
 49
0.0208333333333333
 49
0.0
 49
0.0
 49
0.0
 49
0.0
 49
1.0
 49
0.0
 49
0.0
 49
0.0
 49
0.0
 49
1.0
175
     0
142
0.0208333333333333
142
0.0
142
0.0
142
0.0
142
0.0
142
0.0208333333333333
142
0.0
142
0.0
142
0.0
142
0.0
142
1.0
142
0.0
142
0.0
142
0.0
142
0.0
142
1.0
179
     0
144
0.0208333333333333
144
0.0
144
0.0
144
0.0
144
0.0
144
0.0208333333333333
144
0.0
144
0.0
144
0.0
144
0.0
144
1.0
144
0.0
144
0.0
144
0.0
144
0.0
144
1.0
147
0.0208333333333333
147
0.0
147
0.0
147
0.0
147
0.0
147
0.0208333333333333
147
0.0
147
0.0
147
0.0
147
0.0
147
1.0
147
0.0
147
0.0
147
0.0
147
0.0
147
1.0
  0
MLEADERSTYLE
  5
67
102
{ACAD_REACTORS
330
66
102
}
330
66
100
AcDbMLeaderStyle
179
     2
170
     2
171
     1
172
     0
 90
        2
 40
0.0
 41
0.0
173
     1
 91
-1056964608
340
5B
 92
       -2
290
     1
 42
0.09
291
     1
 43
0.36
  3
Standard
 44
0.18
300

342
55
174
     1
178
     6
175
     1
176
     0
 93
-1056964608
 45
0.18
292
     0
297
     0
 46
0.18
 94
-1056964608
 47
1.0
 49
1.0
140
1.0
293
     1
141
0.0
294
     1
177
     0
142
1.0
295
     1
296
     0
143
0.125
271
     0
272
     9
273
     9
298
     1
  0
MLINESTYLE
  5
60
102
{ACAD_REACTORS
330
5F
102
}
330
5F
100
AcDbMlineStyle
  2
STANDARD
 70
     0
  3

 62
   256
 51
90.0
 52
90.0
 71
     2
 49
0.5
 62
   256
  6
BYLAYER
 49
-0.5
 62
   256
  6
BYLAYER
  0
ACDBPLACEHOLDER
  5
F
102
{ACAD_REACTORS
330
E
102
}
330
E
  0
SCALE
  5
43
102
{ACAD_REACTORS
330
42
102
}
330
42
100
AcDbScale
 70
     0
300
1:1
140
1.0
141
1.0
290
     1
  0
SCALE
  5
44
102
{ACAD_REACTORS
330
42
102
}
330
42
100
AcDbScale
 70
     0
300
1/128" = 1'-0"
140
0.0078125
141
12.0
290
     0
  0
SCALE
  5
45
102
{ACAD_REACTORS
330
42
102
}
330
42
100
AcDbScale
 70
     0
300
1/64" = 1'-0"
140
0.015625
141
12.0
290
     0
  0
SCALE
  5
46
102
{ACAD_REACTORS
330
42
102
}
330
42
100
AcDbScale
 70
     0
300
1/32" = 1'-0"
140
0.03125
141
12.0
290
     0
  0
SCALE
  5
47
102
{ACAD_REACTORS
330
42
102
}
330
42
100
AcDbScale
 70
     0
300
1/16" = 1'-0"
140
0.0625
141
12.0
290
     0
  0
SCALE
  5
48
102
{ACAD_REACTORS
330
42
102
}
330
42
100
AcDbScale
 70
     0
300
3/32" = 1'-0"
140
0.09375
141
12.0
290
     0
  0
SCALE
  5
49
102
{ACAD_REACTORS
330
42
102
}
330
42
100
AcDbScale
 70
     0
300
1/8" = 1'-0"
140
0.125
141
12.0
290
     0
  0
SCALE
  5
4A
102
{ACAD_REACTORS
330
42
102
}
330
42
100
AcDbScale
 70
     0
300
3/16" = 1'-0"
140
0.1875
141
12.0
290
     0
  0
SCALE
  5
4B
102
{ACAD_REACTORS
330
42
102
}
330
42
100
AcDbScale
 70
     0
300
1/4" = 1'-0"
140
0.25
141
12.0
290
     0
  0
SCALE
  5
4C
102
{ACAD_REACTORS
330
42
102
}
330
42
100
AcDbScale
 70
     0
300
3/8" = 1'-0"
140
0.375
141
12.0
290
     0
  0
SCALE
  5
4D
102
{ACAD_REACTORS
330
42
102
}
330
42
100
AcDbScale
 70
     0
300
1/2" = 1'-0"
140
0.5
141
12.0
290
     0
  0
SCALE
  5
4E
102
{ACAD_REACTORS
330
42
102
}
330
42
100
AcDbScale
 70
     0
300
3/4" = 1'-0"
140
0.75
141
12.0
290
     0
  0
SCALE
  5
4F
102
{ACAD_REACTORS
330
42
102
}
330
42
100
AcDbScale
 70
     0
300
1" = 1'-0"
140
1.0
141
12.0
290
     0
  0
SCALE
  5
50
102
{ACAD_REACTORS
330
42
102
}
330
42
100
AcDbScale
 70
     0
300
1-1/2" = 1'-0"
140
1.5
141
12.0
290
     0
  0
SCALE
  5
51
102
{ACAD_REACTORS
330
42
102
}
330
42
100
AcDbScale
 70
     0
300
3" = 1'-0"
140
3.0
141
12.0
290
     0
  0
SCALE
  5
52
102
{ACAD_REACTORS
330
42
102
}
330
42
100
AcDbScale
 70
     0
300
6" = 1'-0"
140
6.0
141
12.0
290
     0
  0
SCALE
  5
53
102
{ACAD_REACTORS
330
42
102
}
330
42
100
AcDbScale
 70
     0
300
1'-0" = 1'-0"
140
12.0
141
12.0
290
     0
  0
ACDBSECTIONVIEWSTYLE
  5
69
102
{ACAD_REACTORS
330
68
102
}
330
68
100
AcDbModelDocViewStyle
 70
     0
  3
Imperial24
290
     1
300
Imperial24
 90
        0
100
AcDbSectionViewStyle
 70
     0
 71
     0
 90
       78
 71
     1
340
55
 62
   256
 40
0.24
340
0
340
0
 62
   256
 40
0.24
300
I, O, Q, S, X, Z
 40
0.48
 90
        3
 40
0.18
 90
        1
 71
     2
340
5D
 90
       25
 62
   256
340
5D
 90
       50
 62
   256
 40
0.24
 40
0.0
 40
0.24
 71
     3
340
55
 62
   256
 40
0.24
 90
        1
 40
0.75
 90
        1
300
%<\AcVar ViewType \f "%tc1">% %<\AcVar ViewSectionStartId>%-%<\AcVar ViewSectionEndId>%\PSCALE %<\AcVar ViewScale \f "%sn">%
 71
     4
 62
   256
 62
   257
300
ANSI31
 40
1.0
 90
        0
290
     0
290
     0
 90
        6
 40
0.0
 40
1.570796326794896
 40
0.2617993877991494
 40
1.308996938995747
 40
-0.2617993877991494
 40
1.832595714594046
  0
TABLESTYLE
  5
65
102
{ACAD_XDICTIONARY
360
19D
102
}
102
{ACAD_REACTORS
330
64
102
}
330
64
100
AcDbTableStyle
280
     0
  3
Standard
 70
     0
 71
     0
 40
0.06
 41
0.06
280
     0
281
     0
  7
Standard
140
0.18
170
     2
 62
     0
 63
     7
283
     0
 90
      512
 91
        0
  1

274
    -2
284
     1
 64
     0
275
    -2
285
     1
 65
     0
276
    -2
286
     1
 66
     0
277
    -2
287
     1
 67
     0
278
    -2
288
     1
 68
     0
279
    -2
289
     1
 69
     0
  7
Standard
140
0.25
170
     5
 62
     0
 63
     7
283
     0
 90
      512
 91
        0
  1

274
    -2
284
     1
 64
     0
275
    -2
285
     1
 65
     0
276
    -2
286
     1
 66
     0
277
    -2
287
     1
 67
     0
278
    -2
288
     1
 68
     0
279
    -2
289
     1
 69
     0
  7
Standard
140
0.18
170
     5
 62
     0
 63
     7
283
     0
 90
      512
 91
        0
  1

274
    -2
284
     1
 64
     0
275
    -2
285
     1
 65
     0
276
    -2
286
     1
 66
     0
277
    -2
287
     1
 67
     0
278
    -2
288
     1
 68
     0
279
    -2
289
     1
 69
     0
  0
VISUALSTYLE
  5
2F
102
{ACAD_REACTORS
330
29
102
}
330
29
100
AcDbVisualStyle
  2
2dWireframe
 70
     4
177
     3
291
     0
 70
    58
 90
        0
176
     1
 90
        2
176
     1
 90
        0
176
     1
 90
        0
176
     1
 40
0.6
176
     1
 40
30.0
176
     1
 62
     7
420
 16777215
176
     1
 90
        1
176
     1
 90
        4
176
     1
 62
     7
176
     1
 62
   257
176
     1
 90
        1
176
     1
 90
        1
176
     1
 40
1.0
176
     1
 90
        0
176
     1
 62
   257
176
     1
 40
1.0
176
     1
 90
        1
176
     1
 90
        6
176
     1
 90
        2
176
     1
 62
     7
176
     1
 90
        5
176
     1
 90
        0
176
     1
 90
        0
176
     1
290
     0
176
     1
 90
        1
176
     1
 40
0.0
176
     1
 90
        0
176
     1
290
     1
176
     1
290
     1
176
     1
290
     0
176
     1
290
     0
176
     1
290
     0
176
     1
290
     0
176
     1
290
     0
176
     1
290
     0
176
     1
290
     0
176
     1
 90
       50
176
     1
 40
0.0
176
     1
 40
1.0
176
     1
 90
        0
176
     1
 62
    18
420
        0
176
     1
 90
       50
176
     1
 90
        3
176
     1
 62
     5
420
      255
176
     1
290
     0
176
     1
 90
       50
176
     1
 90
       50
176
     1
 90
       50
176
     1
290
     0
176
     1
 90
       50
176
     1
 62
   256
176
     0
 40
1.0
176
     0
 90
        2
176
     1
  1
strokes_ogs.tif
176
     1
290
     0
176
     1
 40
1.0
176
     1
 40
1.0
176
     1
  0
VISUALSTYLE
  5
2E
102
{ACAD_REACTORS
330
29
102
}
330
29
100
AcDbVisualStyle
  2
Basic
 70
     7
177
     3
291
     1
 70
    58
 90
        1
176
     1
 90
        0
176
     1
 90
        1
176
     1
 90
        0
176
     1
 40
0.6
176
     1
 40
30.0
176
     1
 62
     7
420
 16777215
176
     1
 90
        0
176
     1
 90
        4
176
     1
 62
     7
176
     1
 62
   257
176
     1
 90
        1
176
     1
 90
        1
176
     1
 40
1.0
176
     1
 90
        8
176
     1
 62
     7
176
     1
 40
1.0
176
     1
 90
        1
176
     1
 90
        6
176
     1
 90
        2
176
     1
 62
     7
176
     1
 90
        5
176
     1
 90
        0
176
     1
 90
        0
176
     1
290
     0
176
     1
 90
        1
176
     1
 40
0.0
176
     1
 90
        0
176
     1
290
     0
176
     1
290
     1
176
     1
290
     1
176
     1
290
     0
176
     1
290
     0
176
     1
290
     0
176
     1
290
     0
176
     1
290
     0
176
     1
290
     0
176
     1
 90
       50
176
     1
 40
0.0
176
     1
 40
1.0
176
     1
 90
        0
176
     1
 62
    18
420
        0
176
     1
 90
       50
176
     1
 90
        3
176
     1
 62
     5
420
      255
176
     1
290
     0
176
     1
 90
       50
176
     1
 90
       50
176
     1
 90
       50
176
     1
290
     0
176
     1
 90
       50
176
     1
 62
   256
176
     0
 40
1.0
176
     0
 90
        2
176
     1
  1
strokes_ogs.tif
176
     1
290
     0
176
     1
 40
1.0
176
     1
 40
1.0
176
     1
  0
VISUALSTYLE
  5
35
102
{ACAD_REACTORS
330
29
102
}
330
29
100
AcDbVisualStyle
  2
Brighten
 70
    12
177
     3
291
     1
 70
    58
 90
        2
176
     1
 90
        2
176
     1
 90
        0
176
     1
 90
        0
176
     1
 40
0.6
176
     1
 40
30.0
176
     1
 62
     7
420
 16777215
176
     1
 90
        1
176
     1
 90
        4
176
     1
 62
     7
176
     1
 62
   257
176
     1
 90
        1
176
     1
 90
        1
176
     1
 40
1.0
176
     1
 90
        8
176
     1
 62
     7
176
     1
 40
1.0
176
     1
 90
        1
176
     1
 90
        6
176
     1
 90
        2
176
     1
 62
     7
176
     1
 90
        5
176
     1
 90
        0
176
     1
 90
        0
176
     1
290
     0
176
     1
 90
        1
176
     1
 40
50.0
176
     1
 90
        0
176
     1
290
     0
176
     1
290
     1
176
     1
290
     1
176
     1
290
     0
176
     1
290
     0
176
     1
290
     0
176
     1
290
     0
176
     1
290
     0
176
     1
290
     0
176
     1
 90
       50
176
     1
 40
0.0
176
     1
 40
1.0
176
     1
 90
        0
176
     1
 62
    18
420
        0
176
     1
 90
       50
176
     1
 90
        3
176
     1
 62
     5
420
      255
176
     1
290
     0
176
     1
 90
       50
176
     1
 90
       50
176
     1
 90
       50
176
     1
290
     0
176
     1
 90
       50
176
     1
 62
   256
176
     0
 40
1.0
176
     0
 90
        2
176
     1
  1
strokes_ogs.tif
176
     1
290
     0
176
     1
 40
1.0
176
     1
 40
1.0
176
     1
  0
VISUALSTYLE
  5
39
102
{ACAD_REACTORS
330
29
102
}
330
29
100
AcDbVisualStyle
  2
ColorChange
 70
    16
177
     3
291
     1
 70
    58
 90
        2
176
     1
 90
        2
176
     1
 90
        3
176
     1
 90
        0
176
     1
 40
0.6
176
     1
 40
30.0
176
     1
 62
     8
420
  8421504
176
     1
 90
        1
176
     1
 90
        4
176
     1
 62
     7
176
     1
 62
   257
176
     1
 90
        1
176
     1
 90
        1
176
     1
 40
1.0
176
     1
 90
        8
176
     1
 62
     8
420
  8421504
176
     1
 40
1.0
176
     1
 90
        1
176
     1
 90
        6
176
     1
 90
        2
176
     1
 62
     7
176
     1
 90
        5
176
     1
 90
        0
176
     1
 90
        0
176
     1
290
     0
176
     1
 90
        1
176
     1
 40
0.0
176
     1
 90
        0
176
     1
290
     0
176
     1
290
     1
176
     1
290
     1
176
     1
290
     0
176
     1
290
     0
176
     1
290
     0
176
     1
290
     0
176
     1
290
     0
176
     1
290
     0
176
     1
 90
       50
176
     1
 40
0.0
176
     1
 40
1.0
176
     1
 90
        0
176
     1
 62
    18
420
        0
176
     1
 90
       50
176
     1
 90
        3
176
     1
 62
     5
420
      255
176
     1
290
     0
176
     1
 90
       50
176
     1
 90
       50
176
     1
 90
       50
176
     1
290
     0
176
     1
 90
       50
176
     1
 62
   256
176
     0
 40
1.0
176
     0
 90
        2
176
     1
  1
strokes_ogs.tif
176
     1
290
     0
176
     1
 40
1.0
176
     1
 40
1.0
176
     1
  0
VISUALSTYLE
  5
32
102
{ACAD_REACTORS
330
29
102
}
330
29
100
AcDbVisualStyle
  2
Conceptual
 70
     9
177
     3
291
     0
 70
    58
 90
        3
176
     1
 90
        2
176
     1
 90
        0
176
     1
 90
        0
176
     1
 40
0.6
176
     1
 40
30.0
176
     1
 62
     7
420
 16777215
176
     1
 90
        2
176
     1
 90
        2
176
     1
 62
     7
176
     1
 62
   257
176
     1
 90
        1
176
     1
 90
        1
176
     1
 40
179.0
176
     1
 90
        8
176
     1
 62
     7
176
     1
 40
1.0
176
     1
 90
        1
176
     1
 90
        6
176
     1
 90
        2
176
     1
 62
     7
176
     1
 90
        3
176
     1
 90
        0
176
     1
 90
        0
176
     1
290
     0
176
     1
 90
        1
176
     1
 40
0.0
176
     1
 90
        0
176
     1
290
     0
176
     1
290
     1
176
     1
290
     1
176
     1
290
     0
176
     1
290
     0
176
     1
290
     0
176
     1
290
     0
176
     1
290
     0
176
     1
290
     0
176
     1
 90
       50
176
     1
 40
0.0
176
     1
 40
1.0
176
     1
 90
        0
176
     1
 62
    18
420
        0
176
     1
 90
       50
176
     1
 90
        3
176
     1
 62
     5
420
      255
176
     1
290
     0
176
     1
 90
       50
176
     1
 90
       50
176
     1
 90
       50
176
     1
290
     0
176
     1
 90
       50
176
     1
 62
   256
176
     0
 40
1.0
176
     0
 90
        2
176
     1
  1
strokes_ogs.tif
176
     1
290
     0
176
     1
 40
1.0
176
     1
 40
1.0
176
     1
  0
VISUALSTYLE
  5
34
102
{ACAD_REACTORS
330
29
102
}
330
29
100
AcDbVisualStyle
  2
Dim
 70
    11
177
     3
291
     1
 70
    58
 90
        2
176
     1
 90
        2
176
     1
 90
        0
176
     1
 90
        0
176
     1
 40
0.6
176
     1
 40
30.0
176
     1
 62
     7
420
 16777215
176
     1
 90
        1
176
     1
 90
        4
176
     1
 62
     7
176
     1
 62
   257
176
     1
 90
        1
176
     1
 90
        1
176
     1
 40
1.0
176
     1
 90
        8
176
     1
 62
     7
176
     1
 40
1.0
176
     1
 90
        1
176
     1
 90
        6
176
     1
 90
        2
176
     1
 62
     7
176
     1
 90
        5
176
     1
 90
        0
176
     1
 90
        0
176
     1
290
     0
176
     1
 90
        1
176
     1
 40
-50.0
176
     1
 90
        0
176
     1
290
     0
176
     1
290
     1
176
     1
290
     1
176
     1
290
     0
176
     1
290
     0
176
     1
290
     0
176
     1
290
     0
176
     1
290
     0
176
     1
290
     0
176
     1
 90
       50
176
     1
 40
0.0
176
     1
 40
1.0
176
     1
 90
        0
176
     1
 62
    18
420
        0
176
     1
 90
       50
176
     1
 90
        3
176
     1
 62
     5
420
      255
176
     1
290
     0
176
     1
 90
       50
176
     1
 90
       50
176
     1
 90
       50
176
     1
290
     0
176
     1
 90
       50
176
     1
 62
   256
176
     0
 40
1.0
176
     0
 90
        2
176
     1
  1
strokes_ogs.tif
176
     1
290
     0
176
     1
 40
1.0
176
     1
 40
1.0
176
     1
  0
VISUALSTYLE
  5
41
102
{ACAD_REACTORS
330
29
102
}
330
29
100
AcDbVisualStyle
  2
EdgeColorOff
 70
    22
177
     3
291
     1
 70
    58
 90
        2
176
     0
 90
        2
176
     0
 90
        0
176
     0
 90
        0
176
     0
 40
0.6
176
     0
 40
30.0
176
     0
 62
     7
420
 16777215
176
     0
 90
        1
176
     0
 90
        4
176
     0
 62
     7
176
     0
 62
   257
176
     0
 90
        1
176
     0
 90
        1
176
     0
 40
1.0
176
     0
 90
        8
176
     2
 62
     7
176
     0
 40
1.0
176
     0
 90
        1
176
     0
 90
        6
176
     0
 90
        2
176
     0
 62
     7
176
     0
 90
        5
176
     0
 90
        0
176
     0
 90
        0
176
     0
290
     0
176
     0
 90
        1
176
     0
 40
0.0
176
     0
 90
        0
176
     0
290
     0
176
     0
290
     1
176
     0
290
     1
176
     0
290
     0
176
     0
290
     0
176
     0
290
     0
176
     0
290
     0
176
     0
290
     0
176
     0
290
     0
176
     0
 90
       50
176
     0
 40
0.0
176
     0
 40
1.0
176
     0
 90
        0
176
     0
 62
    18
420
        0
176
     0
 90
       50
176
     0
 90
        3
176
     0
 62
     5
420
      255
176
     0
290
     0
176
     0
 90
       50
176
     0
 90
       50
176
     0
 90
       50
176
     0
290
     0
176
     0
 90
       50
176
     0
 62
   256
176
     0
 40
1.0
176
     0
 90
        2
176
     0
  1
strokes_ogs.tif
176
     0
290
     0
176
     0
 40
1.0
176
     0
 40
1.0
176
     0
  0
VISUALSTYLE
  5
38
102
{ACAD_REACTORS
330
29
102
}
330
29
100
AcDbVisualStyle
  2
Facepattern
 70
    15
177
     3
291
     1
 70
    58
 90
        2
176
     1
 90
        2
176
     1
 90
        0
176
     1
 90
        0
176
     1
 40
0.6
176
     1
 40
30.0
176
     1
 62
     7
420
 16777215
176
     1
 90
        1
176
     1
 90
        4
176
     1
 62
     7
176
     1
 62
   257
176
     1
 90
        1
176
     1
 90
        1
176
     1
 40
1.0
176
     1
 90
        8
176
     1
 62
     7
176
     1
 40
1.0
176
     1
 90
        1
176
     1
 90
        6
176
     1
 90
        2
176
     1
 62
     7
176
     1
 90
        5
176
     1
 90
        0
176
     1
 90
        0
176
     1
290
     0
176
     1
 90
        1
176
     1
 40
0.0
176
     1
 90
        0
176
     1
290
     0
176
     1
290
     1
176
     1
290
     1
176
     1
290
     0
176
     1
290
     0
176
     1
290
     0
176
     1
290
     0
176
     1
290
     0
176
     1
290
     0
176
     1
 90
       50
176
     1
 40
0.0
176
     1
 40
1.0
176
     1
 90
        0
176
     1
 62
    18
420
        0
176
     1
 90
       50
176
     1
 90
        3
176
     1
 62
     5
420
      255
176
     1
290
     0
176
     1
 90
       50
176
     1
 90
       50
176
     1
 90
       50
176
     1
290
     0
176
     1
 90
       50
176
     1
 62
   256
176
     0
 40
1.0
176
     0
 90
        2
176
     1
  1
strokes_ogs.tif
176
     1
290
     0
176
     1
 40
1.0
176
     1
 40
1.0
176
     1
  0
VISUALSTYLE
  5
2A
102
{ACAD_REACTORS
330
29
102
}
330
29
100
AcDbVisualStyle
  2
Flat
 70
     0
177
     3
291
     1
 70
    58
 90
        2
176
     1
 90
        1
176
     1
 90
        1
176
     1
 90
        2
176
     1
 40
0.6
176
     1
 40
30.0
176
     1
 62
     7
420
 16777215
176
     1
 90
        0
176
     1
 90
        0
176
     1
 62
     7
176
     1
 62
   257
176
     1
 90
        1
176
     1
 90
        1
176
     1
 40
1.0
176
     1
 90
        8
176
     1
 62
     7
176
     1
 40
1.0
176
     1
 90
        1
176
     1
 90
        6
176
     1
 90
        2
176
     1
 62
     7
176
     1
 90
        5
176
     1
 90
        0
176
     1
 90
        0
176
     1
290
     0
176
     1
 90
       13
176
     1
 40
0.0
176
     1
 90
        0
176
     1
290
     0
176
     1
290
     1
176
     1
290
     1
176
     1
290
     0
176
     1
290
     0
176
     1
290
     0
176
     1
290
     0
176
     1
290
     0
176
     1
290
     0
176
     1
 90
       50
176
     1
 40
0.0
176
     1
 40
1.0
176
     1
 90
        0
176
     1
 62
    18
420
        0
176
     1
 90
       50
176
     1
 90
        3
176
     1
 62
     5
420
      255
176
     1
290
     0
176
     1
 90
       50
176
     1
 90
       50
176
     1
 90
       50
176
     1
290
     0
176
     1
 90
       50
176
     1
 62
   256
176
     0
 40
1.0
176
     0
 90
        2
176
     1
  1
strokes_ogs.tif
176
     1
290
     0
176
     1
 40
1.0
176
     1
 40
1.0
176
     1
  0
VISUALSTYLE
  5
2B
102
{ACAD_REACTORS
330
29
102
}
330
29
100
AcDbVisualStyle
  2
FlatWithEdges
 70
     1
177
     3
291
     1
 70
    58
 90
        2
176
     1
 90
        1
176
     1
 90
        1
176
     1
 90
        2
176
     1
 40
0.6
176
     1
 40
30.0
176
     1
 62
     7
420
 16777215
176
     1
 90
        1
176
     1
 90
        0
176
     1
 62
     7
176
     1
 62
   257
176
     1
 90
        1
176
     1
 90
        1
176
     1
 40
1.0
176
     1
 90
        0
176
     1
 62
   257
176
     1
 40
1.0
176
     1
 90
        1
176
     1
 90
        6
176
     1
 90
        2
176
     1
 62
     7
176
     1
 90
        5
176
     1
 90
        0
176
     1
 90
        0
176
     1
290
     0
176
     1
 90
       13
176
     1
 40
0.0
176
     1
 90
        0
176
     1
290
     0
176
     1
290
     1
176
     1
290
     1
176
     1
290
     0
176
     1
290
     0
176
     1
290
     0
176
     1
290
     0
176
     1
290
     0
176
     1
290
     0
176
     1
 90
       50
176
     1
 40
0.0
176
     1
 40
1.0
176
     1
 90
        0
176
     1
 62
    18
420
        0
176
     1
 90
       50
176
     1
 90
        3
176
     1
 62
     5
420
      255
176
     1
290
     0
176
     1
 90
       50
176
     1
 90
       50
176
     1
 90
       50
176
     1
290
     0
176
     1
 90
       50
176
     1
 62
   256
176
     0
 40
1.0
176
     0
 90
        2
176
     1
  1
strokes_ogs.tif
176
     1
290
     0
176
     1
 40
1.0
176
     1
 40
1.0
176
     1
  0
VISUALSTYLE
  5
2C
102
{ACAD_REACTORS
330
29
102
}
330
29
100
AcDbVisualStyle
  2
Gouraud
 70
     2
177
     3
291
     1
 70
    58
 90
        2
176
     1
 90
        2
176
     1
 90
        1
176
     1
 90
        2
176
     1
 40
0.6
176
     1
 40
30.0
176
     1
 62
     7
420
 16777215
176
     1
 90
        0
176
     1
 90
        0
176
     1
 62
     7
176
     1
 62
   257
176
     1
 90
        1
176
     1
 90
        1
176
     1
 40
1.0
176
     1
 90
        0
176
     1
 62
     7
176
     1
 40
1.0
176
     1
 90
        1
176
     1
 90
        6
176
     1
 90
        2
176
     1
 62
     7
176
     1
 90
        5
176
     1
 90
        0
176
     1
 90
        0
176
     1
290
     0
176
     1
 90
       13
176
     1
 40
0.0
176
     1
 90
        0
176
     1
290
     0
176
     1
290
     1
176
     1
290
     1
176
     1
290
     0
176
     1
290
     0
176
     1
290
     0
176
     1
290
     0
176
     1
290
     0
176
     1
290
     0
176
     1
 90
       50
176
     1
 40
0.0
176
     1
 40
1.0
176
     1
 90
        0
176
     1
 62
    18
420
        0
176
     1
 90
       50
176
     1
 90
        3
176
     1
 62
     5
420
      255
176
     1
290
     0
176
     1
 90
       50
176
     1
 90
       50
176
     1
 90
       50
176
     1
290
     0
176
     1
 90
       50
176
     1
 62
   256
176
     0
 40
1.0
176
     0
 90
        2
176
     1
  1
strokes_ogs.tif
176
     1
290
     0
176
     1
 40
1.0
176
     1
 40
1.0
176
     1
  0
VISUALSTYLE
  5
2D
102
{ACAD_REACTORS
330
29
102
}
330
29
100
AcDbVisualStyle
  2
GouraudWithEdges
 70
     3
177
     3
291
     1
 70
    58
 90
        2
176
     1
 90
        2
176
     1
 90
        1
176
     1
 90
        2
176
     1
 40
0.6
176
     1
 40
30.0
176
     1
 62
     7
420
 16777215
176
     1
 90
        1
176
     1
 90
        0
176
     1
 62
     7
176
     1
 62
   257
176
     1
 90
        1
176
     1
 90
        1
176
     1
 40
1.0
176
     1
 90
        0
176
     1
 62
   257
176
     1
 40
1.0
176
     1
 90
        1
176
     1
 90
        6
176
     1
 90
        2
176
     1
 62
     7
176
     1
 90
        5
176
     1
 90
        0
176
     1
 90
        0
176
     1
290
     0
176
     1
 90
       13
176
     1
 40
0.0
176
     1
 90
        0
176
     1
290
     0
176
     1
290
     1
176
     1
290
     1
176
     1
290
     0
176
     1
290
     0
176
     1
290
     0
176
     1
290
     0
176
     1
290
     0
176
     1
290
     0
176
     1
 90
       50
176
     1
 40
0.0
176
     1
 40
1.0
176
     1
 90
        0
176
     1
 62
    18
420
        0
176
     1
 90
       50
176
     1
 90
        3
176
     1
 62
     5
420
      255
176
     1
290
     0
176
     1
 90
       50
176
     1
 90
       50
176
     1
 90
       50
176
     1
290
     0
176
     1
 90
       50
176
     1
 62
   256
176
     0
 40
1.0
176
     0
 90
        2
176
     1
  1
strokes_ogs.tif
176
     1
290
     0
176
     1
 40
1.0
176
     1
 40
1.0
176
     1
  0
VISUALSTYLE
  5
31
102
{ACAD_REACTORS
330
29
102
}
330
29
100
AcDbVisualStyle
  2
Hidden
 70
     6
177
     3
291
     0
 70
    58
 90
        1
176
     1
 90
        2
176
     1
 90
        2
176
     1
 90
        0
176
     1
 40
0.6
176
     1
 40
30.0
176
     1
 62
     7
420
 16777215
176
     1
 90
        2
176
     1
 90
        2
176
     1
 62
     7
176
     1
 62
   257
176
     1
 90
        2
176
     1
 90
        1
176
     1
 40
40.0
176
     1
 90
        0
176
     1
 62
   257
176
     1
 40
1.0
176
     1
 90
        1
176
     1
 90
        6
176
     1
 90
        2
176
     1
 62
     7
176
     1
 90
        3
176
     1
 90
        0
176
     1
 90
        0
176
     1
290
     0
176
     1
 90
        1
176
     1
 40
0.0
176
     1
 90
        0
176
     1
290
     0
176
     1
290
     1
176
     1
290
     1
176
     1
290
     0
176
     1
290
     0
176
     1
290
     0
176
     1
290
     0
176
     1
290
     0
176
     1
290
     0
176
     1
 90
       50
176
     1
 40
0.0
176
     1
 40
1.0
176
     1
 90
        0
176
     1
 62
    18
420
        0
176
     1
 90
       50
176
     1
 90
        3
176
     1
 62
     5
420
      255
176
     1
290
     0
176
     1
 90
       50
176
     1
 90
       50
176
     1
 90
       50
176
     1
290
     0
176
     1
 90
       50
176
     1
 62
   256
176
     0
 40
1.0
176
     0
 90
        2
176
     1
  1
strokes_ogs.tif
176
     1
290
     0
176
     1
 40
1.0
176
     1
 40
1.0
176
     1
  0
VISUALSTYLE
  5
3F
102
{ACAD_REACTORS
330
29
102
}
330
29
100
AcDbVisualStyle
  2
JitterOff
 70
    20
177
     3
291
     1
 70
    58
 90
        2
176
     0
 90
        2
176
     0
 90
        0
176
     0
 90
        0
176
     0
 40
0.6
176
     0
 40
30.0
176
     0
 62
     7
420
 16777215
176
     0
 90
        1
176
     0
 90
        4
176
     0
 62
     7
176
     0
 62
   257
176
     0
 90
        1
176
     0
 90
        1
176
     0
 40
1.0
176
     0
 90
       10
176
     2
 62
     7
176
     0
 40
1.0
176
     0
 90
        1
176
     0
 90
        6
176
     0
 90
        2
176
     0
 62
     7
176
     0
 90
        5
176
     0
 90
        0
176
     0
 90
        0
176
     0
290
     0
176
     0
 90
        1
176
     0
 40
0.0
176
     0
 90
        0
176
     0
290
     0
176
     0
290
     1
176
     0
290
     1
176
     0
290
     0
176
     0
290
     0
176
     0
290
     0
176
     0
290
     0
176
     0
290
     0
176
     0
290
     0
176
     0
 90
       50
176
     0
 40
0.0
176
     0
 40
1.0
176
     0
 90
        0
176
     0
 62
    18
420
        0
176
     0
 90
       50
176
     0
 90
        3
176
     0
 62
     5
420
      255
176
     0
290
     0
176
     0
 90
       50
176
     0
 90
       50
176
     0
 90
       50
176
     0
290
     0
176
     0
 90
       50
176
     0
 62
   256
176
     0
 40
1.0
176
     0
 90
        2
176
     0
  1
strokes_ogs.tif
176
     0
290
     0
176
     0
 40
1.0
176
     0
 40
1.0
176
     0
  0
VISUALSTYLE
  5
37
102
{ACAD_REACTORS
330
29
102
}
330
29
100
AcDbVisualStyle
  2
Linepattern
 70
    14
177
     3
291
     1
 70
    58
 90
        2
176
     1
 90
        2
176
     1
 90
        0
176
     1
 90
        0
176
     1
 40
0.6
176
     1
 40
30.0
176
     1
 62
     7
420
 16777215
176
     1
 90
        1
176
     1
 90
        4
176
     1
 62
     7
176
     1
 62
   257
176
     1
 90
        7
176
     1
 90
        7
176
     1
 40
1.0
176
     1
 90
        8
176
     1
 62
     7
176
     1
 40
1.0
176
     1
 90
        1
176
     1
 90
        6
176
     1
 90
        2
176
     1
 62
     7
176
     1
 90
        5
176
     1
 90
        0
176
     1
 90
        0
176
     1
290
     0
176
     1
 90
        1
176
     1
 40
0.0
176
     1
 90
        0
176
     1
290
     0
176
     1
290
     1
176
     1
290
     1
176
     1
290
     0
176
     1
290
     0
176
     1
290
     0
176
     1
290
     0
176
     1
290
     0
176
     1
290
     0
176
     1
 90
       50
176
     1
 40
0.0
176
     1
 40
1.0
176
     1
 90
        0
176
     1
 62
    18
420
        0
176
     1
 90
       50
176
     1
 90
        3
176
     1
 62
     5
420
      255
176
     1
290
     0
176
     1
 90
       50
176
     1
 90
       50
176
     1
 90
       50
176
     1
290
     0
176
     1
 90
       50
176
     1
 62
   256
176
     0
 40
1.0
176
     0
 90
        2
176
     1
  1
strokes_ogs.tif
176
     1
290
     0
176
     1
 40
1.0
176
     1
 40
1.0
176
     1
  0
VISUALSTYLE
  5
40
102
{ACAD_REACTORS
330
29
102
}
330
29
100
AcDbVisualStyle
  2
OverhangOff
 70
    21
177
     3
291
     1
 70
    58
 90
        2
176
     0
 90
        2
176
     0
 90
        0
176
     0
 90
        0
176
     0
 40
0.6
176
     0
 40
30.0
176
     0
 62
     7
420
 16777215
176
     0
 90
        1
176
     0
 90
        4
176
     0
 62
     7
176
     0
 62
   257
176
     0
 90
        1
176
     0
 90
        1
176
     0
 40
1.0
176
     0
 90
        9
176
     2
 62
     7
176
     0
 40
1.0
176
     0
 90
        1
176
     0
 90
        6
176
     0
 90
        2
176
     0
 62
     7
176
     0
 90
        5
176
     0
 90
        0
176
     0
 90
        0
176
     0
290
     0
176
     0
 90
        1
176
     0
 40
0.0
176
     0
 90
        0
176
     0
290
     0
176
     0
290
     1
176
     0
290
     1
176
     0
290
     0
176
     0
290
     0
176
     0
290
     0
176
     0
290
     0
176
     0
290
     0
176
     0
290
     0
176
     0
 90
       50
176
     0
 40
0.0
176
     0
 40
1.0
176
     0
 90
        0
176
     0
 62
    18
420
        0
176
     0
 90
       50
176
     0
 90
        3
176
     0
 62
     5
420
      255
176
     0
290
     0
176
     0
 90
       50
176
     0
 90
       50
176
     0
 90
       50
176
     0
290
     0
176
     0
 90
       50
176
     0
 62
   256
176
     0
 40
1.0
176
     0
 90
        2
176
     0
  1
strokes_ogs.tif
176
     0
290
     0
176
     0
 40
1.0
176
     0
 40
1.0
176
     0
  0
VISUALSTYLE
  5
33
102
{ACAD_REACTORS
330
29
102
}
330
29
100
AcDbVisualStyle
  2
Realistic
 70
     8
177
     3
291
     0
 70
    58
 90
        2
176
     1
 90
        3
176
     1
 90
        0
176
     1
 90
        2
176
     1
 40
0.6
176
     1
 40
30.0
176
     1
 62
     7
420
 16777215
176
     1
 90
        0
176
     1
 90
        0
176
     1
 62
     7
176
     1
 62
   257
176
     1
 90
        1
176
     1
 90
        1
176
     1
 40
1.0
176
     1
 90
        8
176
     1
 62
   257
176
     1
 40
1.0
176
     1
 90
        1
176
     1
 90
        6
176
     1
 90
        2
176
     1
 62
     7
176
     1
 90
        3
176
     1
 90
        0
176
     1
 90
        0
176
     1
290
     0
176
     1
 90
       13
176
     1
 40
0.0
176
     1
 90
        0
176
     1
290
     0
176
     1
290
     1
176
     1
290
     1
176
     1
290
     0
176
     1
290
     0
176
     1
290
     0
176
     1
290
     0
176
     1
290
     0
176
     1
290
     0
176
     1
 90
       50
176
     1
 40
0.0
176
     1
 40
1.0
176
     1
 90
        0
176
     1
 62
    18
420
        0
176
     1
 90
       50
176
     1
 90
        3
176
     1
 62
     5
420
      255
176
     1
290
     0
176
     1
 90
       50
176
     1
 90
       50
176
     1
 90
       50
176
     1
290
     0
176
     1
 90
       50
176
     1
 62
   256
176
     0
 40
1.0
176
     0
 90
        2
176
     1
  1
strokes_ogs.tif
176
     1
290
     0
176
     1
 40
1.0
176
     1
 40
1.0
176
     1
  0
VISUALSTYLE
  5
3E
102
{ACAD_REACTORS
330
29
102
}
330
29
100
AcDbVisualStyle
  2
Shaded
 70
    27
177
     3
291
     0
 70
    58
 90
        2
176
     1
 90
        2
176
     1
 90
        1
176
     1
 90
        2
176
     1
 40
0.6
176
     1
 40
30.0
176
     1
 62
     7
420
 16777215
176
     1
 90
        0
176
     1
 90
        4
176
     1
 62
     7
176
     1
 62
   257
176
     1
 90
        1
176
     1
 90
        1
176
     1
 40
1.0
176
     1
 90
        8
176
     1
 62
   257
176
     1
 40
1.0
176
     1
 90
        1
176
     1
 90
        6
176
     1
 90
        2
176
     1
 62
     8
420
  7895160
176
     1
 90
        3
176
     1
 90
        0
176
     1
 90
        0
176
     1
290
     0
176
     1
 90
        5
176
     1
 40
0.0
176
     1
 90
        0
176
     1
290
     0
176
     1
290
     1
176
     1
290
     1
176
     1
290
     0
176
     1
290
     0
176
     1
290
     0
176
     1
290
     0
176
     1
290
     0
176
     1
290
     0
176
     1
 90
       50
176
     1
 40
0.0
176
     1
 40
1.0
176
     1
 90
        0
176
     1
 62
    18
420
        0
176
     1
 90
       50
176
     1
 90
        3
176
     1
 62
     5
420
      255
176
     1
290
     0
176
     1
 90
       50
176
     1
 90
       50
176
     1
 90
       50
176
     1
290
     0
176
     1
 90
       50
176
     1
 62
   256
176
     0
 40
1.0
176
     0
 90
        2
176
     1
  1
strokes_ogs.tif
176
     1
290
     0
176
     1
 40
1.0
176
     1
 40
1.0
176
     1
  0
VISUALSTYLE
  5
3D
102
{ACAD_REACTORS
330
29
102
}
330
29
100
AcDbVisualStyle
  2
Shaded with edges
 70
    26
177
     3
291
     0
 70
    58
 90
        2
176
     1
 90
        2
176
     1
 90
        1
176
     1
 90
        2
176
     1
 40
0.6
176
     1
 40
30.0
176
     1
 62
     7
420
 16777215
176
     1
 90
        1
176
     1
 90
        2
176
     1
 62
     7
176
     1
 62
   257
176
     1
 90
        2
176
     1
 90
        1
176
     1
 40
1.0
176
     1
 90
        8
176
     1
 62
   257
176
     1
 40
1.0
176
     1
 90
        1
176
     1
 90
        6
176
     1
 90
        2
176
     1
 62
     7
176
     1
 90
        3
176
     1
 90
        0
176
     1
 90
        0
176
     1
290
     0
176
     1
 90
        5
176
     1
 40
0.0
176
     1
 90
        0
176
     1
290
     0
176
     1
290
     1
176
     1
290
     1
176
     1
290
     0
176
     1
290
     0
176
     1
290
     0
176
     1
290
     0
176
     1
290
     0
176
     1
290
     0
176
     1
 90
       50
176
     1
 40
0.0
176
     1
 40
1.0
176
     1
 90
        0
176
     1
 62
    18
420
        0
176
     1
 90
       50
176
     1
 90
        3
176
     1
 62
     5
420
      255
176
     1
290
     0
176
     1
 90
       50
176
     1
 90
       50
176
     1
 90
       50
176
     1
290
     0
176
     1
 90
       50
176
     1
 62
   256
176
     0
 40
1.0
176
     0
 90
        2
176
     1
  1
strokes_ogs.tif
176
     1
290
     0
176
     1
 40
1.0
176
     1
 40
1.0
176
     1
  0
VISUALSTYLE
  5
3A
102
{ACAD_REACTORS
330
29
102
}
330
29
100
AcDbVisualStyle
  2
Shades of Gray
 70
    23
177
     3
291
     0
 70
    58
 90
        2
176
     1
 90
        2
176
     1
 90
        3
176
     1
 90
        0
176
     1
 40
0.6
176
     1
 40
30.0
176
     1
 62
     7
420
 16777215
176
     1
 90
        2
176
     1
 90
        2
176
     1
 62
     7
176
     1
 62
     7
176
     1
 90
        1
176
     1
 90
        1
176
     1
 40
40.0
176
     1
 90
        8
176
     1
 62
     7
176
     1
 40
1.0
176
     1
 90
        1
176
     1
 90
        6
176
     1
 90
        2
176
     1
 62
     7
176
     1
 90
        3
176
     1
 90
        0
176
     1
 90
        0
176
     1
290
     0
176
     1
 90
        1
176
     1
 40
0.0
176
     1
 90
        0
176
     1
290
     0
176
     1
290
     1
176
     1
290
     1
176
     1
290
     0
176
     1
290
     0
176
     1
290
     0
176
     1
290
     0
176
     1
290
     0
176
     1
290
     0
176
     1
 90
       50
176
     1
 40
0.0
176
     1
 40
1.0
176
     1
 90
        0
176
     1
 62
    18
420
        0
176
     1
 90
       50
176
     1
 90
        3
176
     1
 62
     5
420
      255
176
     1
290
     0
176
     1
 90
       50
176
     1
 90
       50
176
     1
 90
       50
176
     1
290
     0
176
     1
 90
       50
176
     1
 62
   256
176
     0
 40
1.0
176
     0
 90
        2
176
     1
  1
strokes_ogs.tif
176
     1
290
     0
176
     1
 40
1.0
176
     1
 40
1.0
176
     1
  0
VISUALSTYLE
  5
3B
102
{ACAD_REACTORS
330
29
102
}
330
29
100
AcDbVisualStyle
  2
Sketchy
 70
    24
177
     3
291
     0
 70
    58
 90
        1
176
     1
 90
        2
176
     1
 90
        2
176
     1
 90
        0
176
     1
 40
0.6
176
     1
 40
30.0
176
     1
 62
     7
420
 16777215
176
     1
 90
        2
176
     1
 90
        2
176
     1
 62
     7
176
     1
 62
     7
176
     1
 90
        1
176
     1
 90
        1
176
     1
 40
40.0
176
     1
 90
       11
176
     1
 62
     7
176
     1
 40
1.0
176
     1
 90
        1
176
     1
 90
        6
176
     1
 90
        2
176
     1
 62
     7
176
     1
 90
        6
176
     1
 90
        0
176
     1
 90
        0
176
     1
290
     0
176
     1
 90
        1
176
     1
 40
0.0
176
     1
 90
        0
176
     1
290
     0
176
     1
290
     1
176
     1
290
     1
176
     1
290
     0
176
     1
290
     0
176
     1
290
     0
176
     1
290
     0
176
     1
290
     0
176
     1
290
     0
176
     1
 90
       50
176
     1
 40
0.0
176
     1
 40
1.0
176
     1
 90
        0
176
     1
 62
    18
420
        0
176
     1
 90
       50
176
     1
 90
        3
176
     1
 62
     5
420
      255
176
     1
290
     0
176
     1
 90
       50
176
     1
 90
       50
176
     1
 90
       50
176
     1
290
     0
176
     1
 90
       50
176
     1
 62
   256
176
     0
 40
1.0
176
     0
 90
        2
176
     1
  1
strokes_ogs.tif
176
     1
290
     0
176
     1
 40
1.0
176
     1
 40
1.0
176
     1
  0
VISUALSTYLE
  5
36
102
{ACAD_REACTORS
330
29
102
}
330
29
100
AcDbVisualStyle
  2
Thicken
 70
    13
177
     3
291
     1
 70
    58
 90
        2
176
     1
 90
        2
176
     1
 90
        0
176
     1
 90
        0
176
     1
 40
0.6
176
     1
 40
30.0
176
     1
 62
     7
420
 16777215
176
     1
 90
        1
176
     1
 90
        4
176
     1
 62
     7
176
     1
 62
   257
176
     1
 90
        1
176
     1
 90
        1
176
     1
 40
1.0
176
     1
 90
       12
176
     1
 62
     7
176
     1
 40
1.0
176
     1
 90
        1
176
     1
 90
        6
176
     1
 90
        2
176
     1
 62
     7
176
     1
 90
        5
176
     1
 90
        0
176
     1
 90
        0
176
     1
290
     0
176
     1
 90
        1
176
     1
 40
0.0
176
     1
 90
        0
176
     1
290
     0
176
     1
290
     1
176
     1
290
     1
176
     1
290
     0
176
     1
290
     0
176
     1
290
     0
176
     1
290
     0
176
     1
290
     0
176
     1
290
     0
176
     1
 90
       50
176
     1
 40
0.0
176
     1
 40
1.0
176
     1
 90
        0
176
     1
 62
    18
420
        0
176
     1
 90
       50
176
     1
 90
        3
176
     1
 62
     5
420
      255
176
     1
290
     0
176
     1
 90
       50
176
     1
 90
       50
176
     1
 90
       50
176
     1
290
     0
176
     1
 90
       50
176
     1
 62
   256
176
     0
 40
1.0
176
     0
 90
        2
176
     1
  1
strokes_ogs.tif
176
     1
290
     0
176
     1
 40
1.0
176
     1
 40
1.0
176
     1
  0
VISUALSTYLE
  5
30
102
{ACAD_REACTORS
330
29
102
}
330
29
100
AcDbVisualStyle
  2
Wireframe
 70
     5
177
     3
291
     0
 70
    58
 90
        0
176
     1
 90
        2
176
     1
 90
        0
176
     1
 90
        0
176
     1
 40
0.6
176
     1
 40
30.0
176
     1
 62
     7
420
 16777215
176
     1
 90
        1
176
     1
 90
        4
176
     1
 62
     7
176
     1
 62
   257
176
     1
 90
        1
176
     1
 90
        1
176
     1
 40
1.0
176
     1
 90
        0
176
     1
 62
   257
176
     1
 40
1.0
176
     1
 90
        1
176
     1
 90
        6
176
     1
 90
        2
176
     1
 62
     7
176
     1
 90
        3
176
     1
 90
        0
176
     1
 90
        0
176
     1
290
     0
176
     1
 90
        1
176
     1
 40
0.0
176
     1
 90
        0
176
     1
290
     0
176
     1
290
     1
176
     1
290
     1
176
     1
290
     0
176
     1
290
     0
176
     1
290
     0
176
     1
290
     0
176
     1
290
     0
176
     1
290
     0
176
     1
 90
       50
176
     1
 40
0.0
176
     1
 40
1.0
176
     1
 90
        0
176
     1
 62
    18
420
        0
176
     1
 90
       50
176
     1
 90
        3
176
     1
 62
     5
420
      255
176
     1
290
     0
176
     1
 90
       50
176
     1
 90
       50
176
     1
 90
       50
176
     1
290
     0
176
     1
 90
       50
176
     1
 62
   256
176
     0
 40
1.0
176
     0
 90
        2
176
     1
  1
strokes_ogs.tif
176
     1
290
     0
176
     1
 40
1.0
176
     1
 40
1.0
176
     1
  0
VISUALSTYLE
  5
3C
102
{ACAD_REACTORS
330
29
102
}
330
29
100
AcDbVisualStyle
  2
X-Ray
 70
    25
177
     3
291
     0
 70
    58
 90
        2
176
     1
 90
        2
176
     1
 90
        1
176
     1
 90
        1
176
     1
 40
0.5
176
     1
 40
30.0
176
     1
 62
     7
420
 16777215
176
     1
 90
        1
176
     1
 90
        0
176
     1
 62
     7
176
     1
 62
   257
176
     1
 90
        1
176
     1
 90
        1
176
     1
 40
1.0
176
     1
 90
        8
176
     1
 62
     7
176
     1
 40
1.0
176
     1
 90
        1
176
     1
 90
        6
176
     1
 90
        2
176
     1
 62
     7
176
     1
 90
        3
176
     1
 90
        0
176
     1
 90
        0
176
     1
290
     0
176
     1
 90
       13
176
     1
 40
0.0
176
     1
 90
        0
176
     1
290
     0
176
     1
290
     1
176
     1
290
     1
176
     1
290
     0
176
     1
290
     0
176
     1
290
     0
176
     1
290
     0
176
     1
290
     0
176
     1
290
     0
176
     1
 90
       50
176
     1
 40
0.0
176
     1
 40
1.0
176
     1
 90
        0
176
     1
 62
    18
420
        0
176
     1
 90
       50
176
     1
 90
        3
176
     1
 62
     5
420
      255
176
     1
290
     0
176
     1
 90
       50
176
     1
 90
       50
176
     1
 90
       50
176
     1
290
     0
176
     1
 90
       50
176
     1
 62
   256
176
     0
 40
1.0
176
     0
 90
        2
176
     1
  1
strokes_ogs.tif
176
     1
290
     0
176
     1
 40
1.0
176
     1
 40
1.0
176
     1
  0
DICTIONARYVAR
  5
19C
102
{ACAD_REACTORS
330
197
102
}
330
197
100
DictionaryVariables
280
     0
  1
1:1
  0
DICTIONARYVAR
  5
199
102
{ACAD_REACTORS
330
197
102
}
330
197
100
DictionaryVariables
280
     0
  1
STANDARD
  0
DICTIONARYVAR
  5
198
102
{ACAD_REACTORS
330
197
102
}
330
197
100
DictionaryVariables
280
     0
  1
STANDARD
  0
DICTIONARYVAR
  5
19A
102
{ACAD_REACTORS
330
197
102
}
330
197
100
DictionaryVariables
280
     0
  1
Imperial24
  0
DICTIONARYVAR
  5
19B
102
{ACAD_REACTORS
330
197
102
}
330
197
100
DictionaryVariables
280
     0
  1
Imperial24
  0
DICTIONARY
  5
1A
330
19
100
AcDbDictionary
280
     1
281
     1
  3
BUMPTILE
360
1C
  3
DIFFUSETILE
360
1B
  3
OPACITYTILE
360
1F
  3
REFLECTIONTILE
360
1E
  3
REFRACTIONTILE
360
20
  3
SPECULARTILE
360
1D
  0
DICTIONARY
  5
12
330
11
100
AcDbDictionary
280
     1
281
     1
  3
BUMPTILE
360
14
  3
DIFFUSETILE
360
13
  3
OPACITYTILE
360
17
  3
REFLECTIONTILE
360
16
  3
REFRACTIONTILE
360
18
  3
SPECULARTILE
360
15
  0
DICTIONARY
  5
22
330
21
100
AcDbDictionary
280
     1
281
     1
  3
BUMPTILE
360
24
  3
DIFFUSETILE
360
23
  3
OPACITYTILE
360
27
  3
REFLECTIONTILE
360
26
  3
REFRACTIONTILE
360
28
  3
SPECULARTILE
360
25
  0
DICTIONARY
  5
19D
330
65
100
AcDbDictionary
280
     1
281
     1
  3
ACAD_ROUNDTRIP_2008_TABLESTYLE_CELLSTYLEMAP
360
19E
  0
XRECORD
  5
1C
102
{ACAD_REACTORS
330
1A
102
}
330
1A
100
AcDbXrecord
280
     1
270
     1
271
     1
  0
XRECORD
  5
1B
102
{ACAD_REACTORS
330
1A
102
}
330
1A
100
AcDbXrecord
280
     1
270
     1
271
     1
  0
XRECORD
  5
1F
102
{ACAD_REACTORS
330
1A
102
}
330
1A
100
AcDbXrecord
280
     1
270
     1
271
     1
  0
XRECORD
  5
1E
102
{ACAD_REACTORS
330
1A
102
}
330
1A
100
AcDbXrecord
280
     1
270
     1
271
     1
  0
XRECORD
  5
20
102
{ACAD_REACTORS
330
1A
102
}
330
1A
100
AcDbXrecord
280
     1
270
     1
271
     1
  0
XRECORD
  5
1D
102
{ACAD_REACTORS
330
1A
102
}
330
1A
100
AcDbXrecord
280
     1
270
     1
271
     1
  0
XRECORD
  5
14
102
{ACAD_REACTORS
330
12
102
}
330
12
100
AcDbXrecord
280
     1
270
     1
271
     1
  0
XRECORD
  5
13
102
{ACAD_REACTORS
330
12
102
}
330
12
100
AcDbXrecord
280
     1
270
     1
271
     1
  0
XRECORD
  5
17
102
{ACAD_REACTORS
330
12
102
}
330
12
100
AcDbXrecord
280
     1
270
     1
271
     1
  0
XRECORD
  5
16
102
{ACAD_REACTORS
330
12
102
}
330
12
100
AcDbXrecord
280
     1
270
     1
271
     1
  0
XRECORD
  5
18
102
{ACAD_REACTORS
330
12
102
}
330
12
100
AcDbXrecord
280
     1
270
     1
271
     1
  0
XRECORD
  5
15
102
{ACAD_REACTORS
330
12
102
}
330
12
100
AcDbXrecord
280
     1
270
     1
271
     1
  0
XRECORD
  5
24
102
{ACAD_REACTORS
330
22
102
}
330
22
100
AcDbXrecord
280
     1
270
     1
271
     1
  0
XRECORD
  5
23
102
{ACAD_REACTORS
330
22
102
}
330
22
100
AcDbXrecord
280
     1
270
     1
271
     1
  0
XRECORD
  5
27
102
{ACAD_REACTORS
330
22
102
}
330
22
100
AcDbXrecord
280
     1
270
     1
271
     1
  0
XRECORD
  5
26
102
{ACAD_REACTORS
330
22
102
}
330
22
100
AcDbXrecord
280
     1
270
     1
271
     1
  0
XRECORD
  5
28
102
{ACAD_REACTORS
330
22
102
}
330
22
100
AcDbXrecord
280
     1
270
     1
271
     1
  0
XRECORD
  5
25
102
{ACAD_REACTORS
330
22
102
}
330
22
100
AcDbXrecord
280
     1
270
     1
271
     1
  0
CELLSTYLEMAP
  5
19E
102
{ACAD_REACTORS
330
19D
102
}
330
19D
100
AcDbCellStyleMap
 90
        3
300
CELLSTYLE
  1
TABLEFORMAT_BEGIN
 90
        5
170
     1
 91
        0
 92
    32768
 62
   257
 93
        1
300
CONTENTFORMAT
  1
CONTENTFORMAT_BEGIN
 90
        0
 91
        0
 92
      512
 93
        0
300

 40
0.0
140
1.0
 94
        5
 62
     0
340
55
144
0.25
309
CONTENTFORMAT_END
171
     0
 94
        0
309
TABLEFORMAT_END
  1
CELLSTYLE_BEGIN
 90
        1
 91
        1
300
_TITLE
309
CELLSTYLE_END
300
CELLSTYLE
  1
TABLEFORMAT_BEGIN
 90
        5
170
     1
 91
        0
 92
        0
 62
   257
 93
        1
300
CONTENTFORMAT
  1
CONTENTFORMAT_BEGIN
 90
        0
 91
        0
 92
      512
 93
        0
300

 40
0.0
140
1.0
 94
        5
 62
     0
340
55
144
0.18
309
CONTENTFORMAT_END
171
     0
 94
        0
309
TABLEFORMAT_END
  1
CELLSTYLE_BEGIN
 90
        2
 91
        1
300
_HEADER
309
CELLSTYLE_END
300
CELLSTYLE
  1
TABLEFORMAT_BEGIN
 90
        5
170
     1
 91
        0
 92
        0
 62
   257
 93
        1
300
CONTENTFORMAT
  1
CONTENTFORMAT_BEGIN
 90
        0
 91
        0
 92
      512
 93
        0
300

 40
0.0
140
1.0
 94
        2
 62
     0
340
55
144
0.18
309
CONTENTFORMAT_END
171
     0
 94
        0
309
TABLEFORMAT_END
  1
CELLSTYLE_BEGIN
 90
        3
 91
        2
300
_DATA
309
CELLSTYLE_END
  0
ENDSEC
  0
EOF
