  0
SECTION
  2
HEADER
  9
$ACADVER
  1
AC1009
  9
$INSBASE
 10
0
 20
0
 30
0
  9
$EXTMIN
 10
0
 20
0
  9
$EXTMAX
 10
1682
 20
1188
  9
$LIMMIN
 10
0
 20
0
  9
$LIMMAX
 10
1682
 20
1188
  9
$LTSCALE
 40
2
  0
ENDSEC
  0
SECTION
  2
TABLES
  0
TABLE
  2
LTYPE
 70
     9
  0
LTYPE
  2
CONTINUOUS
 70
    64
  3
実線
 72
    65
 73
     0
 40
0.0
  0
LTYPE
  2
DASHED1
 70
    64
  3
--  --  --  --  --  --  --  --  
 72
    65
 73
     2
 40
2.5
 49
1.25
 49
-1.25
  0
LTYPE
  2
DASHED2
 70
    64
  3
----    ----    ----    ----    
 72
    65
 73
     2
 40
5.0
 49
2.5
 49
-2.5
  0
LTYPE
  2
DASHED3
 70
    64
  3
------  ------  ------  ------  
 72
    65
 73
     2
 40
5.0
 49
3.75
 49
-1.25
  0
LTYPE
  2
CENTER1
 70
    64
  3
----- - ----- - ----- - ----- - 
 72
    65
 73
     4
 40
10.0
 49
6.25
 49
-1.25
 49
1.25
 49
-1.25
  0
LTYPE
  2
CENTER2
 70
    64
  3
----------  --  ----------  --  
 72
    65
 73
     4
 40
20.0
 49
12.5
 49
-2.5
 49
2.5
 49
-2.5
  0
LTYPE
  2
PHANTOM1
 70
    64
  3
--- - - --- - - --- - - --- - - 
 72
    65
 73
     6
 40
10.0
 49
3.25
 49
-1.25
 49
1.25
 49
-1.25
 49
1.25
 49
-1.25
  0
LTYPE
  2
PHANTOM2
 70
    64
  3
--------  -  -  --------  -  -  
 72
    65
 73
     6
 40
20.0
 49
10.0
 49
-2.5
 49
1.25
 49
-2.5
 49
1.25
 49
-2.5
  0
LTYPE
  2
DOT
 70
    64
  3
-   -   -   -   -   -   -   -   
 72
    65
 73
     2
 40
2.5
 49
0.625
 49
-1.875
  0
LTYPE
  2
DUMMY
 70
    64
  3
ダミー
 72
    65
 73
     0
 40
0.0
  0
LTYPE
  2
RAND1
 70
    64
  3
ランダム線1
 72
    65
 73
     4
 40
10.0
 49
1.0
 49
-2.0
 49
3.0
 49
-4.0
  0
LTYPE
  2
RAND2
 70
    64
  3
ランダム線2
 72
    65
 73
     4
 40
14.0
 49
2.0
 49
-3.0
 49
4.0
 49
-5.0
  0
LTYPE
  2
RAND3
 70
    64
  3
ランダム線3
 72
    65
 73
     4
 40
18.0
 49
3.0
 49
-4.0
 49
5.0
 49
-6.0
  0
LTYPE
  2
RAND4
 70
    64
  3
ランダム線4
 72
    65
 73
     4
 40
22.0
 49
4.0
 49
-5.0
 49
6.0
 49
-7.0
  0
LTYPE
  2
RAND5
 70
    64
  3
ランダム線5
 72
    65
 73
     4
 40
26.0
 49
5.0
 49
-6.0
 49
7.0
 49
-8.0
  0
LTYPE
  2
LONG1
 70
    64
  3
----------  --  ----------  --  
 72
    65
 73
     4
 40
40.0
 49
32.5
 49
-2.5
 49
2.5
 49
-2.5
  0
LTYPE
  2
LONG2
 70
    64
  3
--------  -  -  --------  -  -  
 72
    65
 73
     6
 40
40.0
 49
30.0
 49
-2.5
 49
1.25
 49
-2.5
 49
1.25
 49
-2.5
  0
LTYPE
  2
LONG3
 70
    64
  3
+++++++++++++++..+++++++++++++++
 72
    65
 73
     2
 40
40.0
 49
37.5
 49
-2.5
  0
LTYPE
  2
LONG4
 70
    64
  3
+++++++++++++++..+++++++++++++++
 72
    65
 73
     2
 40
80.0
 49
75.0
 49
-5.0
  0
LTYPE
  2
LONG5
 70
    64
  3
----------  --  ----------  --  
 72
    65
 73
     4
 40
60.0
 49
37.5
 49
-7.5
 49
7.5
 49
-7.5
  0
LTYPE
  2
dashed
 70
   64
  3
-------   -------------   ------
 72
   65
 73
    2
 40
7.5
 49
6
 49
-1.5
  0
LTYPE
  2
dashed_spaced
 70
   64
  3
----        --------        ----
 72
   65
 73
    2
 40
12
 49
6
 49
-6
  0
LTYPE
  2
long_dashed_dotted
 70
   64
  3
------------- --- --------------
 72
   65
 73
    4
 40
15.25
 49
12
 49
-1.5
 49
0.25
 49
-1.5
  0
LTYPE
  2
long_dashed_double-dotted
 70
   64
  3
----------- --- --- ------------
 72
   65
 73
    6
 40
17
 49
12
 49
-1.5
 49
0.25
 49
-1.5
 49
0.25
 49
-1.5
  0
LTYPE
  2
long_dashed_triplicate-dotted
 70
   64
  3
--------- --- --- --- ----------
 72
   65
 73
    8
 40
18.75
 49
12
 49
-1.5
 49
0.25
 49
-1.5
 49
0.25
 49
-1.5
 49
0.25
 49
-1.5
  0
LTYPE
  2
dotted
 70
   64
  3
   -       -       -       -    
 72
   65
 73
    2
 40
1.75
 49
0.25
 49
-1.5
  0
LTYPE
  2
chain
 70
   64
  3
-------------- -- --------------
 72
   65
 73
    4
 40
18.5
 49
12
 49
-1.5
 49
3.5
 49
-1.5
  0
LTYPE
  2
chain_double_dash
 70
   64
  3
------------ -- -- -------------
 72
   65
 73
    6
 40
23.5
 49
12
 49
-1.5
 49
3.5
 49
-1.5
 49
3.5
 49
-1.5
  0
LTYPE
  2
dashed_dotted
 70
   64
  3
-----------     -     ----------
 72
   65
 73
    4
 40
9.25
 49
6
 49
-1.5
 49
0.25
 49
-1.5
  0
LTYPE
  2
double-dashed_dotted
 70
   64
  3
------   -----------   -   -----
 72
   65
 73
    6
 40
16.75
 49
6
 49
-1.5
 49
6
 49
-1.5
 49
0.25
 49
-1.5
  0
LTYPE
  2
dashed_double-dotted
 70
   64
  3
---------    -    -    ---------
 72
   65
 73
    6
 40
11
 49
6
 49
-1.5
 49
0.25
 49
-1.5
 49
0.25
 49
-1.5
  0
LTYPE
  2
double-dashed_double-dotted
 70
   64
  3
-----   ---------   -   -   ----
 72
   65
 73
    8
 40
18.5
 49
6
 49
-1.5
 49
6
 49
-1.5
 49
0.25
 49
-1.5
 49
0.25
 49
-1.5
  0
LTYPE
  2
dashed_triplicate-dotted
 70
   64
  3
-------    -    -    -    ------
 72
   65
 73
    8
 40
12.75
 49
6
 49
-1.5
 49
0.25
 49
-1.5
 49
0.25
 49
-1.5
 49
0.25
 49
-1.5
  0
LTYPE
  2
double-dashed_triplicate-dotted
 70
   64
  3
-----  ---------  -  -  -  -----
 72
   65
 73
   10
 40
20.25
 49
6
 49
-1.5
 49
6
 49
-1.5
 49
0.25
 49
-1.5
 49
0.25
 49
-1.5
 49
0.25
 49
-1.5
  0
LTYPE
  2
undefined
 70
   64
  3
--------------------------------
 72
   65
 73
    0
 40
0
  0
LTYPE
  2
_
 70
   64
  3
                                
 72
   65
 73
    0
 40
0
  0
LTYPE
  2
__18
 70
   64
  3
                                
 72
   65
 73
    0
 40
0
  0
LTYPE
  2
__19
 70
   64
  3
                                
 72
   65
 73
    0
 40
0
  0
LTYPE
  2
__20
 70
   64
  3
                                
 72
   65
 73
    0
 40
0
  0
LTYPE
  2
__21
 70
   64
  3
                                
 72
   65
 73
    0
 40
0
  0
LTYPE
  2
__22
 70
   64
  3
                                
 72
   65
 73
    0
 40
0
  0
LTYPE
  2
__23
 70
   64
  3
                                
 72
   65
 73
    0
 40
0
  0
LTYPE
  2
__24
 70
   64
  3
                                
 72
   65
 73
    0
 40
0
  0
LTYPE
  2
__25
 70
   64
  3
                                
 72
   65
 73
    0
 40
0
  0
LTYPE
  2
__26
 70
   64
  3
                                
 72
   65
 73
    0
 40
0
  0
LTYPE
  2
__27
 70
   64
  3
                                
 72
   65
 73
    0
 40
0
  0
LTYPE
  2
__28
 70
   64
  3
                                
 72
   65
 73
    0
 40
0
  0
LTYPE
  2
__29
 70
   64
  3
                                
 72
   65
 73
    0
 40
0
  0
LTYPE
  2
__30
 70
   64
  3
                                
 72
   65
 73
    0
 40
0
  0
LTYPE
  2
__31
 70
   64
  3
                                
 72
   65
 73
    0
 40
0
  0
LTYPE
  2
__32
 70
   64
  3
                                
 72
   65
 73
    0
 40
0
  0
ENDTAB
  0
TABLE
  2
STYLE
  5
3
100
AcDbSymbolTable
 70
     1
  0
STYLE
  5
10
100
AcDbSymbolTableRecord
100
AcDbTextStyleTableRecord
  2
STANDARD
 70
     0
 40
0.0
 41
1.0
 50
0.0
 71
     0
 42
0.2
  3
txt
  4
bigfont.shx
  0
STYLE
  5
26
100
AcDbSymbolTableRecord
100
AcDbTextStyleTableRecord
  2
TATEGAKI
 70
    68
 40
0.0
 41
1.0
 50
0.0
 71
     0
 42
1.0
  3
txt
  4
bigfont.shx
  0
ENDTAB
  0
TABLE
  2
LAYER
 70
    6
  0
LAYER
  2
_0-0_天板
 70
   64
 62
    7
  6
CONTINUOUS
  0
LAYER
  2
_0-1_ボウル
 70
   64
 62
    7
  6
CONTINUOUS
  0
LAYER
  2
_0-2_コ__キングテ__プ
 70
   64
 62
    7
  6
CONTINUOUS
  0
LAYER
  2
_0-3_
 70
   64
 62
    7
  6
CONTINUOUS
  0
LAYER
  2
_8-0_
 70
   64
 62
    7
  6
CONTINUOUS
  0
LAYER
  2
ADD_LINE
 70
   64
 62
    7
  6
CONTINUOUS
  0
ENDTAB
  0
ENDSEC
  0
SECTION
  2
BLOCKS
  0
ENDSEC
  0
SECTION
  2
ENTITIES
  0
LINE
  8
_0-1_ボウル
  6
CONTINUOUS
 62
    4
 10
208.18628172085254
 20
1124.1000295069407
 11
208.18628172085254
 21
688.1000295069407
  0
LINE
  8
_0-1_ボウル
  6
CONTINUOUS
 62
    4
 10
442.6862817208522
 20
862.60002950694081
 11
529.68628172085209
 21
862.60002950694081
  0
LINE
  8
_0-1_ボウル
  6
CONTINUOUS
 62
    4
 10
529.68628172085209
 20
862.60002950694081
 11
529.68628172085209
 21
949.6000295069407
  0
LINE
  8
_0-1_ボウル
  6
CONTINUOUS
 62
    4
 10
529.68628172085209
 20
949.6000295069407
 11
442.6862817208522
 21
949.6000295069407
  0
LINE
  8
_0-1_ボウル
  6
CONTINUOUS
 62
    4
 10
442.6862817208522
 20
949.6000295069407
 11
442.6862817208522
 21
862.60002950694081
  0
CIRCLE
  8
_0-1_ボウル
  6
CONTINUOUS
 62
    4
 10
486.18628172085243
 20
906.1000295069407
 40
35
  0
CIRCLE
  8
_0-1_ボウル
  6
CONTINUOUS
 62
    4
 10
486.18628172085243
 20
906.1000295069407
 40
23.000000000000003
  0
LINE
  8
_0-1_ボウル
  6
CONTINUOUS
 62
    4
 10
208.18628172085254
 20
688.1000295069407
 11
764.18628172085232
 21
688.1000295069407
  0
LINE
  8
_0-1_ボウル
  6
CONTINUOUS
 62
    4
 10
764.18628172085232
 20
1124.1000295069407
 11
208.18628172085254
 21
1124.1000295069407
  0
LINE
  8
_0-1_ボウル
  6
CONTINUOUS
 62
    4
 10
764.18628172085232
 20
1124.1000295069407
 11
764.18628172085232
 21
688.1000295069407
  0
LINE
  8
_0-1_ボウル
  6
CONTINUOUS
 62
    4
 10
208.18628172085254
 20
1124.1000295069407
 11
442.6862817208522
 21
949.6000295069407
  0
LINE
  8
_0-1_ボウル
  6
CONTINUOUS
 62
    4
 10
529.68628172085209
 20
949.6000295069407
 11
764.18628172085232
 21
1124.1000295069407
  0
LINE
  8
_0-1_ボウル
  6
CONTINUOUS
 62
    4
 10
442.6862817208522
 20
862.60002950694081
 11
208.18628172085254
 21
688.1000295069407
  0
LINE
  8
_0-1_ボウル
  6
CONTINUOUS
 62
    4
 10
529.68628172085209
 20
862.60002950694081
 11
764.18628172085232
 21
688.1000295069407
  0
ARC
  8
_0-1_ボウル
  6
CONTINUOUS
 62
    4
 10
191.18628172085277
 20
1136.1000295069407
 40
5
 50
90
 51
180
  0
LINE
  8
_0-1_ボウル
  6
CONTINUOUS
 62
    4
 10
186.18628172085277
 20
676.1000295069407
 11
186.18628172085277
 21
1136.1000295069407
  0
ARC
  8
_0-1_ボウル
  6
CONTINUOUS
 62
    4
 10
191.18628172085277
 20
676.1000295069407
 40
5
 50
180
 51
270
  0
LINE
  8
_0-1_ボウル
  6
CONTINUOUS
 62
    4
 10
781.18628172085243
 20
671.1000295069407
 11
191.18628172085277
 21
671.1000295069407
  0
ARC
  8
_0-1_ボウル
  6
CONTINUOUS
 62
    4
 10
781.18628172085243
 20
676.1000295069407
 40
5
 50
270
 51
0
  0
LINE
  8
_0-1_ボウル
  6
CONTINUOUS
 62
    4
 10
781.18628172085243
 20
1141.1000295069407
 11
191.18628172085277
 21
1141.1000295069407
  0
LINE
  8
_0-1_ボウル
  6
CONTINUOUS
 62
    4
 10
786.18628172085243
 20
1136.1000295069407
 11
786.18628172085243
 21
676.1000295069407
  0
ARC
  8
_0-1_ボウル
  6
CONTINUOUS
 62
    4
 10
781.18628172085243
 20
1136.1000295069407
 40
5
 50
0
 51
90
  0
LINE
  8
_0-0_天板
  6
CENTER1
 62
    4
 10
486.18628172085209
 20
244.46562636823705
 11
486.18628172085209
 21
481.10743976937328
  0
LINE
  8
_0-1_ボウル
  6
CONTINUOUS
 62
    7
 10
1239.3950291036637
 20
396.80361300680306
 11
1239.3950291036637
 21
384.80361300680328
  0
LINE
  8
_0-1_ボウル
  6
CONTINUOUS
 62
    7
 10
1239.3950291036637
 20
384.80361300680328
 11
1253.514711690261
 21
384.80361300680328
  0
LINE
  8
_0-1_ボウル
  6
CONTINUOUS
 62
    7
 10
1439.3950291036637
 20
307.80361300680334
 11
1451.3950291036635
 21
295.80361300680317
  0
LINE
  8
_0-1_ボウル
  6
CONTINUOUS
 62
    7
 10
1509.3950291036637
 20
307.80361300680334
 11
1497.3950291036633
 21
295.80361300680317
  0
LINE
  8
_0-1_ボウル
  6
CONTINUOUS
 62
    7
 10
1431.1100856229363
 20
307.80361300680334
 11
1517.6799725843907
 21
307.80361300680334
  0
LINE
  8
_0-1_ボウル
  6
CONTINUOUS
 62
    7
 10
1256.3950291036635
 20
396.80361300680306
 11
1431.1100856229363
 21
307.80361300680334
  0
LINE
  8
_0-1_ボウル
  6
CONTINUOUS
 62
    7
 10
1709.3950291036635
 20
396.80361300680306
 11
1709.3950291036635
 21
384.80361300680328
  0
LINE
  8
_0-1_ボウル
  6
CONTINUOUS
 62
    7
 10
1709.3950291036635
 20
384.80361300680328
 11
1695.2753465170662
 21
384.80361300680328
  0
LINE
  8
_0-1_ボウル
  6
CONTINUOUS
 62
    7
 10
1692.395029103663
 20
396.80361300680306
 11
1517.6799725843907
 21
307.80361300680334
  0
LINE
  8
_0-1_ボウル
  6
CONTINUOUS
 62
    7
 10
1239.3950291036637
 20
396.80361300680306
 11
1709.3950291036635
 21
396.80361300680306
  0
LINE
  8
_0-1_ボウル
  6
CONTINUOUS
 62
    7
 10
1253.514711690261
 20
384.80361300680328
 11
1428.2297682095336
 21
295.80361300680317
  0
LINE
  8
_0-1_ボウル
  6
CONTINUOUS
 62
    7
 10
1695.2753465170662
 20
384.80361300680328
 11
1520.5602899977934
 21
295.80361300680317
  0
LINE
  8
_0-1_ボウル
  6
CONTINUOUS
 62
    7
 10
1428.2297682095336
 20
295.80361300680317
 11
1520.5602899977934
 21
295.80361300680317
  0
SOLID
  8
_0-2_コ__キングテ__プ
  6
CONTINUOUS
 62
    4
 10
1244.3950291036637
 20
384.80361300680328
 11
1244.3950291036637
 21
381.80361300680306
 12
1239.3950291036637
 22
384.80361300680328
 13
1239.3950291036637
 23
381.80361300680306
  0
LINE
  8
_0-0_天板
  6
CONTINUOUS
 62
    7
 10
1239.3950291036637
 20
396.80361300680306
 11
1239.3950291036637
 21
384.80361300680328
  0
LINE
  8
_0-0_天板
  6
CONTINUOUS
 62
    7
 10
1239.3950291036637
 20
396.80361300680306
 11
1239.3950291036637
 21
381.80361300680306
  0
LINE
  8
_0-0_天板
  6
CONTINUOUS
 62
    7
 10
1239.3950291036637
 20
381.80361300680306
 11
1246.3950291036635
 21
381.80361300680306
  0
LINE
  8
_0-0_天板
  6
CONTINUOUS
 62
    4
 10
1192.8116255486097
 20
371.8036130068026
 11
1217.8116255486095
 21
396.80361300680226
  0
LINE
  8
_0-0_天板
  6
CONTINUOUS
 62
    4
 10
1178.6694899248864
 20
371.8036130068034
 11
1203.6694899248843
 21
396.80361300680146
  0
LINE
  8
_0-0_天板
  6
CONTINUOUS
 62
    4
 10
1164.5273543011517
 20
371.80361300680192
 11
1189.5273543011519
 21
396.80361300680226
  0
LINE
  8
_0-0_天板
  6
CONTINUOUS
 62
    7
 10
1246.3950291036635
 20
381.80361300680306
 11
1246.3950291036635
 21
371.80361300680306
  0
LINE
  8
_0-0_天板
  6
CONTINUOUS
 62
    4
 10
1235.2380324198111
 20
371.80361300680419
 11
1245.2380324198109
 21
381.80361300680374
  0
LINE
  8
_0-0_天板
  6
CONTINUOUS
 62
    4
 10
1221.0958967960764
 20
371.8036130068026
 11
1239.3950291036637
 21
390.10274531438994
  0
LINE
  8
_0-0_天板
  6
CONTINUOUS
 62
    4
 10
1206.953761172344
 20
371.8036130068034
 11
1231.9537611723442
 21
396.80361300680374
  0
LINE
  8
_0-0_天板
  6
CENTER1
 62
    4
 10
1474.395029103663
 20
244.46562636823705
 11
1474.395029103663
 21
481.10743976937328
  0
LINE
  8
_0-0_天板
  6
CONTINUOUS
 62
    7
 10
1709.3950291036628
 20
396.80361300680306
 11
1709.3950291036628
 21
384.80361300680328
  0
LINE
  8
_0-0_天板
  6
CONTINUOUS
 62
    7
 10
1709.3950291036628
 20
396.80361300680306
 11
1709.3950291036628
 21
381.80361300680306
  0
LINE
  8
_0-0_天板
  6
CONTINUOUS
 62
    7
 10
1709.3950291036628
 20
381.80361300680306
 11
1702.395029103663
 21
381.80361300680306
  0
LINE
  8
_0-0_天板
  6
CONTINUOUS
 62
    7
 10
1702.395029103663
 20
381.80361300680306
 11
1702.395029103663
 21
371.80361300680306
  0
LINE
  8
_0-0_天板
  6
CONTINUOUS
 62
    7
 10
1791.5054604983299
 20
396.80361300680306
 11
1709.3950291036628
 21
396.80361300680306
  0
LINE
  8
_0-0_天板
  6
CONTINUOUS
 62
    7
 10
1791.5054604983299
 20
371.80361300680306
 11
1702.395029103663
 21
371.80361300680306
  0
LINE
  8
_0-0_天板
  6
CONTINUOUS
 62
    7
 10
1157.2845977089966
 20
396.80361300680306
 11
1239.3950291036637
 21
396.80361300680306
  0
LINE
  8
_0-0_天板
  6
CONTINUOUS
 62
    7
 10
1157.2845977089966
 20
371.80361300680306
 11
1246.3950291036635
 21
371.80361300680306
  0
LINE
  8
_0-0_天板
  6
CONTINUOUS
 62
    4
 10
1157.2845977089966
 20
392.84512766210468
 11
1161.2430830536927
 21
396.80361300680078
  0
LINE
  8
_0-0_天板
  6
CONTINUOUS
 62
    4
 10
1157.2845977089966
 20
378.70299203838044
 11
1175.3852186774197
 21
396.8036130068034
  0
LINE
  8
_0-0_天板
  6
CONTINUOUS
 62
    4
 10
1786.5227707517522
 20
371.80361300680226
 11
1791.5054604983306
 21
376.78630275338036
  0
LINE
  8
_0-0_天板
  6
CONTINUOUS
 62
    4
 10
1772.3806351280184
 20
371.80361300680146
 11
1791.5054604983333
 21
390.92843837711643
  0
LINE
  8
_0-0_天板
  6
CONTINUOUS
 62
    4
 10
1758.238499504293
 20
371.80361300680033
 11
1783.2384995042934
 21
396.80361300680112
  0
LINE
  8
_0-0_天板
  6
CONTINUOUS
 62
    4
 10
1744.0963638805608
 20
371.80361300680169
 11
1769.0963638805612
 21
396.80361300680226
  0
LINE
  8
_0-0_天板
  6
CONTINUOUS
 62
    4
 10
1729.9542282568288
 20
371.80361300680283
 11
1754.954228256829
 21
396.80361300680328
  0
LINE
  8
_0-0_天板
  6
CONTINUOUS
 62
    4
 10
1715.8120926330961
 20
371.80361300680374
 11
1740.8120926330932
 21
396.80361300680067
  0
LINE
  8
_0-0_天板
  6
CONTINUOUS
 62
    4
 10
1702.3950291036653
 20
372.52868510109703
 11
1726.6699570093692
 21
396.80361300680078
  0
LINE
  8
_0-0_天板
  6
CONTINUOUS
 62
    4
 10
1709.3950291036644
 20
393.67082072482935
 11
1712.5278213856367
 21
396.80361300680181
  0
SOLID
  8
_0-2_コ__キングテ__プ
  6
CONTINUOUS
 62
    4
 10
1704.3950291036626
 20
384.80361300680328
 11
1704.3950291036626
 21
381.80361300680306
 12
1709.3950291036626
 22
384.80361300680328
 13
1709.3950291036626
 23
381.80361300680306
  0
LINE
  8
_0-0_天板
  6
CONTINUOUS
 62
    7
 10
1709.3950291036626
 20
381.80361300680306
 11
1702.3950291036626
 21
381.80361300680306
  0
LINE
  8
_0-3_
  6
CONTINUOUS
 62
    4
 10
1239.3950291036637
 20
472.47700452740969
 11
1709.3950291036628
 21
472.47700452740969
  0
LINE
  8
_0-3_
  6
CONTINUOUS
 62
    7
 10
1239.3950291036637
 20
472.47700452740969
 11
1253.8839164979995
 21
476.35929020394746
  0
LINE
  8
_0-3_
  6
CONTINUOUS
 62
    7
 10
1239.3950291036637
 20
472.47700452740969
 11
1253.8839164979995
 21
468.59471885087179
  0
LINE
  8
_0-3_
  6
CONTINUOUS
 62
    7
 10
1709.3950291036628
 20
472.47700452740969
 11
1694.9061417093266
 21
468.59471885087179
  0
LINE
  8
_0-3_
  6
CONTINUOUS
 62
    7
 10
1709.3950291036628
 20
472.47700452740969
 11
1694.9061417093266
 21
476.35929020394746
  0
LINE
  8
_0-3_
  6
CONTINUOUS
 62
    4
 10
1239.3950291036637
 20
472.47700452740969
 11
1239.3950291036637
 21
413.87590510622851
  0
LINE
  8
_0-3_
  6
CONTINUOUS
 62
    4
 10
1709.3950291036628
 20
472.47700452740969
 11
1709.3950291036628
 21
413.87590510622851
  0
TEXT
  8
_0-3_
 62
    7
 10
1461.895029103663
 20
474.97700452740969
 40
15
 41
1
 50
0
  1
470
  0
LINE
  8
_0-3_
  6
CONTINUOUS
 62
    4
 10
1747.8878107279178
 20
459.08378497849309
 11
1862.3965152331734
 21
459.08378497849309
  0
LINE
  8
_0-3_
  6
CONTINUOUS
 62
    4
 10
1709.3950291036626
 20
396.8036130068034
 11
1747.8878107279178
 21
459.08378497849309
  0
LINE
  8
_0-3_
  6
CONTINUOUS
 62
    7
 10
1709.3950291036626
 20
396.8036130068034
 11
1713.7100719947775
 21
411.16955901978269
  0
LINE
  8
_0-3_
  6
CONTINUOUS
 62
    7
 10
1709.3950291036626
 20
396.8036130068034
 11
1720.3149388722772
 21
407.08736575788157
  0
LINE
  8
_0-3_
  6
CONTINUOUS
 62
    7
 10
365.8106896160408
 20
127.99398138665344
 11
365.8106896160408
 21
158.95535240748637
  0
LINE
  8
_0-3_
  6
CONTINUOUS
 62
    7
 10
605.65014256683616
 20
127.99398138665344
 11
365.8106896160408
 21
127.99398138665344
  0
LINE
  8
_0-3_
  6
CONTINUOUS
 62
    7
 10
605.65014256683616
 20
158.95535240748637
 11
605.65014256683616
 21
127.99398138665344
  0
LINE
  8
_0-3_
  6
CONTINUOUS
 62
    7
 10
365.8106896160408
 20
158.95535240748637
 11
605.65014256683616
 21
158.95535240748637
  0
LINE
  8
_0-3_
  6
CONTINUOUS
 62
    7
 10
1381.1368625783752
 20
127.99398138665344
 11
1381.1368625783752
 21
158.95535240748637
  0
LINE
  8
_0-3_
  6
CONTINUOUS
 62
    7
 10
1620.9763155291707
 20
127.99398138665344
 11
1381.1368625783752
 21
127.99398138665344
  0
LINE
  8
_0-3_
  6
CONTINUOUS
 62
    7
 10
1620.9763155291707
 20
158.95535240748637
 11
1620.9763155291707
 21
127.99398138665344
  0
LINE
  8
_0-3_
  6
CONTINUOUS
 62
    7
 10
1381.1368625783752
 20
158.95535240748637
 11
1620.9763155291707
 21
158.95535240748637
  0
LINE
  8
_0-3_
  6
DASHED3
 62
    3
 10
1240.4155667934273
 20
359.68650648645956
 11
1240.4155667934273
 21
268.15614028009474
  0
LINE
  8
_0-0_天板
  6
CONTINUOUS
 62
    4
 10
1241.6156430925559
 20
383.39715016266688
 11
1134.5658563075105
 21
251.24805533360279
  0
LINE
  8
_0-3_
  6
DASHED3
 62
    3
 10
1240.4155667934273
 20
268.15614028009474
 11
1708.374491413899
 21
268.15614028009474
  0
LINE
  8
_0-3_
  6
DASHED3
 62
    3
 10
1708.374491413899
 20
359.68650648645956
 11
1708.374491413899
 21
268.15614028009474
  0
TEXT
  8
_0-1_ボウル
 62
    7
 10
-144.88867494763667
 20
233.27997020056568
 40
15
 41
1
 50
0
  1
付属：専用特殊コーキングテープ（透明）
  0
TEXT
  8
_0-1_ボウル
 62
    7
 10
1069.2866678701839
 20
233.57561470508323
 40
15
 41
1
 50
0
  1
付属：専用特殊コーキングテープ（透明）
  0
TEXT
  8
_0-3_
 62
    7
 10
1748.690544261462
 20
492.5096503107386
 40
15
 41
1
 50
0
  1
要コーキング
  0
TEXT
  8
_0-3_
 62
    7
 10
1748.690544261462
 20
470.85485573100595
 40
15
 41
1
 50
0
  1
（透明推奨）
  0
TEXT
  8
_0-3_
 62
    7
 10
173.11463593103644
 20
195.34183446621477
 40
15
 41
1
 50
0
  1
※天板から下が見えないようにするためには、点線エリアに造作を施してください。
  0
LINE
  8
_0-3_
  6
CONTINUOUS
 62
    4
 10
1239.3950291036637
 20
396.8036130068034
 11
1196.4931689472773
 21
459.08378497849309
  0
LINE
  8
_0-3_
  6
CONTINUOUS
 62
    7
 10
1239.3950291036637
 20
396.8036130068034
 11
1227.9785549097537
 21
406.53316165922228
  0
LINE
  8
_0-3_
  6
CONTINUOUS
 62
    7
 10
1239.3950291036637
 20
396.8036130068034
 11
1234.3728467562978
 21
410.9378864041098
  0
LINE
  8
_0-3_
  6
CENTER1
 62
    4
 10
486.18628172085243
 20
1196.0678395861236
 11
456.18628172085243
 21
1196.0678395861236
  0
LINE
  8
_0-3_
  6
CENTER1
 62
    4
 10
456.18628172085243
 20
1196.0678395861236
 11
486.18628172085243
 21
1178.7473315104348
  0
TEXT
  8
_0-3_
 62
    7
 10
435.72968534500012
 20
1183.1400070250333
 40
25
 41
1
 50
0
  1
B
  0
LINE
  8
_0-3_
  6
CENTER1
 62
    4
 10
951.21239682491136
 20
936.1000295069407
 11
933.89188874922183
 21
906.1000295069407
  0
LINE
  8
_0-3_
  6
CENTER1
 62
    4
 10
951.21239682491136
 20
906.1000295069407
 11
951.21239682491136
 21
936.1000295069407
  0
TEXT
  8
_0-3_
 62
    7
 10
940.05802047292945
 20
939.79380569453041
 40
25
 41
1
 50
0
  1
A'
  0
LINE
  8
_0-3_
  6
CENTER1
 62
    4
 10
10.63514507391153
 20
936.1000295069407
 11
27.955653149601062
 21
906.1000295069407
  0
LINE
  8
_0-3_
  6
CENTER1
 62
    4
 10
10.63514507391153
 20
906.1000295069407
 11
10.63514507391153
 21
936.1000295069407
  0
TEXT
  8
_0-3_
 62
    7
 10
4.9055236769064549
 20
940.41542271518369
 40
25
 41
1
 50
0
  1
A
  0
LINE
  8
_0-3_
  6
CENTER1
 62
    4
 10
10.63514507391153
 20
906.1000295069407
 11
951.21239682491136
 21
906.1000295069407
  0
LINE
  8
_0-3_
  6
CENTER1
 62
    4
 10
486.18628172085243
 20
1196.0678395861236
 11
486.18628172085243
 21
610.60534273788016
  0
LINE
  8
_0-3_
  6
CENTER1
 62
    4
 10
486.18628172085243
 20
610.60534273788016
 11
456.18628172085243
 21
610.60534273788016
  0
LINE
  8
_0-3_
  6
CENTER1
 62
    4
 10
456.18628172085243
 20
610.60534273788016
 11
486.18628172085243
 21
627.92585081356878
  0
TEXT
  8
_0-3_
 62
    7
 10
432.41389701188415
 20
599.33964503990227
 40
25
 41
1
 50
0
  1
B'
  0
LINE
  8
_0-1_ボウル
  6
CONTINUOUS
 62
    7
 10
451.18628172085209
 20
307.80361300680391
 11
463.18628172085209
 21
295.80361300680374
  0
LINE
  8
_0-1_ボウル
  6
CONTINUOUS
 62
    7
 10
521.18628172085209
 20
307.80361300680391
 11
509.18628172085232
 21
295.80361300680374
  0
LINE
  8
_0-1_ボウル
  6
CONTINUOUS
 62
    7
 10
442.90133824012468
 20
307.80361300680391
 11
529.47122520157972
 21
307.80361300680391
  0
LINE
  8
_0-1_ボウル
  6
CONTINUOUS
 62
    7
 10
186.18628172085209
 20
396.80361300680374
 11
186.18628172085209
 21
384.80361300680374
  0
LINE
  8
_0-1_ボウル
  6
CONTINUOUS
 62
    7
 10
208.18628172085232
 20
396.80361300680374
 11
442.90133824012468
 21
307.80361300680391
  0
LINE
  8
_0-1_ボウル
  6
CONTINUOUS
 62
    7
 10
186.18628172085209
 20
384.80361300680374
 11
205.98756229110369
 21
384.80361300680374
  0
LINE
  8
_0-1_ボウル
  6
CONTINUOUS
 62
    7
 10
205.98756229110369
 20
384.80361300680374
 11
440.70261881037595
 21
295.80361300680374
  0
LINE
  8
_0-1_ボウル
  6
CONTINUOUS
 62
    7
 10
786.18628172085209
 20
384.80361300680374
 11
766.3850011506006
 21
384.80361300680374
  0
LINE
  8
_0-1_ボウル
  6
CONTINUOUS
 62
    7
 10
764.18628172085232
 20
396.80361300680374
 11
529.47122520157904
 21
307.80361300680391
  0
LINE
  8
_0-1_ボウル
  6
CONTINUOUS
 62
    7
 10
766.3850011506006
 20
384.80361300680374
 11
531.66994463132778
 21
295.80361300680374
  0
LINE
  8
_0-1_ボウル
  6
CONTINUOUS
 62
    7
 10
186.18628172085209
 20
396.80361300680374
 11
786.18628172085209
 21
396.80361300680374
  0
LINE
  8
_0-1_ボウル
  6
CONTINUOUS
 62
    7
 10
786.18628172085209
 20
396.80361300680374
 11
786.18628172085209
 21
384.80361300680374
  0
LINE
  8
_0-1_ボウル
  6
CONTINUOUS
 62
    7
 10
440.70261881037595
 20
295.80361300680374
 11
531.66994463132778
 21
295.80361300680374
  0
LINE
  8
_0-1_ボウル
  6
CONTINUOUS
 62
    4
 10
186.18628172085209
 20
472.47700452740969
 11
786.18628172085209
 21
472.47700452740969
  0
LINE
  8
_0-1_ボウル
  6
CONTINUOUS
 62
    7
 10
186.18628172085209
 20
472.47700452740969
 11
200.67516911518828
 21
476.35929020394746
  0
LINE
  8
_0-1_ボウル
  6
CONTINUOUS
 62
    7
 10
186.18628172085209
 20
472.47700452740969
 11
200.67516911518828
 21
468.59471885087179
  0
LINE
  8
_0-1_ボウル
  6
CONTINUOUS
 62
    7
 10
786.18628172085209
 20
472.47700452740969
 11
771.69739432651601
 21
468.59471885087179
  0
LINE
  8
_0-1_ボウル
  6
CONTINUOUS
 62
    7
 10
786.18628172085209
 20
472.47700452740969
 11
771.69739432651601
 21
476.35929020394746
  0
LINE
  8
_0-1_ボウル
  6
CONTINUOUS
 62
    4
 10
186.18628172085209
 20
472.47700452740969
 11
186.18628172085209
 21
413.87590510622851
  0
LINE
  8
_0-1_ボウル
  6
CONTINUOUS
 62
    4
 10
786.18628172085209
 20
472.47700452740969
 11
786.18628172085209
 21
413.87590510622851
  0
TEXT
  8
_0-1_ボウル
 62
    7
 10
473.68628172085209
 20
474.97700452740969
 40
15
 41
1
 50
0
  1
600
  0
SOLID
  8
_0-2_コ__キングテ__プ
  6
CONTINUOUS
 62
    4
 10
186.18628172085209
 20
384.80361300680351
 11
186.18628172085209
 21
381.8036130068034
 12
191.18628172085209
 22
384.80361300680351
 13
191.18628172085209
 23
381.8036130068034
  0
LINE
  8
_0-0_天板
  6
CONTINUOUS
 62
    7
 10
186.18628172085209
 20
396.8036130068034
 11
186.18628172085209
 21
384.80361300680351
  0
LINE
  8
_0-0_天板
  6
CONTINUOUS
 62
    7
 10
186.18628172085209
 20
396.8036130068034
 11
186.18628172085209
 21
381.8036130068034
  0
LINE
  8
_0-0_天板
  6
CONTINUOUS
 62
    7
 10
186.18628172085209
 20
381.8036130068034
 11
193.18628172085232
 21
381.8036130068034
  0
LINE
  8
_0-0_天板
  6
CONTINUOUS
 62
    4
 10
139.60287816579807
 20
371.80361300680283
 11
164.60287816579807
 21
396.8036130068026
  0
LINE
  8
_0-0_天板
  6
CONTINUOUS
 62
    4
 10
125.46074254207496
 20
371.80361300680374
 11
150.46074254207269
 21
396.80361300680169
  0
LINE
  8
_0-0_天板
  6
CONTINUOUS
 62
    4
 10
111.31860691834003
 20
371.80361300680226
 11
136.31860691834049
 21
396.8036130068026
  0
LINE
  8
_0-0_天板
  6
CONTINUOUS
 62
    4
 10
97.176471294606358
 20
371.80361300680169
 11
122.17647129460829
 21
396.80361300680374
  0
LINE
  8
_0-0_天板
  6
CONTINUOUS
 62
    4
 10
83.034335670884047
 20
371.80361300680374
 11
108.03433567088154
 21
396.80361300680112
  0
LINE
  8
_0-0_天板
  6
CONTINUOUS
 62
    4
 10
68.892200047150254
 20
371.8036130068034
 11
93.892200047148435
 21
396.80361300680146
  0
LINE
  8
_0-0_天板
  6
CONTINUOUS
 62
    4
 10
54.750064423415437
 20
371.80361300680169
 11
79.750064423416233
 21
396.80361300680226
  0
LINE
  8
_0-0_天板
  6
CONTINUOUS
 62
    4
 10
40.60792879968244
 20
371.80361300680169
 11
65.607928799684032
 21
396.8036130068034
  0
LINE
  8
_0-0_天板
  6
CONTINUOUS
 62
    4
 10
26.465793175959788
 20
371.80361300680397
 11
51.465793175957855
 21
396.80361300680169
  0
LINE
  8
_0-0_天板
  6
CONTINUOUS
 62
    4
 10
12.323657552225995
 20
371.80361300680283
 11
37.323657552224176
 21
396.80361300680112
  0
LINE
  8
_0-0_天板
  6
CONTINUOUS
 62
    4
 10
-1.8184780715091619
 20
371.80361300680146
 11
23.181521928491747
 21
396.80361300680226
  0
LINE
  8
_0-0_天板
  6
CONTINUOUS
 62
    7
 10
193.18628172085232
 20
381.8036130068034
 11
193.18628172085232
 21
371.8036130068034
  0
LINE
  8
_0-0_天板
  6
CONTINUOUS
 62
    4
 10
182.0292850369999
 20
371.80361300680453
 11
192.02928503699956
 21
381.80361300680397
  0
LINE
  8
_0-0_天板
  6
CONTINUOUS
 62
    4
 10
167.88714941326475
 20
371.80361300680283
 11
186.18628172085209
 21
390.10274531439017
  0
LINE
  8
_0-0_天板
  6
CONTINUOUS
 62
    4
 10
153.74501378953254
 20
371.80361300680374
 11
178.74501378953254
 21
396.80361300680397
  0
LINE
  8
_0-0_天板
  6
CONTINUOUS
 62
    7
 10
-13.813718279147906
 20
396.8036130068034
 11
186.18628172085209
 21
396.8036130068034
  0
LINE
  8
_0-0_天板
  6
CONTINUOUS
 62
    7
 10
-13.813718279147906
 20
371.8036130068034
 11
193.18628172085232
 21
371.8036130068034
  0
LINE
  8
_0-0_天板
  6
CONTINUOUS
 62
    4
 10
-13.813718279147906
 20
388.09264404662053
 11
-5.1027493189660617
 21
396.80361300680226
  0
LINE
  8
_0-0_天板
  6
CONTINUOUS
 62
    4
 10
-13.813718279147906
 20
373.95050842289617
 11
9.0393863047595459
 21
396.8036130068034
  0
TEXT
  8
_0-1_ボウル
 62
    7
 10
-6.7422116882869431
 20
348.37207495925292
 40
15
 41
1
 50
0
  1
天板厚：25mm以上
  0
LINE
  8
_0-1_ボウル
  6
CONTINUOUS
 62
    4
 10
-57.733014437133533
 20
396.8036130068034
 11
-57.733014437133533
 21
371.8036130068034
  0
LINE
  8
_0-1_ボウル
  6
CONTINUOUS
 62
    7
 10
-57.733014437133533
 20
396.8036130068034
 11
-61.615300113671423
 21
411.29250040113936
  0
LINE
  8
_0-1_ボウル
  6
CONTINUOUS
 62
    7
 10
-57.733014437133533
 20
396.8036130068034
 11
-53.850728760595757
 21
411.29250040113936
  0
LINE
  8
_0-1_ボウル
  6
CONTINUOUS
 62
    7
 10
-57.733014437133533
 20
371.8036130068034
 11
-53.850728760595757
 21
357.31472561246744
  0
LINE
  8
_0-1_ボウル
  6
CONTINUOUS
 62
    7
 10
-57.733014437133533
 20
371.8036130068034
 11
-61.615300113671423
 21
357.31472561246744
  0
LINE
  8
_0-1_ボウル
  6
CONTINUOUS
 62
    4
 10
-57.733014437133533
 20
396.8036130068034
 11
-23.299421372981555
 21
396.8036130068034
  0
LINE
  8
_0-1_ボウル
  6
CONTINUOUS
 62
    4
 10
-57.733014437133533
 20
371.8036130068034
 11
-23.299421372981555
 21
371.8036130068034
  0
TEXT
  8
_0-1_ボウル
 62
    7
 10
-60.233014437133533
 20
376.1786130068034
 40
15
 41
1
 50
90
  1
25
  0
LINE
  8
_0-3_
  6
CONTINUOUS
 62
    4
 10
186.18628172085243
 20
396.8036130068034
 11
123.90610974916285
 21
459.08378497849309
  0
LINE
  8
_0-3_
  6
CONTINUOUS
 62
    7
 10
186.18628172085243
 20
396.8036130068034
 11
173.19590066408591
 21
404.3036130068034
  0
LINE
  8
_0-3_
  6
CONTINUOUS
 62
    7
 10
186.18628172085243
 20
396.8036130068034
 11
178.68628172085243
 21
409.79399406356992
  0
LINE
  8
_0-3_
  6
CONTINUOUS
 62
    4
 10
123.90610974916285
 20
459.08378497849309
 11
9.3974052439075421
 21
459.08378497849309
  0
LINE
  8
_0-3_
  6
DASHED3
 62
    3
 10
177.68687226321276
 20
360.41564732145741
 11
177.68687226321276
 21
268.15614028009497
  0
LINE
  8
_0-1_ボウル
  6
CONTINUOUS
 62
    4
 10
187.95366009623148
 20
382.54051616209471
 11
99.442579310496057
 21
251.33956802561152
  0
TEXT
  8
_0-3_
 62
    7
 10
18.03445465024879
 20
485.55838641646369
 40
15
 41
1
 50
0
  1
要コーキング
  0
TEXT
  8
_0-3_
 62
    7
 10
18.03445465024879
 20
467.12700487861377
 40
15
 41
1
 50
0
  1
（透明推奨）
  0
SOLID
  8
_0-2_コ__キングテ__プ
  6
CONTINUOUS
 62
    4
 10
786.18628172085209
 20
384.80361300680351
 11
786.18628172085209
 21
381.8036130068034
 12
781.18628172085209
 22
384.80361300680351
 13
781.18628172085209
 23
381.8036130068034
  0
LINE
  8
_0-1_ボウル
  6
CONTINUOUS
 62
    4
 10
850.78886171514841
 20
381.8036130068034
 11
850.78886171514841
 21
356.8036130068034
  0
LINE
  8
_0-1_ボウル
  6
CONTINUOUS
 62
    4
 10
850.78886171514841
 20
396.80361300680397
 11
850.78886171514841
 21
421.80361300680397
  0
LINE
  8
_0-1_ボウル
  6
CONTINUOUS
 62
    7
 10
850.78886171514841
 20
381.8036130068034
 11
854.67114739168619
 21
367.31472561246744
  0
LINE
  8
_0-1_ボウル
  6
CONTINUOUS
 62
    7
 10
850.78886171514841
 20
381.8036130068034
 11
846.90657603861041
 21
367.31472561246744
  0
LINE
  8
_0-1_ボウル
  6
CONTINUOUS
 62
    7
 10
850.78886171514841
 20
396.80361300680397
 11
846.90657603861041
 21
411.29250040113993
  0
LINE
  8
_0-1_ボウル
  6
CONTINUOUS
 62
    7
 10
850.78886171514841
 20
396.80361300680397
 11
854.67114739168619
 21
411.29250040113993
  0
TEXT
  8
_0-1_ボウル
 62
    7
 10
847.86647500333629
 20
403.62650342423444
 40
15
 41
1
 50
90
  1
15
  0
LINE
  8
_0-1_ボウル
  6
CONTINUOUS
 62
    4
 10
850.78886171514841
 20
381.8036130068034
 11
790.67912447329865
 21
381.8036130068034
  0
LINE
  8
_0-0_天板
  6
CONTINUOUS
 62
    7
 10
786.18628172085209
 20
396.8036130068034
 11
786.18628172085209
 21
384.80361300680351
  0
LINE
  8
_0-0_天板
  6
CONTINUOUS
 62
    7
 10
786.18628172085209
 20
396.8036130068034
 11
786.18628172085209
 21
384.80361300680351
  0
LINE
  8
_0-0_天板
  6
CONTINUOUS
 62
    7
 10
786.18628172085209
 20
396.80361300680397
 11
786.18628172085209
 21
384.80361300680351
  0
LINE
  8
_0-0_天板
  6
CONTINUOUS
 62
    7
 10
786.18628172085209
 20
396.8036130068034
 11
786.18628172085209
 21
381.8036130068034
  0
LINE
  8
_0-0_天板
  6
CONTINUOUS
 62
    7
 10
786.18628172085209
 20
381.8036130068034
 11
779.18628172085232
 21
381.8036130068034
  0
LINE
  8
_0-0_天板
  6
CONTINUOUS
 62
    7
 10
779.18628172085232
 20
381.8036130068034
 11
779.18628172085232
 21
371.8036130068034
  0
LINE
  8
_0-0_天板
  6
CONTINUOUS
 62
    4
 10
957.8366430744345
 20
371.80361300680226
 11
982.83664307443314
 21
396.80361300680112
  0
LINE
  8
_0-0_天板
  6
CONTINUOUS
 62
    4
 10
943.6945074507023
 20
371.8036130068034
 11
968.69450745070116
 21
396.80361300680226
  0
LINE
  8
_0-0_天板
  6
CONTINUOUS
 62
    4
 10
929.55237182696646
 20
371.80361300680112
 11
954.55237182696828
 21
396.80361300680283
  0
LINE
  8
_0-0_天板
  6
CONTINUOUS
 62
    4
 10
915.41023620323448
 20
371.80361300680226
 11
940.4102362032363
 21
396.80361300680397
  0
LINE
  8
_0-0_天板
  6
CONTINUOUS
 62
    4
 10
901.26810057951161
 20
371.80361300680397
 11
926.26810057950933
 21
396.80361300680169
  0
LINE
  8
_0-0_天板
  6
CONTINUOUS
 62
    4
 10
887.12596495577963
 20
371.8036130068051
 11
912.12596495577599
 21
396.80361300680169
  0
LINE
  8
_0-0_天板
  6
CONTINUOUS
 62
    4
 10
872.98382933204356
 20
371.80361300680226
 11
897.98382933204379
 21
396.80361300680283
  0
LINE
  8
_0-0_天板
  6
CONTINUOUS
 62
    4
 10
858.84169370831136
 20
371.8036130068034
 11
883.84169370831159
 21
396.80361300680397
  0
LINE
  8
_0-0_天板
  6
CONTINUOUS
 62
    4
 10
844.69955808458621
 20
371.80361300680283
 11
869.69955808458576
 21
396.80361300680226
  0
LINE
  8
_0-0_天板
  6
CONTINUOUS
 62
    4
 10
830.55742246085151
 20
371.80361300680146
 11
855.55742246085173
 21
396.80361300680169
  0
LINE
  8
_0-0_天板
  6
CONTINUOUS
 62
    4
 10
816.41528683711726
 20
371.80361300680056
 11
841.41528683711931
 21
396.8036130068026
  0
LINE
  8
_0-0_天板
  6
CONTINUOUS
 62
    4
 10
802.27315121338483
 20
371.80361300680146
 11
827.27315121338733
 21
396.80361300680397
  0
LINE
  8
_0-0_天板
  6
CONTINUOUS
 62
    4
 10
788.13101558966491
 20
371.80361300680533
 11
813.13101558966195
 21
396.80361300680283
  0
LINE
  8
_0-0_天板
  6
CONTINUOUS
 62
    4
 10
779.18628172085391
 20
377.00101476172812
 11
783.98887996592668
 21
381.80361300680056
  0
LINE
  8
_0-0_天板
  6
CONTINUOUS
 62
    4
 10
786.18628172085504
 20
384.00101476172915
 11
798.98887996592736
 21
396.80361300680169
  0
LINE
  8
_0-0_天板
  6
CONTINUOUS
 62
    4
 10
850.78886171514841
 20
381.8036130068034
 11
850.78886171514841
 21
396.80361300680397
  0
LINE
  8
_0-0_天板
  6
CONTINUOUS
 62
    4
 10
850.78886171514841
 20
396.80361300680397
 11
802.32594874426672
 21
396.80361300680397
  0
LINE
  8
_0-0_天板
  6
CONTINUOUS
 62
    7
 10
986.18628172085209
 20
371.8036130068034
 11
779.18628172085232
 21
371.8036130068034
  0
LINE
  8
_0-0_天板
  6
CONTINUOUS
 62
    4
 10
971.97877869815965
 20
371.8036130068034
 11
986.18628172085209
 21
386.01111602949583
  0
LINE
  8
_0-0_天板
  6
CONTINUOUS
 62
    7
 10
986.18628172085209
 20
396.8036130068034
 11
786.18628172085209
 21
396.8036130068034
  0
LINE
  8
_0-3_
  6
DASHED3
 62
    3
 10
794.68569117849165
 20
360.41564732145741
 11
794.68569117849165
 21
268.15614028009497
  0
TEXT
  8
_0-1_ボウル
 62
    7
 10
764.21444980850117
 20
317.86017710218129
 40
15
 41
1
 50
0
  1
7
  0
LINE
  8
_0-1_ボウル
  6
CONTINUOUS
 62
    4
 10
786.18628172085209
 20
313.47659703446333
 11
786.18628172085209
 21
365.14841171871034
  0
LINE
  8
_0-1_ボウル
  6
CONTINUOUS
 62
    4
 10
779.18628172085232
 20
313.47659703446333
 11
779.18628172085232
 21
365.14841171871034
  0
LINE
  8
_0-1_ボウル
  6
CONTINUOUS
 62
    7
 10
786.18628172085209
 20
313.47659703446333
 11
800.67516911518816
 21
309.5943113579255
  0
LINE
  8
_0-1_ボウル
  6
CONTINUOUS
 62
    7
 10
786.18628172085209
 20
313.47659703446333
 11
800.67516911518816
 21
317.35888271100117
  0
LINE
  8
_0-1_ボウル
  6
CONTINUOUS
 62
    7
 10
779.18628172085232
 20
313.47659703446333
 11
764.69739432651635
 21
317.35888271100117
  0
LINE
  8
_0-1_ボウル
  6
CONTINUOUS
 62
    7
 10
779.18628172085232
 20
313.47659703446333
 11
764.69739432651635
 21
309.5943113579255
  0
LINE
  8
_0-1_ボウル
  6
CONTINUOUS
 62
    4
 10
779.18628172085232
 20
313.47659703446333
 11
786.18628172085209
 21
313.47659703446333
  0
LINE
  8
_0-1_ボウル
  6
CONTINUOUS
 62
    4
 10
786.18628172085209
 20
313.47659703446333
 11
811.18628172085198
 21
313.47659703446333
  0
LINE
  8
_0-1_ボウル
  6
CONTINUOUS
 62
    4
 10
779.18628172085232
 20
313.47659703446333
 11
754.18628172085232
 21
313.47659703446333
  0
LINE
  8
_0-3_
  6
CONTINUOUS
 62
    4
 10
786.18628172085209
 20
396.8036130068034
 11
834.03422443867702
 21
459.08378497849309
  0
LINE
  8
_0-3_
  6
CONTINUOUS
 62
    4
 10
834.03422443867702
 20
459.08378497849309
 11
1196.4931689472773
 21
459.08378497849309
  0
LINE
  8
_0-3_
  6
CONTINUOUS
 62
    7
 10
786.18628172085209
 20
396.8036130068034
 11
791.93474755694865
 21
410.65840064614417
  0
LINE
  8
_0-3_
  6
CONTINUOUS
 62
    7
 10
786.18628172085209
 20
396.8036130068034
 11
798.09199298736905
 21
405.92797814846289
  0
LINE
  8
_0-3_
  6
DASHED3
 62
    3
 10
177.68687226321276
 20
268.15614028009497
 11
794.68569117849165
 21
268.15614028009497
  0
TEXT
  8
_0-3_
 62
    7
 10
907.89914534071795
 20
463.20688645970744
 40
15
 41
1
 50
0
  1
要コーキング（透明推奨）
  0
LINE
  8
_0-2_コ__キングテ__プ
  6
CONTINUOUS
 62
    4
 10
786.18628172085243
 20
676.1000295069407
 11
786.18628172085243
 21
671.1000295069407
  0
LINE
  8
_0-2_コ__キングテ__プ
  6
CONTINUOUS
 62
    4
 10
786.18628172085243
 20
676.1000295069407
 11
786.18628172085243
 21
1141.1000295069407
  0
LINE
  8
_0-2_コ__キングテ__プ
  6
CONTINUOUS
 62
    4
 10
781.18628172085209
 20
676.1000295069407
 11
781.18628172085209
 21
1136.1000295069407
  0
SOLID
  8
_0-2_コ__キングテ__プ
  6
CONTINUOUS
 62
    4
 10
781.18628172085209
 20
1141.1000295069407
 11
781.18628172085209
 21
676.1000295069407
 12
786.18628172085243
 22
1141.1000295069407
 13
786.18628172085243
 23
676.1000295069407
  0
LINE
  8
_0-2_コ__キングテ__プ
  6
CONTINUOUS
 62
    4
 10
191.18628172085277
 20
676.1000295069407
 11
191.18628172085277
 21
1136.1000295069407
  0
LINE
  8
_0-2_コ__キングテ__プ
  6
CONTINUOUS
 62
    4
 10
191.18628172085277
 20
676.1000295069407
 11
191.18628172085277
 21
1136.1000295069407
  0
LINE
  8
_0-2_コ__キングテ__プ
  6
CONTINUOUS
 62
    4
 10
186.18628172085277
 20
1141.1000295069407
 11
186.18628172085277
 21
671.1000295069407
  0
SOLID
  8
_0-2_コ__キングテ__プ
  6
CONTINUOUS
 62
    4
 10
186.18628172085277
 20
1141.1000295069407
 11
186.18628172085277
 21
676.1000295069407
 12
191.18628172085277
 22
1141.1000295069407
 13
191.18628172085277
 23
676.1000295069407
  0
LINE
  8
_0-2_コ__キングテ__プ
  6
CONTINUOUS
 62
    4
 10
786.18628172085243
 20
676.1000295069407
 11
191.18628172085277
 21
676.1000295069407
  0
LINE
  8
_0-2_コ__キングテ__プ
  6
CONTINUOUS
 62
    4
 10
786.18628172085243
 20
671.1000295069407
 11
186.18628172085277
 21
671.1000295069407
  0
LINE
  8
_0-2_コ__キングテ__プ
  6
CONTINUOUS
 62
    4
 10
786.18628172085243
 20
1141.1000295069407
 11
186.18628172085277
 21
1141.1000295069407
  0
LINE
  8
_0-2_コ__キングテ__プ
  6
CONTINUOUS
 62
    4
 10
781.18628172085209
 20
1136.1000295069407
 11
191.18628172085277
 21
1136.1000295069407
  0
SOLID
  8
_0-2_コ__キングテ__プ
  6
CONTINUOUS
 62
    4
 10
186.18628172085277
 20
671.1000295069407
 11
786.18628172085243
 21
671.1000295069407
 12
186.18628172085277
 22
676.1000295069407
 13
786.18628172085243
 23
676.1000295069407
  0
SOLID
  8
_0-2_コ__キングテ__プ
  6
CONTINUOUS
 62
    4
 10
191.18628172085277
 20
1141.1000295069407
 11
191.18628172085277
 21
1136.1000295069407
 12
781.18628172085209
 22
1141.1000295069407
 13
781.18628172085209
 23
1136.1000295069407
  0
TEXT
  8
_0-1_ボウル
 62
    7
 10
933.93164068769465
 20
1086.915328936298
 40
15
 41
1
 50
0
  1
付属：専用特殊コーキングテープ（透明）
  0
LINE
  8
_0-2_コ__キングテ__プ
  6
CONTINUOUS
 62
    4
 10
863.71821128270744
 20
1093.2670978780711
 11
926.03832127050281
 21
1093.2670978780711
  0
LINE
  8
_0-2_コ__キングテ__プ
  6
CONTINUOUS
 62
    4
 10
783.95857176105096
 20
1013.5074583564146
 11
863.71821128270744
 21
1093.2670978780711
  0
TEXT
  8
_8-0_
 62
    7
 10
258.60010568764892
 20
1263.4722726825182
 40
20
 41
1
 50
0
  1
※埋め込み（オーバーカウンター／ドロップイン）
  0
TEXT
  8
_8-0_
 62
    7
 10
-157.63663875161364
 20
1259.0655231429232
 40
30
 41
1
 50
0
  1
Rhapsody600天板開口参考図
  0
TEXT
  8
_0-3_
 62
    7
 10
407.6054160914382
 20
135.97466689706982
 40
15
 41
1
 50
0
  1
A～A'断面図　S=1/2
  0
TEXT
  8
_0-3_
 62
    7
 10
1422.9315890537727
 20
135.97466689706982
 40
15
 41
1
 50
0
  1
B～B'断面図　S=1/2
  0
ENDSEC
  0
EOF
