  0
SECTION
  2
HEADER
  9
$ACADVER
  1
AC1009
  9
$INSBASE
 10
0
 20
0
 30
0
  9
$EXTMIN
 10
0
 20
0
  9
$EXTMAX
 10
1485
 20
1050
  9
$LIMMIN
 10
0
 20
0
  9
$LIMMAX
 10
1485
 20
1050
  9
$LTSCALE
 40
5
  0
ENDSEC
  0
SECTION
  2
TABLES
  0
TABLE
  2
LTYPE
 70
     9
  0
LTYPE
  2
CONTINUOUS
 70
    64
  3
実線
 72
    65
 73
     0
 40
0.0
  0
LTYPE
  2
DASHED1
 70
    64
  3
--  --  --  --  --  --  --  --  
 72
    65
 73
     2
 40
2.5
 49
1.25
 49
-1.25
  0
LTYPE
  2
DASHED2
 70
    64
  3
----    ----    ----    ----    
 72
    65
 73
     2
 40
5.0
 49
2.5
 49
-2.5
  0
LTYPE
  2
DASHED3
 70
    64
  3
------  ------  ------  ------  
 72
    65
 73
     2
 40
5.0
 49
3.75
 49
-1.25
  0
LTYPE
  2
CENTER1
 70
    64
  3
----- - ----- - ----- - ----- - 
 72
    65
 73
     4
 40
10.0
 49
6.25
 49
-1.25
 49
1.25
 49
-1.25
  0
LTYPE
  2
CENTER2
 70
    64
  3
----------  --  ----------  --  
 72
    65
 73
     4
 40
20.0
 49
12.5
 49
-2.5
 49
2.5
 49
-2.5
  0
LTYPE
  2
PHANTOM1
 70
    64
  3
--- - - --- - - --- - - --- - - 
 72
    65
 73
     6
 40
10.0
 49
3.25
 49
-1.25
 49
1.25
 49
-1.25
 49
1.25
 49
-1.25
  0
LTYPE
  2
PHANTOM2
 70
    64
  3
--------  -  -  --------  -  -  
 72
    65
 73
     6
 40
20.0
 49
10.0
 49
-2.5
 49
1.25
 49
-2.5
 49
1.25
 49
-2.5
  0
LTYPE
  2
DOT
 70
    64
  3
-   -   -   -   -   -   -   -   
 72
    65
 73
     2
 40
2.5
 49
0.625
 49
-1.875
  0
LTYPE
  2
DUMMY
 70
    64
  3
ダミー
 72
    65
 73
     0
 40
0.0
  0
LTYPE
  2
RAND1
 70
    64
  3
ランダム線1
 72
    65
 73
     4
 40
10.0
 49
1.0
 49
-2.0
 49
3.0
 49
-4.0
  0
LTYPE
  2
RAND2
 70
    64
  3
ランダム線2
 72
    65
 73
     4
 40
14.0
 49
2.0
 49
-3.0
 49
4.0
 49
-5.0
  0
LTYPE
  2
RAND3
 70
    64
  3
ランダム線3
 72
    65
 73
     4
 40
18.0
 49
3.0
 49
-4.0
 49
5.0
 49
-6.0
  0
LTYPE
  2
RAND4
 70
    64
  3
ランダム線4
 72
    65
 73
     4
 40
22.0
 49
4.0
 49
-5.0
 49
6.0
 49
-7.0
  0
LTYPE
  2
RAND5
 70
    64
  3
ランダム線5
 72
    65
 73
     4
 40
26.0
 49
5.0
 49
-6.0
 49
7.0
 49
-8.0
  0
LTYPE
  2
LONG1
 70
    64
  3
----------  --  ----------  --  
 72
    65
 73
     4
 40
40.0
 49
32.5
 49
-2.5
 49
2.5
 49
-2.5
  0
LTYPE
  2
LONG2
 70
    64
  3
--------  -  -  --------  -  -  
 72
    65
 73
     6
 40
40.0
 49
30.0
 49
-2.5
 49
1.25
 49
-2.5
 49
1.25
 49
-2.5
  0
LTYPE
  2
LONG3
 70
    64
  3
+++++++++++++++..+++++++++++++++
 72
    65
 73
     2
 40
40.0
 49
37.5
 49
-2.5
  0
LTYPE
  2
LONG4
 70
    64
  3
+++++++++++++++..+++++++++++++++
 72
    65
 73
     2
 40
80.0
 49
75.0
 49
-5.0
  0
LTYPE
  2
LONG5
 70
    64
  3
----------  --  ----------  --  
 72
    65
 73
     4
 40
60.0
 49
37.5
 49
-7.5
 49
7.5
 49
-7.5
  0
LTYPE
  2
dashed
 70
   64
  3
-------   -------------   ------
 72
   65
 73
    2
 40
7.5
 49
6
 49
-1.5
  0
LTYPE
  2
dashed_spaced
 70
   64
  3
----        --------        ----
 72
   65
 73
    2
 40
12
 49
6
 49
-6
  0
LTYPE
  2
long_dashed_dotted
 70
   64
  3
------------- --- --------------
 72
   65
 73
    4
 40
15.25
 49
12
 49
-1.5
 49
0.25
 49
-1.5
  0
LTYPE
  2
long_dashed_double-dotted
 70
   64
  3
----------- --- --- ------------
 72
   65
 73
    6
 40
17
 49
12
 49
-1.5
 49
0.25
 49
-1.5
 49
0.25
 49
-1.5
  0
LTYPE
  2
long_dashed_triplicate-dotted
 70
   64
  3
--------- --- --- --- ----------
 72
   65
 73
    8
 40
18.75
 49
12
 49
-1.5
 49
0.25
 49
-1.5
 49
0.25
 49
-1.5
 49
0.25
 49
-1.5
  0
LTYPE
  2
dotted
 70
   64
  3
   -       -       -       -    
 72
   65
 73
    2
 40
1.75
 49
0.25
 49
-1.5
  0
LTYPE
  2
chain
 70
   64
  3
-------------- -- --------------
 72
   65
 73
    4
 40
18.5
 49
12
 49
-1.5
 49
3.5
 49
-1.5
  0
LTYPE
  2
chain_double_dash
 70
   64
  3
------------ -- -- -------------
 72
   65
 73
    6
 40
23.5
 49
12
 49
-1.5
 49
3.5
 49
-1.5
 49
3.5
 49
-1.5
  0
LTYPE
  2
dashed_dotted
 70
   64
  3
-----------     -     ----------
 72
   65
 73
    4
 40
9.25
 49
6
 49
-1.5
 49
0.25
 49
-1.5
  0
LTYPE
  2
double-dashed_dotted
 70
   64
  3
------   -----------   -   -----
 72
   65
 73
    6
 40
16.75
 49
6
 49
-1.5
 49
6
 49
-1.5
 49
0.25
 49
-1.5
  0
LTYPE
  2
dashed_double-dotted
 70
   64
  3
---------    -    -    ---------
 72
   65
 73
    6
 40
11
 49
6
 49
-1.5
 49
0.25
 49
-1.5
 49
0.25
 49
-1.5
  0
LTYPE
  2
double-dashed_double-dotted
 70
   64
  3
-----   ---------   -   -   ----
 72
   65
 73
    8
 40
18.5
 49
6
 49
-1.5
 49
6
 49
-1.5
 49
0.25
 49
-1.5
 49
0.25
 49
-1.5
  0
LTYPE
  2
dashed_triplicate-dotted
 70
   64
  3
-------    -    -    -    ------
 72
   65
 73
    8
 40
12.75
 49
6
 49
-1.5
 49
0.25
 49
-1.5
 49
0.25
 49
-1.5
 49
0.25
 49
-1.5
  0
LTYPE
  2
double-dashed_triplicate-dotted
 70
   64
  3
-----  ---------  -  -  -  -----
 72
   65
 73
   10
 40
20.25
 49
6
 49
-1.5
 49
6
 49
-1.5
 49
0.25
 49
-1.5
 49
0.25
 49
-1.5
 49
0.25
 49
-1.5
  0
LTYPE
  2
undefined
 70
   64
  3
--------------------------------
 72
   65
 73
    0
 40
0
  0
LTYPE
  2
_
 70
   64
  3
                                
 72
   65
 73
    0
 40
0
  0
LTYPE
  2
__18
 70
   64
  3
                                
 72
   65
 73
    0
 40
0
  0
LTYPE
  2
__19
 70
   64
  3
                                
 72
   65
 73
    0
 40
0
  0
LTYPE
  2
__20
 70
   64
  3
                                
 72
   65
 73
    0
 40
0
  0
LTYPE
  2
__21
 70
   64
  3
                                
 72
   65
 73
    0
 40
0
  0
LTYPE
  2
__22
 70
   64
  3
                                
 72
   65
 73
    0
 40
0
  0
LTYPE
  2
__23
 70
   64
  3
                                
 72
   65
 73
    0
 40
0
  0
LTYPE
  2
__24
 70
   64
  3
                                
 72
   65
 73
    0
 40
0
  0
LTYPE
  2
__25
 70
   64
  3
                                
 72
   65
 73
    0
 40
0
  0
LTYPE
  2
__26
 70
   64
  3
                                
 72
   65
 73
    0
 40
0
  0
LTYPE
  2
__27
 70
   64
  3
                                
 72
   65
 73
    0
 40
0
  0
LTYPE
  2
__28
 70
   64
  3
                                
 72
   65
 73
    0
 40
0
  0
LTYPE
  2
__29
 70
   64
  3
                                
 72
   65
 73
    0
 40
0
  0
LTYPE
  2
__30
 70
   64
  3
                                
 72
   65
 73
    0
 40
0
  0
LTYPE
  2
__31
 70
   64
  3
                                
 72
   65
 73
    0
 40
0
  0
LTYPE
  2
__32
 70
   64
  3
                                
 72
   65
 73
    0
 40
0
  0
ENDTAB
  0
TABLE
  2
STYLE
  5
3
100
AcDbSymbolTable
 70
     1
  0
STYLE
  5
10
100
AcDbSymbolTableRecord
100
AcDbTextStyleTableRecord
  2
STANDARD
 70
     0
 40
0.0
 41
1.0
 50
0.0
 71
     0
 42
0.2
  3
txt
  4
bigfont.shx
  0
STYLE
  5
26
100
AcDbSymbolTableRecord
100
AcDbTextStyleTableRecord
  2
TATEGAKI
 70
    68
 40
0.0
 41
1.0
 50
0.0
 71
     0
 42
1.0
  3
txt
  4
bigfont.shx
  0
ENDTAB
  0
TABLE
  2
LAYER
 70
    2
  0
LAYER
  2
_0-0_
 70
   64
 62
    7
  6
CONTINUOUS
  0
LAYER
  2
ADD_LINE
 70
   64
 62
    7
  6
CONTINUOUS
  0
ENDTAB
  0
ENDSEC
  0
SECTION
  2
BLOCKS
  0
ENDSEC
  0
SECTION
  2
ENTITIES
  0
LINE
  8
_0-0_
  6
CONTINUOUS
 62
    3
 10
710
 20
676.91397174662347
 11
386.7127721609421
 21
676.91397174662347
  0
LINE
  8
_0-0_
  6
CONTINUOUS
 62
    4
 10
1026.4351763923198
 20
676.91397174662313
 11
1071.4351763923182
 21
721.91397174662142
  0
LINE
  8
_0-0_
  6
CONTINUOUS
 62
    4
 10
1012.2930407685876
 20
676.91397174662427
 11
1057.293040768586
 21
721.91397174662256
  0
LINE
  8
_0-0_
  6
CONTINUOUS
 62
    4
 10
998.1509051448512
 20
676.91397174662142
 11
1043.1509051448517
 21
721.91397174662199
  0
LINE
  8
_0-0_
  6
CONTINUOUS
 62
    4
 10
984.008769521119
 20
676.91397174662256
 11
1029.0087695211195
 21
721.91397174662313
  0
LINE
  8
_0-0_
  6
CONTINUOUS
 62
    4
 10
969.86663389739737
 20
676.91397174662506
 11
1014.8666338973959
 21
721.9139717466237
  0
LINE
  8
_0-0_
  6
CENTER1
 62
    4
 10
742.5
 20
948.58214038100868
 11
742.5
 21
548.09819765083773
  0
LINE
  8
_0-0_
  6
CONTINUOUS
 62
    3
 10
710
 20
721.91397174662347
 11
710
 21
676.91397174662347
  0
LINE
  8
_0-0_
  6
CONTINUOUS
 62
    3
 10
775
 20
721.91397174662347
 11
775
 21
676.91397174662347
  0
LINE
  8
_0-0_
  6
CONTINUOUS
 62
    3
 10
710
 20
721.91397174662347
 11
386.7127721609421
 21
721.91397174662347
  0
LINE
  8
_0-0_
  6
CONTINUOUS
 62
    3
 10
1098.2872278390577
 20
721.91397174662347
 11
775
 21
721.91397174662347
  0
LINE
  8
_0-0_
  6
CONTINUOUS
 62
    3
 10
1098.2872278390577
 20
676.91397174662347
 11
775
 21
676.91397174662347
  0
LINE
  8
_0-0_
  6
CONTINUOUS
 62
    4
 10
1097.145854510966
 20
676.91397174662142
 11
1100.5012491998857
 21
680.26936643554051
  0
LINE
  8
_0-0_
  6
CONTINUOUS
 62
    4
 10
1083.0037188872463
 20
676.9139717466254
 11
1101.1217199287807
 21
695.03197278816003
  0
LINE
  8
_0-0_
  6
CONTINUOUS
 62
    4
 10
1068.8615832635141
 20
676.91397174662654
 11
1095.5623007193853
 21
703.61468920249762
  0
LINE
  8
_0-0_
  6
CONTINUOUS
 62
    4
 10
1054.7194476397769
 20
676.91397174662256
 11
1095.6288656277308
 21
717.82338973457683
  0
LINE
  8
_0-0_
  6
CONTINUOUS
 62
    4
 10
1040.5773120160447
 20
676.91397174662427
 11
1085.5773120160458
 21
721.91397174662483
  0
LINE
  8
_0-0_
  6
CONTINUOUS
 62
    4
 10
955.72449827366369
 20
676.91397174662483
 11
1000.7244982736619
 21
721.91397174662313
  0
LINE
  8
_0-0_
  6
CONTINUOUS
 62
    4
 10
941.58236264992865
 20
676.91397174662313
 11
986.58236264992956
 21
721.91397174662427
  0
LINE
  8
_0-0_
  6
CONTINUOUS
 62
    4
 10
927.44022702619668
 20
676.91397174662427
 11
972.44022702619759
 21
721.9139717466254
  0
LINE
  8
_0-0_
  6
CONTINUOUS
 62
    4
 10
913.29809140247164
 20
676.9139717466237
 11
958.29809140247016
 21
721.91397174662233
  0
LINE
  8
_0-0_
  6
CONTINUOUS
 62
    4
 10
899.15595577873716
 20
676.91397174662233
 11
944.15595577873773
 21
721.91397174662313
  0
LINE
  8
_0-0_
  6
CONTINUOUS
 62
    4
 10
885.01382015500382
 20
676.91397174662256
 11
930.01382015500439
 21
721.91397174662313
  0
LINE
  8
_0-0_
  6
CONTINUOUS
 62
    4
 10
870.87168453127674
 20
676.91397174662427
 11
915.87168453127731
 21
721.91397174662483
  0
LINE
  8
_0-0_
  6
CONTINUOUS
 62
    4
 10
856.72954890754817
 20
676.91397174662461
 11
901.72954890754704
 21
721.91397174662313
  0
LINE
  8
_0-0_
  6
CONTINUOUS
 62
    4
 10
842.5874132838129
 20
676.91397174662233
 11
887.5874132838137
 21
721.91397174662313
  0
LINE
  8
_0-0_
  6
CONTINUOUS
 62
    4
 10
828.44527766008036
 20
676.91397174662313
 11
873.44527766008184
 21
721.91397174662483
  0
LINE
  8
_0-0_
  6
CONTINUOUS
 62
    4
 10
814.30314203635566
 20
676.91397174662279
 11
859.30314203635384
 21
721.9139717466212
  0
LINE
  8
_0-0_
  6
CONTINUOUS
 62
    4
 10
800.16100641262346
 20
676.91397174662392
 11
845.16100641262198
 21
721.91397174662233
  0
LINE
  8
_0-0_
  6
CONTINUOUS
 62
    4
 10
786.01887078888864
 20
676.91397174662256
 11
831.01887078888921
 21
721.91397174662313
  0
LINE
  8
_0-0_
  6
CONTINUOUS
 62
    4
 10
774.99999999999977
 20
680.03723658146668
 11
816.87673516515701
 21
721.91397174662427
  0
LINE
  8
_0-0_
  6
CONTINUOUS
 62
    4
 10
775.00000000000113
 20
694.17937220519263
 11
802.73459954143049
 21
721.91397174662165
  0
LINE
  8
_0-0_
  6
CONTINUOUS
 62
    4
 10
775.00000000000022
 20
708.32150782892483
 11
788.59246391769772
 21
721.91397174662256
  0
LINE
  8
_0-0_
  6
CONTINUOUS
 62
    4
 10
701.16605704650851
 20
676.91397174662427
 11
709.99999999999943
 21
685.74791470011518
  0
LINE
  8
_0-0_
  6
CONTINUOUS
 62
    4
 10
687.02392142277631
 20
676.9139717466254
 11
709.99999999999886
 21
699.89005032384795
  0
LINE
  8
_0-0_
  6
CONTINUOUS
 62
    4
 10
672.88178579903899
 20
676.91397174662142
 11
710.0000000000017
 21
714.03218594758391
  0
LINE
  8
_0-0_
  6
CONTINUOUS
 62
    4
 10
658.73965017530713
 20
676.91397174662279
 11
703.73965017530758
 21
721.91397174662347
  0
LINE
  8
_0-0_
  6
CONTINUOUS
 62
    4
 10
644.59751455158425
 20
676.91397174662427
 11
689.59751455158254
 21
721.91397174662256
  0
LINE
  8
_0-0_
  6
CONTINUOUS
 62
    4
 10
630.45537892784955
 20
676.91397174662279
 11
675.45537892785034
 21
721.9139717466237
  0
LINE
  8
_0-0_
  6
CONTINUOUS
 62
    4
 10
616.31324330411553
 20
676.91397174662233
 11
661.31324330411587
 21
721.91397174662256
  0
LINE
  8
_0-0_
  6
CONTINUOUS
 62
    4
 10
602.17110768038332
 20
676.91397174662347
 11
647.17110768038367
 21
721.9139717466237
  0
LINE
  8
_0-0_
  6
CONTINUOUS
 62
    4
 10
588.02897205666022
 20
676.91397174662461
 11
633.02897205665863
 21
721.91397174662279
  0
LINE
  8
_0-0_
  6
CONTINUOUS
 62
    4
 10
573.88683643292552
 20
676.91397174662279
 11
618.88683643292665
 21
721.91397174662427
  0
LINE
  8
_0-0_
  6
CONTINUOUS
 62
    4
 10
559.74470080919161
 20
676.91397174662256
 11
604.74470080919218
 21
721.91397174662313
  0
LINE
  8
_0-0_
  6
CONTINUOUS
 62
    4
 10
545.60256518546816
 20
676.91397174662347
 11
590.6025651854668
 21
721.91397174662199
  0
LINE
  8
_0-0_
  6
CONTINUOUS
 62
    4
 10
531.4604295617363
 20
676.91397174662483
 11
576.46042956173459
 21
721.91397174662313
  0
LINE
  8
_0-0_
  6
CONTINUOUS
 62
    4
 10
517.31829393800126
 20
676.91397174662313
 11
562.31829393800239
 21
721.91397174662427
  0
LINE
  8
_0-0_
  6
CONTINUOUS
 62
    4
 10
503.17615831426849
 20
676.9139717466237
 11
548.17615831426849
 21
721.9139717466237
  0
LINE
  8
_0-0_
  6
CONTINUOUS
 62
    4
 10
489.03402269054396
 20
676.91397174662347
 11
534.03402269054254
 21
721.91397174662199
  0
LINE
  8
_0-0_
  6
CONTINUOUS
 62
    4
 10
474.89188706681176
 20
676.91397174662461
 11
519.89188706681034
 21
721.91397174662313
  0
LINE
  8
_0-0_
  6
CONTINUOUS
 62
    4
 10
460.74975144307728
 20
676.91397174662347
 11
505.74975144307813
 21
721.91397174662427
  0
LINE
  8
_0-0_
  6
CONTINUOUS
 62
    4
 10
446.60761581934451
 20
676.91397174662392
 11
491.60761581934508
 21
721.91397174662461
  0
LINE
  8
_0-0_
  6
CONTINUOUS
 62
    4
 10
432.46548019561998
 20
676.9139717466237
 11
477.46548019561828
 21
721.91397174662199
  0
LINE
  8
_0-0_
  6
CONTINUOUS
 62
    4
 10
418.32334457188778
 20
676.91397174662483
 11
463.32334457188608
 21
721.91397174662313
  0
LINE
  8
_0-0_
  6
CONTINUOUS
 62
    4
 10
404.18120894815297
 20
676.91397174662347
 11
449.18120894815388
 21
721.91397174662427
  0
LINE
  8
_0-0_
  6
CONTINUOUS
 62
    4
 10
390.03907332442111
 20
676.91397174662483
 11
435.03907332442139
 21
721.91397174662506
  0
LINE
  8
_0-0_
  6
CONTINUOUS
 62
    4
 10
382.65924802537563
 20
683.6762820713036
 11
420.89693770069425
 21
721.91397174662199
  0
LINE
  8
_0-0_
  6
CONTINUOUS
 62
    4
 10
390.56298018211691
 20
705.72214985177822
 11
406.75480207696205
 21
721.91397174662347
  0
LINE
  8
_0-0_
  6
CONTINUOUS
 62
    4
 10
389.05128820247853
 20
718.35259349587317
 11
392.61266645322984
 21
721.91397174662461
  0
TEXT
  8
_0-0_
 62
    4
 10
966.09191845775342
 20
744.55355894473541
 40
12.5
 41
1
 50
0
  1
スチロールパッキン
  0
TEXT
  8
_0-0_
 62
    4
 10
798.10179789787525
 20
814.01888829553035
 40
12.5
 41
1
 50
0
  1
JORGER製 排水金具100mm
  0
LINE
  8
_0-0_
  6
CONTINUOUS
 62
    4
 10
754.23909526422903
 20
763.21578899347946
 11
794.71244169111719
 21
814.64600820996679
  0
TEXT
  8
_0-0_
 62
    7
 10
915.94025367894289
 20
654.05310401219139
 40
17.5
 41
1
 50
0
  1
天板開口寸法：65～67
  0
LINE
  8
_0-0_
  6
CONTINUOUS
 62
    4
 10
717.61634658414186
 20
715.94452510902783
 11
471.52993330950664
 21
582.17328627668712
  0
TEXT
  8
_0-0_
 62
    4
 10
305.66404925351207
 20
573.5659290817108
 40
12.5
 41
1
 50
0
  1
樹脂パッキン付座付きナット
  0
LINE
  8
_0-0_
  6
CONTINUOUS
 62
    4
 10
386.7127721609421
 20
721.91397174662347
 11
387.43501731898732
 21
720.85471849987015
  0
LINE
  8
_0-0_
  6
CONTINUOUS
 62
    4
 10
387.43501731898732
 20
720.85471849987015
 11
388.64282463859092
 21
719.02841979857157
  0
LINE
  8
_0-0_
  6
CONTINUOUS
 62
    4
 10
388.64282463859092
 20
719.02841979857157
 11
389.74662375572813
 21
717.20212109727276
  0
LINE
  8
_0-0_
  6
CONTINUOUS
 62
    4
 10
389.74662375572813
 20
717.20212109727276
 11
390.68058669415449
 21
715.37582239597418
  0
LINE
  8
_0-0_
  6
CONTINUOUS
 62
    4
 10
390.68058669415449
 20
715.37582239597418
 11
391.37888547762509
 21
713.54952369467525
  0
LINE
  8
_0-0_
  6
CONTINUOUS
 62
    4
 10
391.37888547762509
 20
713.54952369467525
 11
391.77569212989567
 21
711.72322499337667
  0
LINE
  8
_0-0_
  6
CONTINUOUS
 62
    4
 10
391.77569212989567
 20
711.72322499337667
 11
391.84175664800136
 21
710.66397174662347
  0
LINE
  8
_0-0_
  6
CONTINUOUS
 62
    4
 10
391.84175664800136
 20
710.66397174662347
 11
391.77569212989567
 21
709.60471849987015
  0
LINE
  8
_0-0_
  6
CONTINUOUS
 62
    4
 10
391.77569212989567
 20
709.60471849987015
 11
391.37888547762509
 21
707.77841979857157
  0
LINE
  8
_0-0_
  6
CONTINUOUS
 62
    4
 10
391.37888547762509
 20
707.77841979857157
 11
390.68058669415449
 21
705.95212109727276
  0
LINE
  8
_0-0_
  6
CONTINUOUS
 62
    4
 10
390.68058669415449
 20
705.95212109727276
 11
389.74662375572813
 21
704.12582239597418
  0
LINE
  8
_0-0_
  6
CONTINUOUS
 62
    4
 10
389.74662375572813
 20
704.12582239597418
 11
388.64282463859069
 21
702.29952369467525
  0
LINE
  8
_0-0_
  6
CONTINUOUS
 62
    4
 10
388.64282463859069
 20
702.29952369467525
 11
387.43501731898732
 21
700.47322499337667
  0
LINE
  8
_0-0_
  6
CONTINUOUS
 62
    4
 10
387.43501731898732
 20
700.47322499337667
 11
385.99052700289689
 21
698.35471849987015
  0
LINE
  8
_0-0_
  6
CONTINUOUS
 62
    4
 10
385.99052700289689
 20
698.35471849987015
 11
384.78271968329352
 21
696.52841979857157
  0
LINE
  8
_0-0_
  6
CONTINUOUS
 62
    4
 10
384.78271968329352
 20
696.52841979857157
 11
383.6789205661563
 21
694.70212109727276
  0
LINE
  8
_0-0_
  6
CONTINUOUS
 62
    4
 10
383.6789205661563
 20
694.70212109727276
 11
382.74495762772971
 21
692.87582239597418
  0
LINE
  8
_0-0_
  6
CONTINUOUS
 62
    4
 10
382.74495762772971
 20
692.87582239597418
 11
382.04665884425935
 21
691.04952369467525
  0
LINE
  8
_0-0_
  6
CONTINUOUS
 62
    4
 10
382.04665884425935
 20
691.04952369467525
 11
381.64985219198854
 21
689.22322499337667
  0
LINE
  8
_0-0_
  6
CONTINUOUS
 62
    4
 10
381.64985219198854
 20
689.22322499337667
 11
381.58378767388285
 21
688.16397174662347
  0
LINE
  8
_0-0_
  6
CONTINUOUS
 62
    4
 10
381.58378767388285
 20
688.16397174662347
 11
381.64985219198854
 21
687.10471849987015
  0
LINE
  8
_0-0_
  6
CONTINUOUS
 62
    4
 10
381.64985219198854
 20
687.10471849987015
 11
382.04665884425935
 21
685.27841979857157
  0
LINE
  8
_0-0_
  6
CONTINUOUS
 62
    4
 10
382.04665884425935
 20
685.27841979857157
 11
382.74495762772971
 21
683.45212109727276
  0
LINE
  8
_0-0_
  6
CONTINUOUS
 62
    4
 10
382.74495762772971
 20
683.45212109727276
 11
383.6789205661563
 21
681.62582239597418
  0
LINE
  8
_0-0_
  6
CONTINUOUS
 62
    4
 10
383.6789205661563
 20
681.62582239597418
 11
384.78271968329352
 21
679.79952369467525
  0
LINE
  8
_0-0_
  6
CONTINUOUS
 62
    4
 10
384.78271968329352
 20
679.79952369467525
 11
385.99052700289689
 21
677.97322499337667
  0
LINE
  8
_0-0_
  6
CONTINUOUS
 62
    4
 10
385.99052700289689
 20
677.97322499337667
 11
386.7127721609421
 21
676.91397174662347
  0
LINE
  8
_0-0_
  6
CONTINUOUS
 62
    4
 10
1098.2872278390577
 20
721.91397174662347
 11
1097.5649826810126
 21
720.85471849987015
  0
LINE
  8
_0-0_
  6
CONTINUOUS
 62
    4
 10
1097.5649826810126
 20
720.85471849987015
 11
1096.3571753614089
 21
719.02841979857157
  0
LINE
  8
_0-0_
  6
CONTINUOUS
 62
    4
 10
1096.3571753614089
 20
719.02841979857157
 11
1095.2533762442717
 21
717.20212109727276
  0
LINE
  8
_0-0_
  6
CONTINUOUS
 62
    4
 10
1095.2533762442717
 20
717.20212109727276
 11
1094.3194133058455
 21
715.37582239597418
  0
LINE
  8
_0-0_
  6
CONTINUOUS
 62
    4
 10
1094.3194133058455
 20
715.37582239597418
 11
1093.6211145223749
 21
713.54952369467525
  0
LINE
  8
_0-0_
  6
CONTINUOUS
 62
    4
 10
1093.6211145223749
 20
713.54952369467525
 11
1093.2243078701044
 21
711.72322499337667
  0
LINE
  8
_0-0_
  6
CONTINUOUS
 62
    4
 10
1093.2243078701044
 20
711.72322499337667
 11
1093.1582433519986
 21
710.66397174662347
  0
LINE
  8
_0-0_
  6
CONTINUOUS
 62
    4
 10
1093.1582433519986
 20
710.66397174662347
 11
1093.2243078701044
 21
709.60471849987015
  0
LINE
  8
_0-0_
  6
CONTINUOUS
 62
    4
 10
1093.2243078701044
 20
709.60471849987015
 11
1093.6211145223749
 21
707.77841979857157
  0
LINE
  8
_0-0_
  6
CONTINUOUS
 62
    4
 10
1093.6211145223749
 20
707.77841979857157
 11
1094.3194133058455
 21
705.95212109727276
  0
LINE
  8
_0-0_
  6
CONTINUOUS
 62
    4
 10
1094.3194133058455
 20
705.95212109727276
 11
1095.2533762442717
 21
704.12582239597418
  0
LINE
  8
_0-0_
  6
CONTINUOUS
 62
    4
 10
1095.2533762442717
 20
704.12582239597418
 11
1096.3571753614091
 21
702.29952369467525
  0
LINE
  8
_0-0_
  6
CONTINUOUS
 62
    4
 10
1096.3571753614091
 20
702.29952369467525
 11
1097.5649826810126
 21
700.47322499337667
  0
LINE
  8
_0-0_
  6
CONTINUOUS
 62
    4
 10
1097.5649826810126
 20
700.47322499337667
 11
1099.0094729971031
 21
698.35471849987015
  0
LINE
  8
_0-0_
  6
CONTINUOUS
 62
    4
 10
1099.0094729971031
 20
698.35471849987015
 11
1100.2172803167063
 21
696.52841979857157
  0
LINE
  8
_0-0_
  6
CONTINUOUS
 62
    4
 10
1100.2172803167063
 20
696.52841979857157
 11
1101.3210794338438
 21
694.70212109727276
  0
LINE
  8
_0-0_
  6
CONTINUOUS
 62
    4
 10
1101.3210794338438
 20
694.70212109727276
 11
1102.2550423722702
 21
692.87582239597418
  0
LINE
  8
_0-0_
  6
CONTINUOUS
 62
    4
 10
1102.2550423722702
 20
692.87582239597418
 11
1102.9533411557406
 21
691.04952369467525
  0
LINE
  8
_0-0_
  6
CONTINUOUS
 62
    4
 10
1102.9533411557406
 20
691.04952369467525
 11
1103.3501478080115
 21
689.22322499337667
  0
LINE
  8
_0-0_
  6
CONTINUOUS
 62
    4
 10
1103.3501478080115
 20
689.22322499337667
 11
1103.4162123261171
 21
688.16397174662347
  0
LINE
  8
_0-0_
  6
CONTINUOUS
 62
    4
 10
1103.4162123261171
 20
688.16397174662347
 11
1103.3501478080115
 21
687.10471849987015
  0
LINE
  8
_0-0_
  6
CONTINUOUS
 62
    4
 10
1103.3501478080115
 20
687.10471849987015
 11
1102.9533411557406
 21
685.27841979857157
  0
LINE
  8
_0-0_
  6
CONTINUOUS
 62
    4
 10
1102.9533411557406
 20
685.27841979857157
 11
1102.2550423722702
 21
683.45212109727276
  0
LINE
  8
_0-0_
  6
CONTINUOUS
 62
    4
 10
1102.2550423722702
 20
683.45212109727276
 11
1101.3210794338438
 21
681.62582239597418
  0
LINE
  8
_0-0_
  6
CONTINUOUS
 62
    4
 10
1101.3210794338438
 20
681.62582239597418
 11
1100.2172803167063
 21
679.79952369467525
  0
LINE
  8
_0-0_
  6
CONTINUOUS
 62
    4
 10
1100.2172803167063
 20
679.79952369467525
 11
1099.0094729971031
 21
677.97322499337667
  0
LINE
  8
_0-0_
  6
CONTINUOUS
 62
    4
 10
1099.0094729971031
 20
677.97322499337667
 11
1098.2872278390577
 21
676.91397174662347
  0
LINE
  8
_0-0_
  6
DASHED2
 62
    4
 10
726.5
 20
586.0134728620909
 11
727.25324675324691
 21
586.71755488833582
  0
LINE
  8
_0-0_
  6
DASHED2
 62
    4
 10
727.25324675324691
 20
586.71755488833582
 11
728.55194805194798
 21
587.89498808456698
  0
LINE
  8
_0-0_
  6
DASHED2
 62
    4
 10
728.55194805194798
 20
587.89498808456698
 11
729.8506493506494
 21
588.97102869252933
  0
LINE
  8
_0-0_
  6
DASHED2
 62
    4
 10
729.8506493506494
 20
588.97102869252933
 11
731.14935064935048
 21
589.88150418800273
  0
LINE
  8
_0-0_
  6
DASHED2
 62
    4
 10
731.14935064935048
 20
589.88150418800273
 11
732.44805194805189
 21
590.56224204676652
  0
LINE
  8
_0-0_
  6
DASHED2
 62
    4
 10
732.44805194805189
 20
590.56224204676652
 11
733.74675324675308
 21
590.94906974460002
  0
LINE
  8
_0-0_
  6
DASHED2
 62
    4
 10
733.74675324675308
 20
590.94906974460002
 11
734.49999999999988
 21
591.0134728620909
  0
LINE
  8
_0-0_
  6
DASHED2
 62
    4
 10
734.49999999999988
 20
591.0134728620909
 11
735.25324675324668
 21
590.94906974460002
  0
LINE
  8
_0-0_
  6
DASHED2
 62
    4
 10
735.25324675324668
 20
590.94906974460002
 11
736.5519480519481
 21
590.56224204676652
  0
LINE
  8
_0-0_
  6
DASHED2
 62
    4
 10
736.5519480519481
 20
590.56224204676652
 11
737.85064935064929
 21
589.88150418800273
  0
LINE
  8
_0-0_
  6
DASHED2
 62
    4
 10
737.85064935064929
 20
589.88150418800273
 11
739.1493506493507
 21
588.97102869252933
  0
LINE
  8
_0-0_
  6
DASHED2
 62
    4
 10
739.1493506493507
 20
588.97102869252933
 11
740.44805194805178
 21
587.89498808456698
  0
LINE
  8
_0-0_
  6
DASHED2
 62
    4
 10
740.44805194805178
 20
587.89498808456698
 11
741.7467532467532
 21
586.71755488833582
  0
LINE
  8
_0-0_
  6
DASHED2
 62
    4
 10
741.7467532467532
 20
586.71755488833582
 11
743.25324675324679
 21
585.30939083584655
  0
LINE
  8
_0-0_
  6
DASHED2
 62
    4
 10
743.25324675324679
 20
585.30939083584655
 11
744.55194805194821
 21
584.13195763961539
  0
LINE
  8
_0-0_
  6
DASHED2
 62
    4
 10
744.55194805194821
 20
584.13195763961539
 11
745.85064935064929
 21
583.05591703165282
  0
LINE
  8
_0-0_
  6
DASHED2
 62
    4
 10
745.85064935064929
 20
583.05591703165282
 11
747.1493506493507
 21
582.14544153617907
  0
LINE
  8
_0-0_
  6
DASHED2
 62
    4
 10
747.1493506493507
 20
582.14544153617907
 11
748.44805194805189
 21
581.46470367741528
  0
LINE
  8
_0-0_
  6
DASHED2
 62
    4
 10
748.44805194805189
 20
581.46470367741528
 11
749.74675324675331
 21
581.07787597958213
  0
LINE
  8
_0-0_
  6
DASHED2
 62
    4
 10
749.74675324675331
 20
581.07787597958213
 11
750.50000000000011
 21
581.0134728620909
  0
LINE
  8
_0-0_
  6
DASHED2
 62
    4
 10
750.50000000000011
 20
581.0134728620909
 11
751.25324675324691
 21
581.07787597958213
  0
LINE
  8
_0-0_
  6
DASHED2
 62
    4
 10
751.25324675324691
 20
581.07787597958213
 11
752.5519480519481
 21
581.46470367741562
  0
LINE
  8
_0-0_
  6
DASHED2
 62
    4
 10
752.5519480519481
 20
581.46470367741562
 11
753.85064935064951
 21
582.1454415361793
  0
LINE
  8
_0-0_
  6
DASHED2
 62
    4
 10
753.85064935064951
 20
582.1454415361793
 11
755.14935064935059
 21
583.05591703165305
  0
LINE
  8
_0-0_
  6
DASHED2
 62
    4
 10
755.14935064935059
 20
583.05591703165305
 11
756.44805194805201
 21
584.13195763961539
  0
LINE
  8
_0-0_
  6
DASHED2
 62
    4
 10
756.44805194805201
 20
584.13195763961539
 11
757.74675324675308
 21
585.30939083584655
  0
LINE
  8
_0-0_
  6
DASHED2
 62
    4
 10
757.74675324675308
 20
585.30939083584655
 11
758.5
 21
586.0134728620909
  0
LINE
  8
_0-0_
  6
CONTINUOUS
 62
    7
 10
456.21218316362643
 20
279.57132693407106
 11
1041.6973545015812
 21
279.57132693407106
  0
TEXT
  8
_0-0_
 62
    7
 10
872.31905277359658
 20
284.77174687069549
 40
15
 41
1
 50
0
  1
※天板厚　10～45㎜対応
  0
TEXT
  8
_0-0_
 62
    7
 10
478.72582507944315
 20
244.95960380349671
 40
15
 41
1
 50
0
  1
【セット内容】
  0
TEXT
  8
_0-0_
 62
    7
 10
484.98999431738326
 20
323.64467786582912
 40
17.5
 41
1
 50
0
  1
商品名：ラプソディ専用排水金具セット100mm
  0
TEXT
  8
_0-0_
 62
    7
 10
484.98999431738326
 20
298.28390333527067
 40
17.5
 41
1
 50
0
  1
品　番： SCR-649.271.100mm
  0
TEXT
  8
_0-0_
 62
    7
 10
477.91218316362642
 20
218.39132693407108
 40
15
 41
1
 50
0
  1
・JORGER製 排水金具 クロームメッキ（100㎜）
  0
TEXT
  8
_0-0_
 62
    7
 10
477.91218316362642
 20
193.39132693407108
 40
15
 41
1
 50
0
  1
・スチロールパッキン
  0
TEXT
  8
_0-0_
 62
    7
 10
477.91218316362642
 20
168.39132693407108
 40
15
 41
1
 50
0
  1
・天板固定用 樹脂パッキン付座付きナット×2
  0
TEXT
  8
_0-0_
 62
    7
 10
477.91218316362642
 20
143.39132693407108
 40
15
 41
1
 50
0
  1
・Оリング（黒）
  0
LINE
  8
_0-0_
  6
DASHED2
 62
    4
 10
770.50000000000011
 20
741.91397174662347
 11
770.50000000000011
 21
721.9139717466237
  0
LINE
  8
_0-0_
  6
CONTINUOUS
 62
    7
 10
342.5
 20
842.91397174662336
 11
342.5
 21
830.91397174662347
  0
LINE
  8
_0-0_
  6
CONTINUOUS
 62
    7
 10
707.5
 20
753.91397174662358
 11
719.49999999999988
 21
741.91397174662347
  0
LINE
  8
_0-0_
  6
CONTINUOUS
 62
    7
 10
777.5
 20
753.91397174662358
 11
765.50000000000011
 21
741.91397174662347
  0
LINE
  8
_0-0_
  6
CONTINUOUS
 62
    7
 10
1142.5
 20
842.91397174662336
 11
1142.5
 21
830.91397174662347
  0
LINE
  8
_0-0_
  6
CONTINUOUS
 62
    7
 10
1142.5
 20
842.91397174662336
 11
1142.5
 21
830.91397174662347
  0
LINE
  8
_0-0_
  6
CONTINUOUS
 62
    7
 10
342.5
 20
830.91397174662347
 11
390.79415265574027
 21
830.91397174662347
  0
LINE
  8
_0-0_
  6
CONTINUOUS
 62
    7
 10
1142.5
 20
842.91397174662392
 11
1142.5
 21
830.91397174662347
  0
LINE
  8
_0-0_
  6
CONTINUOUS
 62
    7
 10
1142.5
 20
830.91397174662347
 11
1094.2058473442598
 21
830.91397174662347
  0
LINE
  8
_0-0_
  6
CONTINUOUS
 62
    7
 10
390.79415265574027
 20
830.91397174662347
 11
697.50920917501275
 21
741.91397174662347
  0
LINE
  8
_0-0_
  6
CONTINUOUS
 62
    7
 10
1094.2058473442598
 20
830.91397174662347
 11
787.49079082498667
 21
741.91397174662347
  0
LINE
  8
_0-0_
  6
CONTINUOUS
 62
    7
 10
1142.5
 20
830.91397174662347
 11
1094.2058473442598
 21
830.91397174662347
  0
LINE
  8
_0-0_
  6
CONTINUOUS
 62
    7
 10
692.79999999999972
 20
721.91397174662347
 11
689.70000000000027
 21
721.91397174662347
  0
LINE
  8
_0-0_
  6
CONTINUOUS
 62
    7
 10
689.70000000000027
 20
721.91397174662347
 11
689.70000000000027
 21
725.01397174662338
  0
LINE
  8
_0-0_
  6
CONTINUOUS
 62
    7
 10
689.70000000000027
 20
725.01397174662338
 11
692.79999999999972
 21
725.01397174662338
  0
LINE
  8
_0-0_
  6
CONTINUOUS
 62
    7
 10
692.79999999999972
 20
725.01397174662338
 11
692.79999999999972
 21
721.91397174662347
  0
SOLID
  8
_0-0_
  6
CONTINUOUS
 62
    4
 10
689.70000000000027
 20
725.01397174662338
 11
689.70000000000027
 21
721.91397174662347
 12
692.79999999999972
 22
725.01397174662338
 13
692.79999999999972
 23
721.91397174662347
  0
LINE
  8
_0-0_
  6
CONTINUOUS
 62
    7
 10
792.20000000000027
 20
721.91397174662347
 11
795.29999999999972
 21
721.91397174662347
  0
LINE
  8
_0-0_
  6
CONTINUOUS
 62
    7
 10
795.29999999999972
 20
721.91397174662347
 11
795.29999999999972
 21
725.01397174662338
  0
LINE
  8
_0-0_
  6
CONTINUOUS
 62
    7
 10
795.29999999999972
 20
725.01397174662338
 11
792.20000000000027
 21
725.01397174662338
  0
LINE
  8
_0-0_
  6
CONTINUOUS
 62
    7
 10
792.20000000000027
 20
725.01397174662338
 11
792.20000000000027
 21
721.91397174662347
  0
SOLID
  8
_0-0_
  6
CONTINUOUS
 62
    4
 10
795.29999999999972
 20
725.01397174662338
 11
795.29999999999972
 21
721.91397174662347
 12
792.20000000000027
 22
725.01397174662338
 13
792.20000000000027
 23
721.91397174662347
  0
LINE
  8
_0-0_
  6
CONTINUOUS
 62
    3
 10
652.5
 20
721.91397174662347
 11
832.5
 21
721.91397174662347
  0
ARC
  8
_0-0_
  6
CONTINUOUS
 62
    3
 10
822.5
 20
721.91397174662347
 40
10
 50
0.0000000000004071
 51
90
  0
LINE
  8
_0-0_
  6
CONTINUOUS
 62
    3
 10
797.5
 20
731.91397174662347
 11
822.5
 21
731.91397174662347
  0
ARC
  8
_0-0_
  6
CONTINUOUS
 62
    3
 10
797.5
 20
738.91397174662358
 40
7.0000000000000017
 50
180
 51
270
  0
LINE
  8
_0-0_
  6
CONTINUOUS
 62
    3
 10
790.50000000000011
 20
738.91397174662358
 11
790.50000000000011
 21
741.91397174662347
  0
LINE
  8
_0-0_
  6
CONTINUOUS
 62
    3
 10
694.49999999999988
 20
741.91397174662347
 11
790.50000000000011
 21
741.91397174662347
  0
LINE
  8
_0-0_
  6
CONTINUOUS
 62
    3
 10
694.49999999999988
 20
738.91397174662358
 11
694.49999999999988
 21
741.91397174662347
  0
ARC
  8
_0-0_
  6
CONTINUOUS
 62
    3
 10
687.5
 20
738.91397174662358
 40
7.0000000000000017
 50
270
 51
0
  0
LINE
  8
_0-0_
  6
CONTINUOUS
 62
    3
 10
687.5
 20
731.91397174662347
 11
662.5
 21
731.91397174662347
  0
ARC
  8
_0-0_
  6
CONTINUOUS
 62
    3
 10
662.5
 20
721.91397174662347
 40
10
 50
90
 51
180
  0
LINE
  8
_0-0_
  6
DASHED2
 62
    7
 10
714.49999999999988
 20
741.91397174662347
 11
714.49999999999988
 21
721.9139717466237
  0
LINE
  8
_0-0_
  6
DASHED2
 62
    7
 10
770.50000000000011
 20
741.91397174662347
 11
770.50000000000011
 21
721.91397174662347
  0
LINE
  8
_0-0_
  6
CONTINUOUS
 62
    7
 10
711.5
 20
751.48349956640402
 11
773.5
 21
751.48349956640402
  0
LINE
  8
_0-0_
  6
CONTINUOUS
 62
    7
 10
722.46944593735054
 20
651.48349956640402
 11
762.76613115058648
 21
651.48349956640402
  0
LINE
  8
_0-0_
  6
CONTINUOUS
 62
    7
 10
722.46944593735054
 20
651.48349956640402
 11
722.46944593735054
 21
650.48349956640379
  0
LINE
  8
_0-0_
  6
CONTINUOUS
 62
    7
 10
763.25
 20
651.86949767819271
 11
762.76613115058648
 21
651.48349956640402
  0
LINE
  8
_0-0_
  6
CONTINUOUS
 62
    7
 10
762.5
 20
651.48349956640402
 11
762.5
 21
650.48349956640379
  0
LINE
  8
_0-0_
  6
CONTINUOUS
 62
    7
 10
762.5
 20
650.48349956640379
 11
722.46944593735054
 21
650.48349956640379
  0
LINE
  8
_0-0_
  6
CONTINUOUS
 62
    7
 10
723.24999999999988
 20
651.78296453321058
 11
722.90579613014506
 21
651.48349956640402
  0
LINE
  8
_0-0_
  6
CONTINUOUS
 62
    7
 10
761.75
 20
685.69575336535024
 11
763.25
 21
684.39072024530048
  0
LINE
  8
_0-0_
  6
CONTINUOUS
 62
    7
 10
762.7067846596592
 20
723.98349956640402
 11
761.75
 21
723.22024094278185
  0
LINE
  8
_0-0_
  6
CONTINUOUS
 62
    7
 10
722.85138067243724
 20
723.98349956640402
 11
721.74999999999977
 21
723.02527406286139
  0
LINE
  8
_0-0_
  6
CONTINUOUS
 62
    7
 10
721.74999999999977
 20
723.98349956640402
 11
763.25
 21
723.98349956640402
  0
LINE
  8
_0-0_
  6
CONTINUOUS
 62
    7
 10
761.75
 20
653.17453079824247
 11
763.25
 21
651.86949767819271
  0
LINE
  8
_0-0_
  6
CONTINUOUS
 62
    7
 10
763.25
 20
654.3711301833548
 11
761.75
 21
653.17453079824247
  0
LINE
  8
_0-0_
  6
CONTINUOUS
 62
    7
 10
761.75
 20
655.67616330340456
 11
763.25
 21
654.3711301833548
  0
LINE
  8
_0-0_
  6
CONTINUOUS
 62
    7
 10
763.25
 20
656.8727626885169
 11
761.75
 21
655.67616330340456
  0
LINE
  8
_0-0_
  6
CONTINUOUS
 62
    7
 10
761.75
 20
658.17779580856665
 11
763.25
 21
656.8727626885169
  0
LINE
  8
_0-0_
  6
CONTINUOUS
 62
    7
 10
763.25
 20
659.37439519367899
 11
761.75
 21
658.17779580856665
  0
LINE
  8
_0-0_
  6
CONTINUOUS
 62
    7
 10
763.25
 20
686.89235275046257
 11
761.75
 21
685.6957533653499
  0
LINE
  8
_0-0_
  6
CONTINUOUS
 62
    7
 10
761.75
 20
688.1973858705121
 11
763.25
 21
686.89235275046235
  0
LINE
  8
_0-0_
  6
CONTINUOUS
 62
    7
 10
763.25
 20
689.39398525562432
 11
761.75
 21
688.1973858705121
  0
LINE
  8
_0-0_
  6
CONTINUOUS
 62
    7
 10
761.75
 20
690.69901837567442
 11
763.25
 21
689.39398525562432
  0
LINE
  8
_0-0_
  6
CONTINUOUS
 62
    7
 10
763.25
 20
691.89561776078653
 11
761.75
 21
690.69901837567442
  0
LINE
  8
_0-0_
  6
CONTINUOUS
 62
    7
 10
761.75
 20
693.20065088083651
 11
763.25
 21
691.89561776078653
  0
LINE
  8
_0-0_
  6
CONTINUOUS
 62
    7
 10
763.25
 20
694.39725026594851
 11
761.75
 21
693.20065088083651
  0
LINE
  8
_0-0_
  6
CONTINUOUS
 62
    7
 10
761.75
 20
695.70228338599861
 11
763.25
 21
694.39725026594851
  0
LINE
  8
_0-0_
  6
CONTINUOUS
 62
    7
 10
763.25
 20
696.89888277111072
 11
761.75
 21
695.70228338599861
  0
LINE
  8
_0-0_
  6
CONTINUOUS
 62
    7
 10
761.75
 20
698.2039158911607
 11
763.25
 21
696.89888277111072
  0
LINE
  8
_0-0_
  6
CONTINUOUS
 62
    7
 10
763.25
 20
699.40051527627304
 11
761.75
 21
698.2039158911607
  0
LINE
  8
_0-0_
  6
CONTINUOUS
 62
    7
 10
761.75
 20
700.70554839632279
 11
763.25
 21
699.40051527627304
  0
LINE
  8
_0-0_
  6
CONTINUOUS
 62
    7
 10
763.25
 20
701.90214778143513
 11
761.75
 21
700.70554839632279
  0
LINE
  8
_0-0_
  6
CONTINUOUS
 62
    7
 10
761.75
 20
703.20718090148488
 11
763.25
 21
701.90214778143513
  0
LINE
  8
_0-0_
  6
CONTINUOUS
 62
    7
 10
763.25
 20
704.40378028659722
 11
761.75
 21
703.20718090148488
  0
LINE
  8
_0-0_
  6
CONTINUOUS
 62
    7
 10
761.75
 20
705.70881340664698
 11
763.25
 21
704.40378028659722
  0
LINE
  8
_0-0_
  6
CONTINUOUS
 62
    7
 10
763.25
 20
706.90541279175931
 11
761.75
 21
705.70881340664698
  0
LINE
  8
_0-0_
  6
CONTINUOUS
 62
    7
 10
761.75
 20
723.22024094278185
 11
763.25
 21
721.91520782273187
  0
LINE
  8
_0-0_
  6
CONTINUOUS
 62
    7
 10
721.74999999999977
 20
652.97956391832258
 11
723.24999999999988
 21
651.78296453321058
  0
LINE
  8
_0-0_
  6
CONTINUOUS
 62
    7
 10
723.24999999999988
 20
654.28459703837256
 11
721.74999999999977
 21
652.97956391832258
  0
LINE
  8
_0-0_
  6
CONTINUOUS
 62
    7
 10
721.74999999999977
 20
655.48119642348467
 11
723.24999999999988
 21
654.28459703837256
  0
LINE
  8
_0-0_
  6
CONTINUOUS
 62
    7
 10
723.24999999999988
 20
656.78622954353477
 11
721.74999999999977
 21
655.48119642348467
  0
LINE
  8
_0-0_
  6
CONTINUOUS
 62
    7
 10
721.74999999999977
 20
657.98282892864676
 11
723.24999999999988
 21
656.78622954353477
  0
LINE
  8
_0-0_
  6
CONTINUOUS
 62
    7
 10
723.24999999999988
 20
659.28786204869675
 11
721.74999999999977
 21
657.98282892864676
  0
LINE
  8
_0-0_
  6
CONTINUOUS
 62
    7
 10
723.24999999999988
 20
686.80581960547988
 11
721.74999999999977
 21
685.50078648543012
  0
LINE
  8
_0-0_
  6
CONTINUOUS
 62
    7
 10
721.74999999999977
 20
688.0024189905921
 11
723.24999999999988
 21
686.80581960547988
  0
LINE
  8
_0-0_
  6
CONTINUOUS
 62
    7
 10
723.24999999999988
 20
689.30745211064186
 11
721.74999999999977
 21
688.0024189905921
  0
LINE
  8
_0-0_
  6
CONTINUOUS
 62
    7
 10
721.74999999999977
 20
690.50405149575431
 11
723.24999999999988
 21
689.30745211064186
  0
LINE
  8
_0-0_
  6
CONTINUOUS
 62
    7
 10
723.24999999999988
 20
691.80908461580406
 11
721.74999999999977
 21
690.50405149575431
  0
LINE
  8
_0-0_
  6
CONTINUOUS
 62
    7
 10
721.74999999999977
 20
693.00568400091628
 11
723.24999999999988
 21
691.80908461580406
  0
LINE
  8
_0-0_
  6
CONTINUOUS
 62
    7
 10
723.24999999999988
 20
694.31071712096604
 11
721.74999999999977
 21
693.00568400091628
  0
LINE
  8
_0-0_
  6
CONTINUOUS
 62
    7
 10
721.74999999999977
 20
695.50731650607849
 11
723.24999999999988
 21
694.31071712096604
  0
LINE
  8
_0-0_
  6
CONTINUOUS
 62
    7
 10
723.24999999999988
 20
696.81234962612825
 11
721.74999999999977
 21
695.50731650607849
  0
LINE
  8
_0-0_
  6
CONTINUOUS
 62
    7
 10
721.74999999999977
 20
698.00894901124047
 11
723.24999999999988
 21
696.81234962612825
  0
LINE
  8
_0-0_
  6
CONTINUOUS
 62
    7
 10
723.24999999999988
 20
699.31398213129023
 11
721.74999999999977
 21
698.00894901124047
  0
LINE
  8
_0-0_
  6
CONTINUOUS
 62
    7
 10
721.74999999999977
 20
700.51058151640268
 11
723.24999999999988
 21
699.31398213129023
  0
LINE
  8
_0-0_
  6
CONTINUOUS
 62
    7
 10
723.24999999999988
 20
701.81561463645243
 11
721.74999999999977
 21
700.51058151640268
  0
LINE
  8
_0-0_
  6
CONTINUOUS
 62
    7
 10
721.74999999999977
 20
703.01221402156465
 11
723.24999999999988
 21
701.81561463645243
  0
LINE
  8
_0-0_
  6
CONTINUOUS
 62
    7
 10
723.24999999999988
 20
704.31724714161441
 11
721.74999999999977
 21
703.01221402156465
  0
LINE
  8
_0-0_
  6
CONTINUOUS
 62
    7
 10
721.74999999999977
 20
705.51384652672686
 11
723.24999999999988
 21
704.31724714161441
  0
LINE
  8
_0-0_
  6
CONTINUOUS
 62
    7
 10
723.24999999999988
 20
706.81887964677662
 11
721.74999999999977
 21
705.51384652672686
  0
LINE
  8
_0-0_
  6
CONTINUOUS
 62
    7
 10
721.74999999999977
 20
731.48349956640402
 11
763.25
 21
731.48349956640402
  0
ARC
  8
_0-0_
  6
CONTINUOUS
 62
    7
 10
709
 20
762.98349956640379
 40
0.5
 50
90
 51
180
  0
LINE
  8
_0-0_
  6
CONTINUOUS
 62
    7
 10
708.5
 20
761.9834995664039
 11
708.5
 21
762.98349956640379
  0
ARC
  8
_0-0_
  6
CONTINUOUS
 62
    7
 10
709
 20
761.9834995664039
 40
0.5
 50
180
 51
270
  0
LINE
  8
_0-0_
  6
CONTINUOUS
 62
    7
 10
776
 20
763.4834995664039
 11
709
 21
763.4834995664039
  0
ARC
  8
_0-0_
  6
CONTINUOUS
 62
    7
 10
776
 20
762.98349956640379
 40
0.5
 50
0
 51
90
  0
LINE
  8
_0-0_
  6
CONTINUOUS
 62
    7
 10
776
 20
761.48349956640402
 11
709
 21
761.48349956640402
  0
LINE
  8
_0-0_
  6
CONTINUOUS
 62
    7
 10
776.5
 20
761.9834995664039
 11
776.5
 21
762.98349956640379
  0
ARC
  8
_0-0_
  6
CONTINUOUS
 62
    7
 10
776
 20
761.9834995664039
 40
0.5
 50
270
 51
0
  0
LINE
  8
_0-0_
  6
CONTINUOUS
 62
    7
 10
726
 20
761.48349956640402
 11
726
 21
751.48349956640402
  0
LINE
  8
_0-0_
  6
CONTINUOUS
 62
    7
 10
758.99999999999988
 20
761.48349956640402
 11
758.99999999999988
 21
751.48349956640402
  0
ARC
  8
_0-0_
  6
CONTINUOUS
 62
    7
 10
711.5
 20
750.9834995664039
 40
0.5
 50
90
 51
270
  0
ARC
  8
_0-0_
  6
CONTINUOUS
 62
    7
 10
773.5
 20
750.9834995664039
 40
0.5
 50
270
 51
90
  0
LINE
  8
_0-0_
  6
CONTINUOUS
 62
    7
 10
711.5
 20
750.48349956640379
 11
773.5
 21
750.48349956640379
  0
LINE
  8
_0-0_
  6
CONTINUOUS
 62
    7
 10
718.15449376635342
 20
748.53584285430031
 11
711.5
 21
750.48349956640379
  0
LINE
  8
_0-0_
  6
CONTINUOUS
 62
    7
 10
766.84550623364646
 20
748.53584285430031
 11
773.5
 21
750.48349956640379
  0
ARC
  8
_0-0_
  6
CONTINUOUS
 62
    7
 10
716.74999999999977
 20
743.73715581925921
 40
5
 50
48.019793860088689
 51
73.686147573739262
  0
LINE
  8
_0-0_
  6
CONTINUOUS
 62
    7
 10
721.74999999999977
 20
743.73715581925921
 11
721.74999999999977
 21
723.98349956640402
  0
ARC
  8
_0-0_
  6
CONTINUOUS
 62
    7
 10
768.25
 20
743.73715581925898
 40
5
 50
106.31385242626049
 51
131.30321924446744
  0
LINE
  8
_0-0_
  6
CONTINUOUS
 62
    7
 10
763.25
 20
743.73715581925898
 11
763.25
 21
723.98349956640402
  0
ARC
  8
_0-0_
  6
CONTINUOUS
 62
    7
 10
716.74999999999977
 20
743.73715581925921
 40
5
 50
0
 51
48.019793860088689
  0
ARC
  8
_0-0_
  6
CONTINUOUS
 62
    7
 10
768.25
 20
743.73715581925898
 40
5
 50
131.30321924446744
 51
180
  0
LINE
  8
_0-0_
  6
CONTINUOUS
 62
    4
 10
713.0417641515396
 20
750.48349956640379
 11
714.04176415153926
 21
749.48349956640436
  0
LINE
  8
_0-0_
  6
CONTINUOUS
 62
    4
 10
717.2844048386562
 20
750.48349956640379
 11
718.28440483865711
 21
749.48349956640299
  0
LINE
  8
_0-0_
  6
CONTINUOUS
 62
    4
 10
721.52704552577256
 20
750.48349956640379
 11
722.52704552577461
 21
749.48349956640186
  0
LINE
  8
_0-0_
  6
CONTINUOUS
 62
    4
 10
725.76968621289779
 20
750.48349956640379
 11
726.76968621289711
 21
749.4834995664047
  0
LINE
  8
_0-0_
  6
CONTINUOUS
 62
    4
 10
730.01232690001415
 20
750.48349956640379
 11
731.01232690001495
 21
749.48349956640322
  0
LINE
  8
_0-0_
  6
CONTINUOUS
 62
    4
 10
734.25496758713074
 20
750.48349956640379
 11
735.25496758713188
 21
749.48349956640299
  0
LINE
  8
_0-0_
  6
CONTINUOUS
 62
    4
 10
738.4976082742562
 20
750.48349956640379
 11
739.49760827425507
 21
749.48349956640527
  0
LINE
  8
_0-0_
  6
CONTINUOUS
 62
    4
 10
742.74024896137257
 20
750.48349956640379
 11
743.74024896137279
 21
749.48349956640356
  0
LINE
  8
_0-0_
  6
CONTINUOUS
 62
    4
 10
746.98288964848893
 20
750.48349956640379
 11
747.98288964848893
 21
749.4834995664039
  0
LINE
  8
_0-0_
  6
CONTINUOUS
 62
    4
 10
751.22553033561416
 20
750.48349956640379
 11
752.22553033561302
 21
749.48349956640527
  0
LINE
  8
_0-0_
  6
CONTINUOUS
 62
    4
 10
755.46817102273075
 20
750.48349956640379
 11
756.46817102273075
 21
749.48349956640413
  0
LINE
  8
_0-0_
  6
CONTINUOUS
 62
    4
 10
759.71081170984689
 20
750.48349956640379
 11
760.71081170984621
 21
749.4834995664047
  0
LINE
  8
_0-0_
  6
CONTINUOUS
 62
    4
 10
763.95345239697257
 20
750.48349956640379
 11
764.95345239697087
 21
749.48349956640583
  0
LINE
  8
_0-0_
  6
CONTINUOUS
 62
    4
 10
768.19609308408871
 20
750.48349956640379
 11
769.19609308408837
 21
749.48349956640436
  0
LINE
  8
_0-0_
  6
CONTINUOUS
 62
    7
 10
710.93047218021968
 20
750.48349956640379
 11
711.93047218021933
 21
749.48349956640413
  0
LINE
  8
_0-0_
  6
CONTINUOUS
 62
    7
 10
711.93047218021933
 20
749.48349956640413
 11
773.06952781978066
 21
749.48349956640413
  0
LINE
  8
_0-0_
  6
CONTINUOUS
 62
    7
 10
774.06952781978031
 20
750.48349956640379
 11
773.06952781978066
 21
749.48349956640413
  0
LINE
  8
_0-0_
  6
CONTINUOUS
 62
    7
 10
710.93047218021968
 20
750.48349956640379
 11
774.06952781978031
 21
750.48349956640379
  0
LINE
  8
_0-0_
  6
CONTINUOUS
 62
    4
 10
772.43873377120985
 20
750.48349956640379
 11
773.25413079549502
 21
749.6681025421185
  0
LINE
  8
_0-0_
  6
CONTINUOUS
 62
    7
 10
712.49999999999988
 20
716.41397174662358
 11
772.5
 21
716.41397174662358
  0
LINE
  8
_0-0_
  6
CONTINUOUS
 62
    7
 10
721.74999999999977
 20
721.93125866564969
 11
721.77167005838532
 21
721.91397174662347
  0
ARC
  8
_0-0_
  6
CONTINUOUS
 62
    7
 10
714.86204993518128
 20
720.91397174662347
 40
1
 50
90
 51
129.80557109226512
  0
LINE
  8
_0-0_
  6
CONTINUOUS
 62
    7
 10
770.13795006481859
 20
721.91397174662347
 11
714.86204993518128
 21
721.91397174662347
  0
LINE
  8
_0-0_
  6
CONTINUOUS
 62
    7
 10
711.85981560033542
 20
719.71381808023636
 11
714.22186553551671
 21
721.68219302622082
  0
ARC
  8
_0-0_
  6
CONTINUOUS
 62
    7
 10
772.5
 20
718.94559680063912
 40
1
 50
0
 51
50.194428907734796
  0
LINE
  8
_0-0_
  6
CONTINUOUS
 62
    7
 10
773.14018439966434
 20
719.71381808023636
 11
770.77813446448305
 21
721.68219302622082
  0
ARC
  8
_0-0_
  6
CONTINUOUS
 62
    7
 10
770.13795006481859
 20
720.91397174662347
 40
1
 50
50.194428907734874
 51
90.000000000000056
  0
LINE
  8
_0-0_
  6
CONTINUOUS
 62
    7
 10
711.49999999999988
 20
716.41397174662358
 11
773.5
 21
716.41397174662358
  0
LINE
  8
_0-0_
  6
CONTINUOUS
 62
    7
 10
773.5
 20
718.94559680063912
 11
773.5
 21
716.41397174662358
  0
ARC
  8
_0-0_
  6
CONTINUOUS
 62
    7
 10
712.49999999999988
 20
718.94559680063912
 40
1
 50
129.80557109226521
 51
180
  0
LINE
  8
_0-0_
  6
CONTINUOUS
 62
    7
 10
711.49999999999988
 20
718.94559680063912
 11
711.49999999999988
 21
716.41397174662358
  0
LINE
  8
_0-0_
  6
CONTINUOUS
 62
    7
 10
719.75
 20
707.41397174662347
 11
765.25
 21
707.41397174662347
  0
LINE
  8
_0-0_
  6
CONTINUOUS
 62
    7
 10
712.5
 20
716.41397174662358
 11
772.5
 21
716.41397174662358
  0
LINE
  8
_0-0_
  6
DASHED1
 62
    4
 10
762.5
 20
707.41397174662347
 11
762.5
 21
716.41397174662358
  0
LINE
  8
_0-0_
  6
DASHED1
 62
    4
 10
722.5
 20
707.41397174662347
 11
722.5
 21
716.41397174662358
  0
LINE
  8
_0-0_
  6
CONTINUOUS
 62
    4
 10
712.5
 20
715.4139717466237
 11
772.5
 21
715.4139717466237
  0
LINE
  8
_0-0_
  6
CONTINUOUS
 62
    7
 10
712.5
 20
716.41397174662358
 11
712.5
 21
715.4139717466237
  0
LINE
  8
_0-0_
  6
CONTINUOUS
 62
    7
 10
772.5
 20
716.41397174662358
 11
772.5
 21
715.4139717466237
  0
LINE
  8
_0-0_
  6
CONTINUOUS
 62
    7
 10
719.75
 20
713.91397174662358
 11
719.75
 21
707.41397174662347
  0
LINE
  8
_0-0_
  6
CONTINUOUS
 62
    7
 10
712.5
 20
715.4139717466237
 11
714
 21
713.91397174662358
  0
LINE
  8
_0-0_
  6
CONTINUOUS
 62
    7
 10
765.25
 20
713.91397174662358
 11
765.25
 21
707.41397174662347
  0
LINE
  8
_0-0_
  6
CONTINUOUS
 62
    7
 10
714
 20
713.91397174662358
 11
771
 21
713.91397174662358
  0
LINE
  8
_0-0_
  6
CONTINUOUS
 62
    7
 10
772.5
 20
715.4139717466237
 11
771
 21
713.91397174662358
  0
LINE
  8
_0-0_
  6
CONTINUOUS
 62
    7
 10
761.75
 20
675.68922334470187
 11
763.25
 21
674.38419022465177
  0
LINE
  8
_0-0_
  6
CONTINUOUS
 62
    7
 10
763.25
 20
676.88582272981398
 11
761.75
 21
675.68922334470187
  0
LINE
  8
_0-0_
  6
CONTINUOUS
 62
    7
 10
761.75
 20
678.19085584986396
 11
763.25
 21
676.88582272981398
  0
LINE
  8
_0-0_
  6
CONTINUOUS
 62
    7
 10
763.25
 20
679.38745523497595
 11
761.75
 21
678.19085584986396
  0
LINE
  8
_0-0_
  6
CONTINUOUS
 62
    7
 10
761.75
 20
680.69248835502605
 11
763.25
 21
679.38745523497595
  0
LINE
  8
_0-0_
  6
CONTINUOUS
 62
    7
 10
763.25
 20
681.88908774013816
 11
761.75
 21
680.69248835502605
  0
LINE
  8
_0-0_
  6
CONTINUOUS
 62
    7
 10
761.75
 20
683.19412086018814
 11
763.25
 21
681.88908774013816
  0
LINE
  8
_0-0_
  6
CONTINUOUS
 62
    7
 10
763.25
 20
684.39072024530048
 11
761.75
 21
683.19412086018814
  0
LINE
  8
_0-0_
  6
CONTINUOUS
 62
    7
 10
721.74999999999977
 20
675.49425646478175
 11
723.24999999999988
 21
674.2976570796693
  0
LINE
  8
_0-0_
  6
CONTINUOUS
 62
    7
 10
723.24999999999988
 20
676.79928958483151
 11
721.74999999999977
 21
675.49425646478175
  0
LINE
  8
_0-0_
  6
CONTINUOUS
 62
    7
 10
721.74999999999977
 20
677.99588896994373
 11
723.24999999999988
 21
676.79928958483151
  0
LINE
  8
_0-0_
  6
CONTINUOUS
 62
    7
 10
723.24999999999988
 20
679.30092208999349
 11
721.74999999999977
 21
677.99588896994373
  0
LINE
  8
_0-0_
  6
CONTINUOUS
 62
    7
 10
721.74999999999977
 20
680.49752147510594
 11
723.24999999999988
 21
679.30092208999349
  0
LINE
  8
_0-0_
  6
CONTINUOUS
 62
    7
 10
723.24999999999988
 20
681.80255459515569
 11
721.74999999999977
 21
680.49752147510594
  0
LINE
  8
_0-0_
  6
CONTINUOUS
 62
    7
 10
721.74999999999977
 20
682.99915398026791
 11
723.24999999999988
 21
681.80255459515569
  0
LINE
  8
_0-0_
  6
CONTINUOUS
 62
    7
 10
723.24999999999988
 20
684.30418710031767
 11
721.74999999999977
 21
682.99915398026791
  0
LINE
  8
_0-0_
  6
CONTINUOUS
 62
    7
 10
721.74999999999977
 20
685.50078648543012
 11
723.24999999999988
 21
684.30418710031767
  0
LINE
  8
_0-0_
  6
CONTINUOUS
 62
    7
 10
722.50402088545558
 20
707.41397174662347
 11
723.24999999999988
 21
706.81887964677662
  0
LINE
  8
_0-0_
  6
CONTINUOUS
 62
    7
 10
762.66546431230244
 20
707.41397174662347
 11
763.25
 21
706.90541279175931
  0
LINE
  8
_0-0_
  6
CONTINUOUS
 62
    7
 10
721.74999999999977
 20
723.02527406286139
 11
723.14307565681292
 21
721.91397174662347
  0
LINE
  8
_0-0_
  6
CONTINUOUS
 62
    7
 10
763.25
 20
721.91520782273187
 11
763.24845051385977
 21
721.91397174662347
  0
LINE
  8
_0-0_
  6
CONTINUOUS
 62
    7
 10
692.5
 20
676.91397174662347
 11
692.5
 21
673.91397174662324
  0
LINE
  8
_0-0_
  6
CONTINUOUS
 62
    7
 10
792.5
 20
676.91397174662347
 11
792.5
 21
673.91397174662324
  0
LINE
  8
_0-0_
  6
CONTINUOUS
 62
    7
 10
692.5
 20
673.91397174662324
 11
720
 21
673.91397174662324
  0
LINE
  8
_0-0_
  6
CONTINUOUS
 62
    7
 10
692.5
 20
676.91397174662347
 11
720
 21
676.91397174662347
  0
LINE
  8
_0-0_
  6
CONTINUOUS
 62
    7
 10
765
 20
676.91397174662347
 11
792.5
 21
676.91397174662347
  0
LINE
  8
_0-0_
  6
CONTINUOUS
 62
    7
 10
765
 20
673.91397174662324
 11
792.5
 21
673.91397174662324
  0
LINE
  8
_0-0_
  6
DASHED3
 62
    4
 10
763.25
 20
676.91397174662347
 11
765
 21
676.91397174662347
  0
LINE
  8
_0-0_
  6
DASHED3
 62
    4
 10
720
 20
676.91397174662347
 11
723.10623990382384
 21
676.91397174662347
  0
LINE
  8
_0-0_
  6
DASHED3
 62
    4
 10
765
 20
673.91397174662324
 11
762.66055651054284
 21
673.91397174662324
  0
LINE
  8
_0-0_
  6
DASHED3
 62
    4
 10
722.80899356826489
 20
673.91397174662324
 11
720
 21
673.91397174662324
  0
LINE
  8
_0-0_
  6
DASHED3
 62
    4
 10
720
 20
676.91397174662347
 11
720
 21
673.91397174662324
  0
LINE
  8
_0-0_
  6
DASHED3
 62
    4
 10
765
 20
676.91397174662347
 11
765
 21
673.91397174662324
  0
LINE
  8
_0-0_
  6
CONTINUOUS
 62
    4
 10
718.75666307195297
 20
673.91397174662529
 11
719.99999999999874
 21
675.15730867467084
  0
LINE
  8
_0-0_
  6
CONTINUOUS
 62
    4
 10
717.34244950957884
 20
673.91397174662586
 11
719.9999999999984
 21
676.57152223704565
  0
LINE
  8
_0-0_
  6
CONTINUOUS
 62
    4
 10
715.92823594720186
 20
673.91397174662415
 11
718.92823594720073
 21
676.91397174662313
  0
LINE
  8
_0-0_
  6
CONTINUOUS
 62
    4
 10
714.51402238482558
 20
673.91397174662301
 11
717.51402238482432
 21
676.91397174662165
  0
LINE
  8
_0-0_
  6
CONTINUOUS
 62
    4
 10
713.09980882246122
 20
673.91397174662472
 11
716.09980882245974
 21
676.91397174662313
  0
LINE
  8
_0-0_
  6
CONTINUOUS
 62
    4
 10
711.68559526008721
 20
673.91397174662586
 11
714.68559526008573
 21
676.91397174662427
  0
LINE
  8
_0-0_
  6
CONTINUOUS
 62
    4
 10
710.27138169771035
 20
673.91397174662415
 11
713.27138169770887
 21
676.91397174662279
  0
LINE
  8
_0-0_
  6
CONTINUOUS
 62
    4
 10
708.8571681353352
 20
673.91397174662415
 11
711.85716813533406
 21
676.91397174662313
  0
LINE
  8
_0-0_
  6
CONTINUOUS
 62
    4
 10
707.44295457296925
 20
673.91397174662438
 11
710.44295457296789
 21
676.91397174662313
  0
LINE
  8
_0-0_
  6
CONTINUOUS
 62
    4
 10
706.02874101059546
 20
673.91397174662552
 11
709.02874101059387
 21
676.91397174662392
  0
LINE
  8
_0-0_
  6
CONTINUOUS
 62
    4
 10
704.61452744822111
 20
673.91397174662643
 11
707.61452744821986
 21
676.91397174662506
  0
LINE
  8
_0-0_
  6
CONTINUOUS
 62
    4
 10
703.20031388584288
 20
673.91397174662324
 11
706.20031388584163
 21
676.91397174662233
  0
LINE
  8
_0-0_
  6
CONTINUOUS
 62
    4
 10
701.78610032346773
 20
673.91397174662324
 11
704.78610032346637
 21
676.91397174662199
  0
LINE
  8
_0-0_
  6
CONTINUOUS
 62
    4
 10
700.37188676110326
 20
673.91397174662506
 11
703.37188676110201
 21
676.9139717466237
  0
LINE
  8
_0-0_
  6
CONTINUOUS
 62
    4
 10
698.95767319872925
 20
673.9139717466262
 11
701.95767319872788
 21
676.91397174662483
  0
LINE
  8
_0-0_
  6
CONTINUOUS
 62
    4
 10
697.5434596363525
 20
673.91397174662472
 11
700.54345963635114
 21
676.91397174662313
  0
LINE
  8
_0-0_
  6
CONTINUOUS
 62
    4
 10
696.12924607397621
 20
673.91397174662324
 11
699.12924607397508
 21
676.91397174662233
  0
LINE
  8
_0-0_
  6
CONTINUOUS
 62
    4
 10
694.71503251161152
 20
673.91397174662472
 11
697.71503251161016
 21
676.91397174662347
  0
LINE
  8
_0-0_
  6
CONTINUOUS
 62
    4
 10
693.30081894923739
 20
673.91397174662586
 11
696.30081894923591
 21
676.91397174662427
  0
LINE
  8
_0-0_
  6
CONTINUOUS
 62
    4
 10
692.49999999999658
 20
674.52736635976009
 11
694.88660538686201
 21
676.9139717466254
  0
LINE
  8
_0-0_
  6
CONTINUOUS
 62
    4
 10
692.5000000000017
 20
675.94157992214036
 11
693.47239182448265
 21
676.91397174662142
  0
LINE
  8
_0-0_
  6
CONTINUOUS
 62
    4
 10
792.29576831535155
 20
673.91397174662472
 11
792.49999999999874
 21
674.11820343127203
  0
LINE
  8
_0-0_
  6
CONTINUOUS
 62
    4
 10
790.8815547529748
 20
673.91397174662301
 11
792.5000000000009
 21
675.53241699364912
  0
LINE
  8
_0-0_
  6
CONTINUOUS
 62
    4
 10
788.05312762823587
 20
673.91397174662529
 11
791.05312762823484
 21
676.91397174662461
  0
LINE
  8
_0-0_
  6
CONTINUOUS
 62
    4
 10
786.63891406585958
 20
673.91397174662415
 11
789.63891406585833
 21
676.91397174662313
  0
LINE
  8
_0-0_
  6
CONTINUOUS
 62
    4
 10
785.22470050348283
 20
673.91397174662279
 11
788.22470050348158
 21
676.91397174662142
  0
LINE
  8
_0-0_
  6
CONTINUOUS
 62
    4
 10
783.8104869411087
 20
673.91397174662392
 11
786.81048694110745
 21
676.91397174662256
  0
LINE
  8
_0-0_
  6
CONTINUOUS
 62
    4
 10
782.39627337874458
 20
673.91397174662552
 11
785.39627337874321
 21
676.91397174662427
  0
LINE
  8
_0-0_
  6
CONTINUOUS
 62
    4
 10
780.98205981636942
 20
673.91397174662552
 11
783.98205981636829
 21
676.91397174662461
  0
LINE
  8
_0-0_
  6
CONTINUOUS
 62
    4
 10
779.56784625399359
 20
673.91397174662529
 11
782.56784625399245
 21
676.9139717466237
  0
LINE
  8
_0-0_
  6
CONTINUOUS
 62
    4
 10
778.15363269161707
 20
673.91397174662358
 11
781.15363269161559
 21
676.91397174662199
  0
LINE
  8
_0-0_
  6
CONTINUOUS
 62
    4
 10
776.73941912924783
 20
673.91397174662506
 11
779.73941912924647
 21
676.9139717466237
  0
LINE
  8
_0-0_
  6
CONTINUOUS
 62
    4
 10
775.32520556687688
 20
673.91397174662472
 11
778.32520556687597
 21
676.9139717466237
  0
LINE
  8
_0-0_
  6
CONTINUOUS
 62
    4
 10
773.91099200450184
 20
673.91397174662472
 11
776.91099200450037
 21
676.91397174662347
  0
LINE
  8
_0-0_
  6
CONTINUOUS
 62
    4
 10
772.4967784421251
 20
673.91397174662301
 11
775.49677844212385
 21
676.91397174662199
  0
LINE
  8
_0-0_
  6
CONTINUOUS
 62
    4
 10
771.08256487975097
 20
673.91397174662415
 11
774.08256487974972
 21
676.91397174662279
  0
LINE
  8
_0-0_
  6
CONTINUOUS
 62
    4
 10
769.66835131738673
 20
673.91397174662586
 11
772.66835131738525
 21
676.91397174662483
  0
LINE
  8
_0-0_
  6
CONTINUOUS
 62
    4
 10
768.25413775500987
 20
673.91397174662415
 11
771.25413775500874
 21
676.91397174662313
  0
LINE
  8
_0-0_
  6
CONTINUOUS
 62
    4
 10
766.83992419263586
 20
673.91397174662529
 11
769.83992419263461
 21
676.91397174662427
  0
LINE
  8
_0-0_
  6
CONTINUOUS
 62
    4
 10
765.42571063025911
 20
673.91397174662392
 11
768.42571063025786
 21
676.91397174662256
  0
LINE
  8
_0-0_
  6
CONTINUOUS
 62
    4
 10
764.99999999999795
 20
674.90247467872904
 11
767.01149706789351
 21
676.91397174662427
  0
LINE
  8
_0-0_
  6
CONTINUOUS
 62
    4
 10
765.00000000000045
 20
676.31668824110647
 11
765.59728350551699
 21
676.91397174662279
  0
LINE
  8
_0-0_
  6
CONTINUOUS
 62
    7
 10
712.49999999999988
 20
668.41397174662347
 11
772.5
 21
668.41397174662347
  0
LINE
  8
_0-0_
  6
CONTINUOUS
 62
    7
 10
721.74999999999977
 20
673.93125866564957
 11
721.77167005838532
 21
673.91397174662324
  0
ARC
  8
_0-0_
  6
CONTINUOUS
 62
    7
 10
714.86204993518128
 20
672.91397174662336
 40
1
 50
90
 51
129.80557109226512
  0
LINE
  8
_0-0_
  6
CONTINUOUS
 62
    7
 10
770.13795006481859
 20
673.91397174662324
 11
714.86204993518128
 21
673.91397174662324
  0
LINE
  8
_0-0_
  6
CONTINUOUS
 62
    7
 10
711.85981560033542
 20
671.71381808023625
 11
714.22186553551671
 21
673.6821930262206
  0
ARC
  8
_0-0_
  6
CONTINUOUS
 62
    7
 10
772.5
 20
670.94559680063889
 40
1
 50
0
 51
50.194428907734796
  0
LINE
  8
_0-0_
  6
CONTINUOUS
 62
    7
 10
773.14018439966434
 20
671.71381808023625
 11
770.77813446448305
 21
673.6821930262206
  0
ARC
  8
_0-0_
  6
CONTINUOUS
 62
    7
 10
770.13795006481859
 20
672.91397174662336
 40
1
 50
50.194428907734874
 51
90.000000000000056
  0
LINE
  8
_0-0_
  6
CONTINUOUS
 62
    7
 10
711.49999999999988
 20
668.41397174662347
 11
773.5
 21
668.41397174662347
  0
LINE
  8
_0-0_
  6
CONTINUOUS
 62
    7
 10
773.5
 20
670.94559680063889
 11
773.5
 21
668.41397174662347
  0
ARC
  8
_0-0_
  6
CONTINUOUS
 62
    7
 10
712.49999999999988
 20
670.94559680063889
 40
1
 50
129.80557109226521
 51
180
  0
LINE
  8
_0-0_
  6
CONTINUOUS
 62
    7
 10
711.49999999999988
 20
670.94559680063889
 11
711.49999999999988
 21
668.41397174662347
  0
LINE
  8
_0-0_
  6
CONTINUOUS
 62
    7
 10
719.75
 20
659.41397174662347
 11
765.25
 21
659.41397174662347
  0
LINE
  8
_0-0_
  6
CONTINUOUS
 62
    7
 10
712.5
 20
668.41397174662347
 11
772.5
 21
668.41397174662347
  0
LINE
  8
_0-0_
  6
DASHED1
 62
    4
 10
762.5
 20
659.41397174662347
 11
762.5
 21
668.41397174662347
  0
LINE
  8
_0-0_
  6
DASHED1
 62
    4
 10
722.5
 20
659.41397174662347
 11
722.5
 21
668.41397174662347
  0
LINE
  8
_0-0_
  6
CONTINUOUS
 62
    4
 10
712.5
 20
667.41397174662347
 11
772.5
 21
667.41397174662347
  0
LINE
  8
_0-0_
  6
CONTINUOUS
 62
    7
 10
712.5
 20
668.41397174662347
 11
712.5
 21
667.41397174662347
  0
LINE
  8
_0-0_
  6
CONTINUOUS
 62
    7
 10
772.5
 20
668.41397174662347
 11
772.5
 21
667.41397174662347
  0
LINE
  8
_0-0_
  6
CONTINUOUS
 62
    7
 10
719.75
 20
665.91397174662347
 11
719.75
 21
659.41397174662347
  0
LINE
  8
_0-0_
  6
CONTINUOUS
 62
    7
 10
712.5
 20
667.41397174662347
 11
714
 21
665.91397174662347
  0
LINE
  8
_0-0_
  6
CONTINUOUS
 62
    7
 10
765.25
 20
665.91397174662347
 11
765.25
 21
659.41397174662347
  0
LINE
  8
_0-0_
  6
CONTINUOUS
 62
    7
 10
714
 20
665.91397174662347
 11
771
 21
665.91397174662347
  0
LINE
  8
_0-0_
  6
CONTINUOUS
 62
    7
 10
772.5
 20
667.41397174662347
 11
771
 21
665.91397174662347
  0
LINE
  8
_0-0_
  6
CONTINUOUS
 62
    4
 10
742.5
 20
713.91397174662358
 11
742.5
 21
707.41397174662347
  0
LINE
  8
_0-0_
  6
CONTINUOUS
 62
    4
 10
742.5
 20
665.91397174662347
 11
742.5
 21
659.41397174662347
  0
LINE
  8
_0-0_
  6
CONTINUOUS
 62
    7
 10
723.24999999999988
 20
674.2976570796693
 11
722.80899356826489
 21
673.91397174662324
  0
LINE
  8
_0-0_
  6
CONTINUOUS
 62
    7
 10
763.25
 20
674.38419022465177
 11
762.66055651054284
 21
673.91397174662324
  0
LINE
  8
_0-0_
  6
CONTINUOUS
 62
    7
 10
723.09191488877263
 20
659.41397174662347
 11
723.24999999999988
 21
659.28786204869675
  0
LINE
  8
_0-0_
  6
CONTINUOUS
 62
    7
 10
763.20451086374396
 20
659.41397174662347
 11
763.25
 21
659.37439519367899
  0
LINE
  8
_0-0_
  6
CONTINUOUS
 62
    4
 10
772.42543227028249
 20
749.87653974037584
 11
966.09191845775342
 21
750.80355894473541
  0
LINE
  8
_0-0_
  6
CONTINUOUS
 62
    4
 10
793.23177735514843
 20
723.30546714505658
 11
967.21461441339727
 21
609.40078536569501
  0
TEXT
  8
_0-0_
 62
    4
 10
970.09283456835828
 20
598.83345513325343
 40
12.5
 41
1
 50
0
  1
Оリング（黒）
  0
LINE
  8
_0-0_
  6
DASHED2
 62
    4
 10
758.5
 20
650.48349956640379
 11
758.5
 21
586.0134728620909
  0
LINE
  8
_0-0_
  6
DASHED2
 62
    4
 10
726.5
 20
650.48349956640379
 11
726.5
 21
586.0134728620909
  0
LINE
  8
_0-0_
  6
CONTINUOUS
 62
    4
 10
717.0751550097492
 20
666.14039856632075
 11
471.52993330950664
 21
582.17328627668712
  0
LINE
  8
_0-0_
  6
CONTINUOUS
 62
    4
 10
750.4203997384709
 20
612.88574652891838
 11
994.71864598127331
 21
516.86331583109745
  0
LINE
  8
_0-0_
  6
CONTINUOUS
 62
    4
 10
789.46734119060079
 20
673.91397174662415
 11
792.46734119059942
 21
676.91397174662279
  0
LINE
  8
_0-0_
  6
CONTINUOUS
 62
    4
 10
790.78688414930502
 20
674.84352242582929
 11
967.4214061015582
 21
566.16944597648193
  0
LINE
  8
_0-0_
  6
CONTINUOUS
 62
    4
 10
699.21505651927247
 20
753.91397174662358
 11
785.78494348072752
 21
753.91397174662358
  0
LINE
  8
_0-0_
  6
CONTINUOUS
 62
    4
 10
392.5
 20
842.91397174662336
 11
699.21505651927247
 21
753.91397174662358
  0
LINE
  8
_0-0_
  6
DASHED2
 62
    4
 10
392.5
 20
842.91397174662336
 11
1092.4999999999979
 21
842.91397174662336
  0
LINE
  8
_0-0_
  6
CONTINUOUS
 62
    4
 10
1092.4999999999979
 20
842.91397174662336
 11
785.78494348072695
 21
753.91397174662358
  0
LINE
  8
_0-0_
  6
CONTINUOUS
 62
    7
 10
1092.4999999999979
 20
842.91397174662336
 11
1142.5
 21
842.91397174662336
  0
LINE
  8
_0-0_
  6
CONTINUOUS
 62
    7
 10
392.5
 20
842.91397174662336
 11
342.5
 21
842.91397174662336
  0
LINE
  8
_0-0_
  6
CONTINUOUS
 62
    4
 10
1151.1697170458915
 20
676.91397174662347
 11
1151.1697170458915
 21
651.91397174662347
  0
LINE
  8
_0-0_
  6
CONTINUOUS
 62
    4
 10
1151.1697170458915
 20
721.91397174662347
 11
1151.1697170458915
 21
746.91397174662347
  0
LINE
  8
_0-0_
  6
CONTINUOUS
 62
    4
 10
1151.1697170458915
 20
676.91397174662347
 11
1151.1697170458915
 21
721.91397174662347
  0
LINE
  8
_0-0_
  6
CONTINUOUS
 62
    7
 10
1151.1697170458915
 20
676.91397174662347
 11
1155.0520027224292
 21
662.42508435228728
  0
LINE
  8
_0-0_
  6
CONTINUOUS
 62
    7
 10
1151.1697170458915
 20
676.91397174662347
 11
1147.2874313693537
 21
662.42508435228728
  0
LINE
  8
_0-0_
  6
CONTINUOUS
 62
    7
 10
1151.1697170458915
 20
721.91397174662347
 11
1147.2874313693537
 21
736.40285914095954
  0
LINE
  8
_0-0_
  6
CONTINUOUS
 62
    7
 10
1151.1697170458915
 20
721.91397174662347
 11
1155.0520027224292
 21
736.40285914095954
  0
LINE
  8
_0-0_
  6
CONTINUOUS
 62
    4
 10
1151.1697170458915
 20
676.91397174662347
 11
1111.7262012115434
 21
676.91397174662347
  0
LINE
  8
_0-0_
  6
CONTINUOUS
 62
    4
 10
1151.1697170458915
 20
721.91397174662347
 11
1111.7262012115434
 21
721.91397174662347
  0
TEXT
  8
_0-0_
 62
    7
 10
1148.6697170458915
 20
691.28897174662347
 40
15
 41
1
 50
90
  1
45
  0
LINE
  8
_0-0_
  6
CONTINUOUS
 62
    7
 10
649.7729814052808
 20
532.20148085207381
 11
649.7729814052808
 21
514.70148085207381
  0
LINE
  8
_0-0_
  6
CONTINUOUS
 62
    7
 10
649.7729814052808
 20
514.70148085207381
 11
842.27298140528114
 21
514.70148085207381
  0
LINE
  8
_0-0_
  6
CONTINUOUS
 62
    7
 10
842.27298140528114
 20
514.70148085207381
 11
842.27298140528114
 21
532.20148085207381
  0
LINE
  8
_0-0_
  6
CONTINUOUS
 62
    7
 10
649.7729814052808
 20
532.20148085207381
 11
842.27298140528114
 21
532.20148085207381
  0
TEXT
  8
_0-0_
 62
    7
 10
686.02298140528091
 20
518.45148085207381
 40
10
 41
1
 50
0
  1
VESSEL（置き型）取付方法
  0
TEXT
  8
_0-0_
 62
    4
 10
999.67516388566627
 20
509.12636045977978
 40
12.5
 41
1
 50
0
  1
排水トラップφ32
  0
TEXT
  8
_0-0_
 62
    4
 10
970.55322386666898
 20
558.02671978719388
 40
12.5
 41
1
 50
0
  1
ボウル固定板（バックプレート）
  0
TEXT
  8
_0-0_
 62
    7
 10
477.91218316362642
 20
118.39132693407108
 40
15
 41
1
 50
0
  1
・ボウル固定板（バックプレート）
  0
ENDSEC
  0
EOF
