  0
SECTION
  2
HEADER
  9
$ACADVER
  1
AC1009
  9
$INSBASE
 10
0
 20
0
 30
0
  9
$EXTMIN
 10
0
 20
0
  9
$EXTMAX
 10
2100
 20
1485
  9
$LIMMIN
 10
0
 20
0
  9
$LIMMAX
 10
2100
 20
1485
  9
$LTSCALE
 40
5
  0
ENDSEC
  0
SECTION
  2
TABLES
  0
TABLE
  2
LTYPE
 70
     9
  0
LTYPE
  2
CONTINUOUS
 70
    64
  3
実線
 72
    65
 73
     0
 40
0.0
  0
LTYPE
  2
DASHED1
 70
    64
  3
--  --  --  --  --  --  --  --  
 72
    65
 73
     2
 40
2.5
 49
1.25
 49
-1.25
  0
LTYPE
  2
DASHED2
 70
    64
  3
----    ----    ----    ----    
 72
    65
 73
     2
 40
5.0
 49
2.5
 49
-2.5
  0
LTYPE
  2
DASHED3
 70
    64
  3
------  ------  ------  ------  
 72
    65
 73
     2
 40
5.0
 49
3.75
 49
-1.25
  0
LTYPE
  2
CENTER1
 70
    64
  3
----- - ----- - ----- - ----- - 
 72
    65
 73
     4
 40
10.0
 49
6.25
 49
-1.25
 49
1.25
 49
-1.25
  0
LTYPE
  2
CENTER2
 70
    64
  3
----------  --  ----------  --  
 72
    65
 73
     4
 40
20.0
 49
12.5
 49
-2.5
 49
2.5
 49
-2.5
  0
LTYPE
  2
PHANTOM1
 70
    64
  3
--- - - --- - - --- - - --- - - 
 72
    65
 73
     6
 40
10.0
 49
3.25
 49
-1.25
 49
1.25
 49
-1.25
 49
1.25
 49
-1.25
  0
LTYPE
  2
PHANTOM2
 70
    64
  3
--------  -  -  --------  -  -  
 72
    65
 73
     6
 40
20.0
 49
10.0
 49
-2.5
 49
1.25
 49
-2.5
 49
1.25
 49
-2.5
  0
LTYPE
  2
DOT
 70
    64
  3
-   -   -   -   -   -   -   -   
 72
    65
 73
     2
 40
2.5
 49
0.625
 49
-1.875
  0
LTYPE
  2
DUMMY
 70
    64
  3
ダミー
 72
    65
 73
     0
 40
0.0
  0
LTYPE
  2
RAND1
 70
    64
  3
ランダム線1
 72
    65
 73
     4
 40
10.0
 49
1.0
 49
-2.0
 49
3.0
 49
-4.0
  0
LTYPE
  2
RAND2
 70
    64
  3
ランダム線2
 72
    65
 73
     4
 40
14.0
 49
2.0
 49
-3.0
 49
4.0
 49
-5.0
  0
LTYPE
  2
RAND3
 70
    64
  3
ランダム線3
 72
    65
 73
     4
 40
18.0
 49
3.0
 49
-4.0
 49
5.0
 49
-6.0
  0
LTYPE
  2
RAND4
 70
    64
  3
ランダム線4
 72
    65
 73
     4
 40
22.0
 49
4.0
 49
-5.0
 49
6.0
 49
-7.0
  0
LTYPE
  2
RAND5
 70
    64
  3
ランダム線5
 72
    65
 73
     4
 40
26.0
 49
5.0
 49
-6.0
 49
7.0
 49
-8.0
  0
LTYPE
  2
LONG1
 70
    64
  3
----------  --  ----------  --  
 72
    65
 73
     4
 40
40.0
 49
32.5
 49
-2.5
 49
2.5
 49
-2.5
  0
LTYPE
  2
LONG2
 70
    64
  3
--------  -  -  --------  -  -  
 72
    65
 73
     6
 40
40.0
 49
30.0
 49
-2.5
 49
1.25
 49
-2.5
 49
1.25
 49
-2.5
  0
LTYPE
  2
LONG3
 70
    64
  3
+++++++++++++++..+++++++++++++++
 72
    65
 73
     2
 40
40.0
 49
37.5
 49
-2.5
  0
LTYPE
  2
LONG4
 70
    64
  3
+++++++++++++++..+++++++++++++++
 72
    65
 73
     2
 40
80.0
 49
75.0
 49
-5.0
  0
LTYPE
  2
LONG5
 70
    64
  3
----------  --  ----------  --  
 72
    65
 73
     4
 40
60.0
 49
37.5
 49
-7.5
 49
7.5
 49
-7.5
  0
LTYPE
  2
dashed
 70
   64
  3
-------   -------------   ------
 72
   65
 73
    2
 40
7.5
 49
6
 49
-1.5
  0
LTYPE
  2
dashed_spaced
 70
   64
  3
----        --------        ----
 72
   65
 73
    2
 40
12
 49
6
 49
-6
  0
LTYPE
  2
long_dashed_dotted
 70
   64
  3
------------- --- --------------
 72
   65
 73
    4
 40
15.25
 49
12
 49
-1.5
 49
0.25
 49
-1.5
  0
LTYPE
  2
long_dashed_double-dotted
 70
   64
  3
----------- --- --- ------------
 72
   65
 73
    6
 40
17
 49
12
 49
-1.5
 49
0.25
 49
-1.5
 49
0.25
 49
-1.5
  0
LTYPE
  2
long_dashed_triplicate-dotted
 70
   64
  3
--------- --- --- --- ----------
 72
   65
 73
    8
 40
18.75
 49
12
 49
-1.5
 49
0.25
 49
-1.5
 49
0.25
 49
-1.5
 49
0.25
 49
-1.5
  0
LTYPE
  2
dotted
 70
   64
  3
   -       -       -       -    
 72
   65
 73
    2
 40
1.75
 49
0.25
 49
-1.5
  0
LTYPE
  2
chain
 70
   64
  3
-------------- -- --------------
 72
   65
 73
    4
 40
18.5
 49
12
 49
-1.5
 49
3.5
 49
-1.5
  0
LTYPE
  2
chain_double_dash
 70
   64
  3
------------ -- -- -------------
 72
   65
 73
    6
 40
23.5
 49
12
 49
-1.5
 49
3.5
 49
-1.5
 49
3.5
 49
-1.5
  0
LTYPE
  2
dashed_dotted
 70
   64
  3
-----------     -     ----------
 72
   65
 73
    4
 40
9.25
 49
6
 49
-1.5
 49
0.25
 49
-1.5
  0
LTYPE
  2
double-dashed_dotted
 70
   64
  3
------   -----------   -   -----
 72
   65
 73
    6
 40
16.75
 49
6
 49
-1.5
 49
6
 49
-1.5
 49
0.25
 49
-1.5
  0
LTYPE
  2
dashed_double-dotted
 70
   64
  3
---------    -    -    ---------
 72
   65
 73
    6
 40
11
 49
6
 49
-1.5
 49
0.25
 49
-1.5
 49
0.25
 49
-1.5
  0
LTYPE
  2
double-dashed_double-dotted
 70
   64
  3
-----   ---------   -   -   ----
 72
   65
 73
    8
 40
18.5
 49
6
 49
-1.5
 49
6
 49
-1.5
 49
0.25
 49
-1.5
 49
0.25
 49
-1.5
  0
LTYPE
  2
dashed_triplicate-dotted
 70
   64
  3
-------    -    -    -    ------
 72
   65
 73
    8
 40
12.75
 49
6
 49
-1.5
 49
0.25
 49
-1.5
 49
0.25
 49
-1.5
 49
0.25
 49
-1.5
  0
LTYPE
  2
double-dashed_triplicate-dotted
 70
   64
  3
-----  ---------  -  -  -  -----
 72
   65
 73
   10
 40
20.25
 49
6
 49
-1.5
 49
6
 49
-1.5
 49
0.25
 49
-1.5
 49
0.25
 49
-1.5
 49
0.25
 49
-1.5
  0
LTYPE
  2
undefined
 70
   64
  3
--------------------------------
 72
   65
 73
    0
 40
0
  0
LTYPE
  2
_
 70
   64
  3
                                
 72
   65
 73
    0
 40
0
  0
LTYPE
  2
__18
 70
   64
  3
                                
 72
   65
 73
    0
 40
0
  0
LTYPE
  2
__19
 70
   64
  3
                                
 72
   65
 73
    0
 40
0
  0
LTYPE
  2
__20
 70
   64
  3
                                
 72
   65
 73
    0
 40
0
  0
LTYPE
  2
__21
 70
   64
  3
                                
 72
   65
 73
    0
 40
0
  0
LTYPE
  2
__22
 70
   64
  3
                                
 72
   65
 73
    0
 40
0
  0
LTYPE
  2
__23
 70
   64
  3
                                
 72
   65
 73
    0
 40
0
  0
LTYPE
  2
__24
 70
   64
  3
                                
 72
   65
 73
    0
 40
0
  0
LTYPE
  2
__25
 70
   64
  3
                                
 72
   65
 73
    0
 40
0
  0
LTYPE
  2
__26
 70
   64
  3
                                
 72
   65
 73
    0
 40
0
  0
LTYPE
  2
__27
 70
   64
  3
                                
 72
   65
 73
    0
 40
0
  0
LTYPE
  2
__28
 70
   64
  3
                                
 72
   65
 73
    0
 40
0
  0
LTYPE
  2
__29
 70
   64
  3
                                
 72
   65
 73
    0
 40
0
  0
LTYPE
  2
__30
 70
   64
  3
                                
 72
   65
 73
    0
 40
0
  0
LTYPE
  2
__31
 70
   64
  3
                                
 72
   65
 73
    0
 40
0
  0
LTYPE
  2
__32
 70
   64
  3
                                
 72
   65
 73
    0
 40
0
  0
ENDTAB
  0
TABLE
  2
STYLE
  5
3
100
AcDbSymbolTable
 70
     1
  0
STYLE
  5
10
100
AcDbSymbolTableRecord
100
AcDbTextStyleTableRecord
  2
STANDARD
 70
     0
 40
0.0
 41
1.0
 50
0.0
 71
     0
 42
0.2
  3
txt
  4
bigfont.shx
  0
STYLE
  5
26
100
AcDbSymbolTableRecord
100
AcDbTextStyleTableRecord
  2
TATEGAKI
 70
    68
 40
0.0
 41
1.0
 50
0.0
 71
     0
 42
1.0
  3
txt
  4
bigfont.shx
  0
ENDTAB
  0
TABLE
  2
LAYER
 70
   12
  0
LAYER
  2
_0-0_
 70
   64
 62
    7
  6
CONTINUOUS
  0
LAYER
  2
_0-1_マウンティングディスク
 70
   64
 62
    7
  6
CONTINUOUS
  0
LAYER
  2
_0-2_目皿
 70
   64
 62
    7
  6
CONTINUOUS
  0
LAYER
  2
_0-3_スポンジパッキン
 70
   64
 62
    7
  6
CONTINUOUS
  0
LAYER
  2
_0-4_三角パッキン
 70
   64
 62
    7
  6
CONTINUOUS
  0
LAYER
  2
_0-5_スリップパッキン
 70
   64
 62
    7
  6
CONTINUOUS
  0
LAYER
  2
_0-7_
 70
   64
 62
    7
  6
CONTINUOUS
  0
LAYER
  2
_0-8_天板
 70
   64
 62
    7
  6
CONTINUOUS
  0
LAYER
  2
_0-9_バックプレ__ト
 70
   64
 62
    7
  6
CONTINUOUS
  0
LAYER
  2
_0-a_ナット
 70
   64
 62
    7
  6
CONTINUOUS
  0
LAYER
  2
_0-b_化粧キャップラウンド
 70
   64
 62
    7
  6
CONTINUOUS
  0
LAYER
  2
ADD_LINE
 70
   64
 62
    7
  6
CONTINUOUS
  0
ENDTAB
  0
ENDSEC
  0
SECTION
  2
BLOCKS
  0
ENDSEC
  0
SECTION
  2
ENTITIES
  0
TEXT
  8
_0-0_
 62
    7
 10
695.11430347179555
 20
458.22815453750934
 40
17.5
 41
1
 50
0
  1
品　番：SC-ADW-S070／SC-ADW-P070／SC-ADW-B070
  0
TEXT
  8
_0-0_
 62
    7
 10
695.11430347179555
 20
483.58892906806772
 40
17.5
 41
1
 50
0
  1
商品名：Mimi280シリーズ Sトラップ／Pトラップ／ボトルラップ コンプリートセット70mm
  0
LINE
  8
_0-0_
  6
CONTINUOUS
 62
    7
 10
666.33649231803872
 20
439.51557813630955
 11
1433.6635076819611
 21
439.51557813630955
  0
TEXT
  8
_0-0_
 62
    7
 10
763.34524249259459
 20
230.83197330385928
 40
15
 41
1
 50
0
  1
・排水トラップ
  0
TEXT
  8
_0-0_
 62
    7
 10
763.3452424925947
 20
330.83197330385928
 40
15
 41
1
 50
0
  1
・Mimi シリーズ　排水栓（排水目皿）（70㎜）
  0
TEXT
  8
_0-0_
 62
    7
 10
763.34524249259459
 20
355.83197330385928
 40
15
 41
1
 50
0
  1
・Оリング×2（乳白・黒 各1）
  0
TEXT
  8
_0-0_
 62
    7
 10
763.34524249259459
 20
380.83197330385928
 40
15
 41
1
 50
0
  1
・SUS304 Mimi マウンティングディスク
  0
TEXT
  8
_0-0_
 62
    7
 10
764.9909226434861
 20
405.07867789672889
 40
15
 41
1
 50
0
  1
【セット内容】
  0
TEXT
  8
_0-0_
 62
    7
 10
1239.7075061101975
 20
445.55202280950254
 40
15
 41
1
 50
0
  1
※天板厚　15～25㎜対応
  0
TEXT
  8
_0-0_
 62
    7
 10
763.34524249259459
 20
205.83197330385928
 40
15
 41
1
 50
0
  1
・化粧キャップラウンド（クロム）
  0
TEXT
  8
_0-0_
 62
    7
 10
763.3452424925947
 20
180.83197330385928
 40
15
 41
1
 50
0
  1
・排水トラップ（SトラップまたはPトラップまたはボトルラップ）
  0
TEXT
  8
_0-0_
 62
    7
 10
763.3452424925947
 20
305.83197330385928
 40
15
 41
1
 50
0
  1
・洗面器排水パッキン（スポンジパッキン・三角パッキン・スリップパッキン）
  0
TEXT
  8
_0-0_
 62
    7
 10
763.3452424925947
 20
280.83197330385928
 40
15
 41
1
 50
0
  1
・排水目皿用ナット×2
  0
TEXT
  8
_0-0_
 62
    7
 10
763.3452424925947
 20
255.83197330385928
 40
15
 41
1
 50
0
  1
・ボウル固定板（バックプレート）
  0
LINE
  8
_0-0_
  6
CONTINUOUS
 62
    4
 10
1011.4530391686787
 20
1003.9789153402396
 11
818.99006663455315
 21
949.69860603869301
  0
TEXT
  8
_0-0_
 62
    4
 10
731.54973832683958
 20
943.24713062784576
 40
12.5
 41
1
 50
0
  1
Оリング（黒）
  0
LINE
  8
_0-0_
  6
CONTINUOUS
 62
    4
 10
1038.283324782322
 20
969.87330052101754
 11
929.93464454472723
 21
869.38564341406674
  0
LINE
  8
_0-0_
  6
CONTINUOUS
 62
    4
 10
1013.222087492291
 20
977.2053339631534
 11
911.40177322022566
 21
912.37103128564172
  0
LINE
  8
_0-0_
  6
CONTINUOUS
 62
    4
 10
1040.9125511999163
 20
994.39345441931152
 11
929.93464454472723
 21
869.38564341406674
  0
TEXT
  8
_0-0_
 62
    4
 10
1262.8028154270916
 20
903.08999357474408
 40
12.5
 41
1
 50
0
  1
Оリング（乳白）
  0
LINE
  8
_0-0_
  6
CONTINUOUS
 62
    4
 10
1075.5922025365703
 20
1012.1345789228348
 11
1259.9245952721316
 21
913.65732380718554
  0
TEXT
  8
_0-0_
 62
    4
 10
1282.3784153729322
 20
872.64818533734216
 40
12.5
 41
1
 50
0
  1
三角パッキン
  0
LINE
  8
_0-0_
  6
CONTINUOUS
 62
    4
 10
1057.430755221887
 20
1003.9426219041295
 11
1279.8859777826262
 21
880.3277347944014
  0
TEXT
  8
_0-0_
 62
    4
 10
1234.9562728930941
 20
850.88754114327355
 40
12.5
 41
1
 50
0
  1
スリップパッキン
  0
LINE
  8
_0-0_
  6
CONTINUOUS
 62
    4
 10
1051.6891813279478
 20
1000.1618580978013
 11
1232.1934858156023
 21
857.98191697815366
  0
LINE
  8
_0-0_
  6
DASHED2
 62
    4
 10
1058.7532467532469
 20
862.23343151443054
 11
1060.0519480519471
 21
862.62025921226404
  0
LINE
  8
_0-0_
  6
DASHED2
 62
    4
 10
1057.2467532467533
 20
862.23343151443054
 11
1058.0000000000006
 21
862.16902839693966
  0
LINE
  8
_0-0_
  6
DASHED2
 62
    4
 10
1058.0000000000006
 20
862.16902839693966
 11
1058.7532467532469
 21
862.23343151443054
  0
LINE
  8
_0-0_
  6
DASHED2
 62
    4
 10
1038.6493506493513
 20
871.0370597228516
 11
1039.9480519480528
 21
871.71779758161528
  0
LINE
  8
_0-0_
  6
DASHED2
 62
    4
 10
1039.9480519480528
 20
871.71779758161528
 11
1041.246753246753
 21
872.10462527944878
  0
LINE
  8
_0-0_
  6
DASHED2
 62
    4
 10
1041.246753246753
 20
872.10462527944878
 11
1041.9999999999993
 21
872.16902839693966
  0
LINE
  8
_0-0_
  6
DASHED2
 62
    4
 10
1041.9999999999993
 20
872.16902839693966
 11
1042.7532467532466
 21
872.10462527944878
  0
LINE
  8
_0-0_
  6
DASHED2
 62
    4
 10
1042.7532467532466
 20
872.10462527944878
 11
1044.0519480519481
 21
871.71779758161528
  0
LINE
  8
_0-0_
  6
DASHED2
 62
    4
 10
1044.0519480519481
 20
871.71779758161528
 11
1045.3506493506495
 21
871.0370597228516
  0
LINE
  8
_0-0_
  6
DASHED2
 62
    4
 10
1045.3506493506495
 20
871.0370597228516
 11
1046.6493506493509
 21
870.12658422737808
  0
LINE
  8
_0-0_
  6
DASHED2
 62
    4
 10
1046.6493506493509
 20
870.12658422737808
 11
1047.9480519480523
 21
869.05054361941552
  0
LINE
  8
_0-0_
  6
DASHED2
 62
    4
 10
1047.9480519480523
 20
869.05054361941552
 11
1049.2467532467537
 21
867.87311042318435
  0
LINE
  8
_0-0_
  6
DASHED2
 62
    4
 10
1049.2467532467537
 20
867.87311042318435
 11
1050.7532467532462
 21
866.46494637069508
  0
LINE
  8
_0-0_
  6
DASHED2
 62
    4
 10
1050.7532467532462
 20
866.46494637069508
 11
1052.0519480519476
 21
865.28751317446392
  0
LINE
  8
_0-0_
  6
DASHED2
 62
    4
 10
1052.0519480519476
 20
865.28751317446392
 11
1053.350649350649
 21
864.21147256650124
  0
LINE
  8
_0-0_
  6
DASHED2
 62
    4
 10
1053.350649350649
 20
864.21147256650124
 11
1054.6493506493504
 21
863.30099707102795
  0
LINE
  8
_0-0_
  6
DASHED2
 62
    4
 10
1054.6493506493504
 20
863.30099707102795
 11
1055.9480519480518
 21
862.62025921226404
  0
LINE
  8
_0-0_
  6
DASHED2
 62
    4
 10
1055.9480519480518
 20
862.62025921226404
 11
1057.2467532467533
 21
862.23343151443054
  0
LINE
  8
_0-0_
  6
DASHED2
 62
    4
 10
1037.5
 20
870.23128890935709
 11
1038.6493506493513
 21
871.0370597228516
  0
LINE
  8
_0-0_
  6
DASHED2
 62
    4
 10
1060.0519480519471
 20
862.62025921226404
 11
1061.3506493506486
 21
863.30099707102795
  0
LINE
  8
_0-0_
  6
DASHED2
 62
    4
 10
1061.3506493506486
 20
863.30099707102795
 11
1062.5
 21
864.10676788452246
  0
LINE
  8
_0-0_
  6
CONTINUOUS
 62
    4
 10
1453.8169932835442
 20
1003.0695272814718
 11
1453.8169932835442
 21
978.06952728147189
  0
LINE
  8
_0-0_
  6
CONTINUOUS
 62
    7
 10
1453.8169932835442
 20
1003.0695272814718
 11
1451.8758504452753
 21
1010.3139709786399
  0
LINE
  8
_0-0_
  6
CONTINUOUS
 62
    7
 10
1453.8169932835442
 20
1003.0695272814718
 11
1455.7581361218128
 21
1010.3139709786399
  0
LINE
  8
_0-0_
  6
CONTINUOUS
 62
    7
 10
1453.8169932835442
 20
978.06952728147189
 11
1455.7581361218128
 21
970.82508358430402
  0
LINE
  8
_0-0_
  6
CONTINUOUS
 62
    7
 10
1453.8169932835442
 20
978.06952728147189
 11
1451.8758504452753
 21
970.82508358430402
  0
LINE
  8
_0-0_
  6
CONTINUOUS
 62
    4
 10
1453.8169932835442
 20
1003.0695272814718
 11
1426.6365445579358
 21
1003.0695272814718
  0
LINE
  8
_0-0_
  6
CONTINUOUS
 62
    4
 10
1453.8169932835442
 20
978.06952728147189
 11
1426.6365445579358
 21
978.06952728147189
  0
TEXT
  8
_0-0_
 62
    7
 10
1451.3169932835442
 20
982.44452728147189
 40
15
 41
1
 50
90
  1
25
  0
TEXT
  8
_0-0_
 62
    7
 10
1221.8249568023954
 20
955.53973208624961
 40
17.5
 41
1
 50
0
  1
天板開口寸法：53～55
  0
LINE
  8
_0-0_
  6
DASHED2
 62
    4
 10
1037.5
 20
954.42638714571921
 11
1037.5
 21
870.23128890935709
  0
LINE
  8
_0-0_
  6
DASHED2
 62
    4
 10
1062.5
 20
954.42638714571921
 11
1062.5
 21
864.10676788452246
  0
LINE
  8
_0-0_
  6
CONTINUOUS
 62
    4
 10
1056.1328263530378
 20
1037.8020805787123
 11
1137.1263350808806
 21
1132.7079342698561
  0
TEXT
  8
_0-0_
 62
    4
 10
1140.5156912876395
 20
1132.0808143554195
 40
12.5
 41
1
 50
0
  1
化粧キャップラウンド
  0
TEXT
  8
_0-0_
 62
    4
 10
1259.3979344990614
 20
1052.701335173559
 40
12.5
 41
1
 50
0
  1
スポンジパッキン
  0
LINE
  8
_0-0_
  6
CONTINUOUS
 62
    4
 10
1096.9708104779558
 20
1005.0200925411777
 11
1261.6568212073893
 21
1040.7636235677407
  0
TEXT
  8
_0-0_
 62
    4
 10
1261.178156061376
 20
1035.1716635547084
 40
12.5
 41
1
 50
0
  1
マウンティングディスク
  0
LINE
  8
_0-0_
  6
CENTER1
 62
    4
 10
1050
 20
1161.0480738037572
 11
1050
 21
829.25375318568649
  0
LINE
  8
_0-0_
  6
CONTINUOUS
 62
    4
 10
1054.1705771262638
 20
875.4591007653255
 11
1220.6127900841142
 21
831.92806045327233
  0
LINE
  8
_0-8_天板
  6
CONTINUOUS
 62
    3
 10
1017.5
 20
1003.0695272814718
 11
694.2127721609421
 21
1003.0695272814718
  0
LINE
  8
_0-8_天板
  6
CONTINUOUS
 62
    3
 10
1017.5
 20
978.06952728147189
 11
692.53770122854325
 21
978.06952728147189
  0
LINE
  8
_0-8_天板
  6
CONTINUOUS
 62
    3
 10
1017.5
 20
1003.0695272814718
 11
1017.5
 21
978.06952728147189
  0
LINE
  8
_0-8_天板
  6
CONTINUOUS
 62
    3
 10
1405.7872278390584
 20
1003.0695272814718
 11
1082.5
 21
1003.0695272814718
  0
LINE
  8
_0-8_天板
  6
CONTINUOUS
 62
    3
 10
1082.5
 20
1003.0695272814718
 11
1082.5
 21
978.06952728147189
  0
LINE
  8
_0-8_天板
  6
CONTINUOUS
 62
    3
 10
1407.4622987714574
 20
978.06952728147189
 11
1082.5
 21
978.06952728147189
  0
LINE
  8
_0-8_天板
  6
CONTINUOUS
 62
    4
 10
698.06298018211691
 20
986.87770538662675
 11
714.25480207696296
 21
1003.0695272814718
  0
LINE
  8
_0-8_天板
  6
CONTINUOUS
 62
    4
 10
696.55128820247853
 20
999.50814903072171
 11
700.11266645322962
 21
1003.069527281473
  0
LINE
  8
_0-8_天板
  6
CONTINUOUS
 62
    4
 10
703.39693770069516
 20
978.06952728147189
 11
728.39693770069402
 21
1003.0695272814707
  0
LINE
  8
_0-8_天板
  6
CONTINUOUS
 62
    4
 10
788.24975144307768
 20
978.06952728147189
 11
813.24975144307813
 21
1003.0695272814728
  0
LINE
  8
_0-8_天板
  6
CONTINUOUS
 62
    4
 10
774.10761581934389
 20
978.06952728147189
 11
799.1076158193448
 21
1003.069527281473
  0
LINE
  8
_0-8_天板
  6
CONTINUOUS
 62
    4
 10
759.96548019561998
 20
978.06952728147189
 11
784.96548019561828
 21
1003.0695272814705
  0
LINE
  8
_0-8_天板
  6
CONTINUOUS
 62
    4
 10
745.82334457188608
 20
978.06952728147189
 11
770.82334457188608
 21
1003.0695272814716
  0
LINE
  8
_0-8_天板
  6
CONTINUOUS
 62
    4
 10
731.68120894815331
 20
978.06952728147189
 11
756.68120894815388
 21
1003.069527281473
  0
LINE
  8
_0-8_天板
  6
CONTINUOUS
 62
    4
 10
717.53907332441917
 20
978.06952728147189
 11
742.53907332442054
 21
1003.0695272814737
  0
LINE
  8
_0-8_天板
  6
CONTINUOUS
 62
    4
 10
957.95537892784977
 20
978.06952728147189
 11
982.95537892785091
 21
1003.0695272814725
  0
LINE
  8
_0-8_天板
  6
CONTINUOUS
 62
    4
 10
943.81324330411621
 20
978.06952728147189
 11
968.8132433041153
 21
1003.069527281471
  0
LINE
  8
_0-8_天板
  6
CONTINUOUS
 62
    4
 10
929.67110768038401
 20
978.06952728147189
 11
954.67110768038423
 21
1003.0695272814725
  0
LINE
  8
_0-8_天板
  6
CONTINUOUS
 62
    4
 10
915.52897205665863
 20
978.06952728147189
 11
940.52897205665772
 21
1003.0695272814714
  0
LINE
  8
_0-8_天板
  6
CONTINUOUS
 62
    4
 10
901.38683643292608
 20
978.06952728147189
 11
926.38683643292665
 21
1003.0695272814728
  0
LINE
  8
_0-8_天板
  6
CONTINUOUS
 62
    4
 10
887.24470080919195
 20
978.06952728147189
 11
912.24470080919218
 21
1003.0695272814718
  0
LINE
  8
_0-8_天板
  6
CONTINUOUS
 62
    4
 10
873.10256518546884
 20
978.06952728147189
 11
898.1025651854668
 21
1003.0695272814705
  0
LINE
  8
_0-8_天板
  6
CONTINUOUS
 62
    4
 10
858.96042956173459
 20
978.06952728147189
 11
883.96042956173459
 21
1003.0695272814716
  0
LINE
  8
_0-8_天板
  6
CONTINUOUS
 62
    4
 10
844.81829393800148
 20
978.06952728147189
 11
869.81829393800239
 21
1003.0695272814728
  0
LINE
  8
_0-8_天板
  6
CONTINUOUS
 62
    4
 10
830.67615831426883
 20
978.06952728147189
 11
855.67615831426905
 21
1003.0695272814725
  0
LINE
  8
_0-8_天板
  6
CONTINUOUS
 62
    4
 10
816.53402269054436
 20
978.06952728147189
 11
841.53402269054254
 21
1003.0695272814705
  0
LINE
  8
_0-8_天板
  6
CONTINUOUS
 62
    4
 10
802.39188706681045
 20
978.06952728147189
 11
827.39188706681034
 21
1003.0695272814716
  0
LINE
  8
_0-8_天板
  6
CONTINUOUS
 62
    4
 10
972.09751455158311
 20
978.06952728147189
 11
997.09751455158198
 21
1003.0695272814714
  0
LINE
  8
_0-8_天板
  6
CONTINUOUS
 62
    4
 10
986.23965017530758
 20
978.06952728147189
 11
1011.2396501753084
 21
1003.0695272814718
  0
LINE
  8
_0-8_天板
  6
CONTINUOUS
 62
    4
 10
1000.3817857990409
 20
978.06952728147189
 11
1017.5000000000011
 21
995.18774148243232
  0
LINE
  8
_0-8_天板
  6
CONTINUOUS
 62
    4
 10
1014.5239214227742
 20
978.06952728147189
 11
1017.4999999999988
 21
981.04560585869671
  0
LINE
  8
_0-8_天板
  6
CONTINUOUS
 62
    4
 10
1184.2295489075472
 20
978.06952728147189
 11
1209.2295489075479
 21
1003.0695272814718
  0
LINE
  8
_0-8_天板
  6
CONTINUOUS
 62
    4
 10
1198.3716845312756
 20
978.06952728147189
 11
1223.3716845312767
 21
1003.0695272814733
  0
LINE
  8
_0-8_天板
  6
CONTINUOUS
 62
    4
 10
1212.5138201550043
 20
978.06952728147189
 11
1237.5138201550043
 21
1003.0695272814716
  0
LINE
  8
_0-8_天板
  6
CONTINUOUS
 62
    4
 10
1226.6559557787377
 20
978.06952728147189
 11
1251.6559557787377
 21
1003.0695272814718
  0
LINE
  8
_0-8_天板
  6
CONTINUOUS
 62
    4
 10
1240.7980914024715
 20
978.06952728147189
 11
1265.7980914024699
 21
1003.0695272814707
  0
LINE
  8
_0-8_天板
  6
CONTINUOUS
 62
    4
 10
1254.9402270261955
 20
978.06952728147189
 11
1279.9402270261975
 21
1003.0695272814739
  0
LINE
  8
_0-8_天板
  6
CONTINUOUS
 62
    4
 10
1269.0823626499288
 20
978.06952728147189
 11
1294.0823626499297
 21
1003.0695272814728
  0
LINE
  8
_0-8_天板
  6
CONTINUOUS
 62
    4
 10
1283.2244982736622
 20
978.06952728147189
 11
1308.2244982736619
 21
1003.0695272814716
  0
LINE
  8
_0-8_天板
  6
CONTINUOUS
 62
    4
 10
1297.3666338973955
 20
978.06952728147189
 11
1322.3666338973964
 21
1003.0695272814722
  0
LINE
  8
_0-8_天板
  6
CONTINUOUS
 62
    4
 10
1311.5087695211195
 20
978.06952728147189
 11
1336.5087695211195
 21
1003.0695272814716
  0
LINE
  8
_0-8_天板
  6
CONTINUOUS
 62
    4
 10
1325.6509051448538
 20
978.06952728147189
 11
1350.6509051448517
 21
1003.0695272814705
  0
LINE
  8
_0-8_天板
  6
CONTINUOUS
 62
    4
 10
1339.793040768586
 20
978.06952728147189
 11
1364.7930407685851
 21
1003.0695272814714
  0
LINE
  8
_0-8_天板
  6
CONTINUOUS
 62
    4
 10
1353.9351763923204
 20
978.06952728147189
 11
1378.9351763923184
 21
1003.0695272814703
  0
LINE
  8
_0-8_天板
  6
CONTINUOUS
 62
    4
 10
1368.0773120160438
 20
978.06952728147189
 11
1393.0773120160449
 21
1003.0695272814737
  0
LINE
  8
_0-8_天板
  6
CONTINUOUS
 62
    4
 10
1382.2194476397769
 20
978.06952728147189
 11
1403.1288656277308
 21
998.97894526942559
  0
LINE
  8
_0-8_天板
  6
CONTINUOUS
 62
    4
 10
1396.3615832635109
 20
978.06952728147189
 11
1403.0623007193855
 21
984.7702447373465
  0
LINE
  8
_0-8_天板
  6
CONTINUOUS
 62
    4
 10
694.2127721609421
 20
1003.0695272814718
 11
694.93501731898732
 21
1002.0102740347186
  0
LINE
  8
_0-8_天板
  6
CONTINUOUS
 62
    4
 10
694.93501731898732
 20
1002.0102740347186
 11
696.14282463859069
 21
1000.1839753334201
  0
LINE
  8
_0-8_天板
  6
CONTINUOUS
 62
    4
 10
696.14282463859069
 20
1000.1839753334201
 11
697.24662375572791
 21
998.35767663212118
  0
LINE
  8
_0-8_天板
  6
CONTINUOUS
 62
    4
 10
697.24662375572791
 20
998.35767663212118
 11
698.18058669415449
 21
996.5313779308226
  0
LINE
  8
_0-8_天板
  6
CONTINUOUS
 62
    4
 10
698.18058669415449
 20
996.5313779308226
 11
698.87888547762599
 21
994.70507922952401
  0
LINE
  8
_0-8_天板
  6
CONTINUOUS
 62
    4
 10
698.87888547762599
 20
994.70507922952401
 11
699.27569212989624
 21
992.8787805282252
  0
LINE
  8
_0-8_天板
  6
CONTINUOUS
 62
    4
 10
699.27569212989624
 20
992.8787805282252
 11
699.34175664800136
 21
991.81952728147189
  0
LINE
  8
_0-8_天板
  6
CONTINUOUS
 62
    4
 10
699.34175664800136
 20
991.81952728147189
 11
699.27569212989624
 21
990.76027403471869
  0
LINE
  8
_0-8_天板
  6
CONTINUOUS
 62
    4
 10
699.27569212989624
 20
990.76027403471869
 11
698.87888547762599
 21
988.9339753334201
  0
LINE
  8
_0-8_天板
  6
CONTINUOUS
 62
    4
 10
698.87888547762599
 20
988.9339753334201
 11
698.18058669415449
 21
987.10767663212118
  0
LINE
  8
_0-8_天板
  6
CONTINUOUS
 62
    4
 10
698.18058669415449
 20
987.10767663212118
 11
697.24662375572791
 21
985.2813779308226
  0
LINE
  8
_0-8_天板
  6
CONTINUOUS
 62
    4
 10
697.24662375572791
 20
985.2813779308226
 11
696.14282463859069
 21
983.45507922952401
  0
LINE
  8
_0-8_天板
  6
CONTINUOUS
 62
    4
 10
696.14282463859069
 20
983.45507922952401
 11
694.93501731898732
 21
981.6287805282252
  0
LINE
  8
_0-8_天板
  6
CONTINUOUS
 62
    4
 10
694.93501731898732
 20
981.6287805282252
 11
693.49052700289689
 21
979.51027403471869
  0
LINE
  8
_0-8_天板
  6
CONTINUOUS
 62
    4
 10
693.49052700289689
 20
979.51027403471869
 11
692.53770122854325
 21
978.06952728147189
  0
LINE
  8
_0-8_天板
  6
CONTINUOUS
 62
    4
 10
1406.5094729971031
 20
979.51027403471869
 11
1407.4622987714574
 21
978.06952728147189
  0
LINE
  8
_0-8_天板
  6
CONTINUOUS
 62
    4
 10
1405.0649826810126
 20
981.6287805282252
 11
1406.5094729971031
 21
979.51027403471869
  0
LINE
  8
_0-8_天板
  6
CONTINUOUS
 62
    4
 10
1403.8571753614098
 20
983.45507922952401
 11
1405.0649826810126
 21
981.6287805282252
  0
LINE
  8
_0-8_天板
  6
CONTINUOUS
 62
    4
 10
1402.7533762442715
 20
985.2813779308226
 11
1403.8571753614098
 21
983.45507922952401
  0
LINE
  8
_0-8_天板
  6
CONTINUOUS
 62
    4
 10
1401.8194133058455
 20
987.10767663212118
 11
1402.7533762442715
 21
985.2813779308226
  0
LINE
  8
_0-8_天板
  6
CONTINUOUS
 62
    4
 10
1401.121114522374
 20
988.9339753334201
 11
1401.8194133058455
 21
987.10767663212118
  0
LINE
  8
_0-8_天板
  6
CONTINUOUS
 62
    4
 10
1400.7243078701037
 20
990.76027403471869
 11
1401.121114522374
 21
988.9339753334201
  0
LINE
  8
_0-8_天板
  6
CONTINUOUS
 62
    4
 10
1400.6582433519986
 20
991.81952728147189
 11
1400.7243078701037
 21
990.76027403471869
  0
LINE
  8
_0-8_天板
  6
CONTINUOUS
 62
    4
 10
1400.7243078701037
 20
992.8787805282252
 11
1400.6582433519986
 21
991.81952728147189
  0
LINE
  8
_0-8_天板
  6
CONTINUOUS
 62
    4
 10
1401.121114522374
 20
994.70507922952401
 11
1400.7243078701037
 21
992.8787805282252
  0
LINE
  8
_0-8_天板
  6
CONTINUOUS
 62
    4
 10
1401.8194133058455
 20
996.5313779308226
 11
1401.121114522374
 21
994.70507922952401
  0
LINE
  8
_0-8_天板
  6
CONTINUOUS
 62
    4
 10
1402.7533762442715
 20
998.35767663212118
 11
1401.8194133058455
 21
996.5313779308226
  0
LINE
  8
_0-8_天板
  6
CONTINUOUS
 62
    4
 10
1403.8571753614098
 20
1000.1839753334201
 11
1402.7533762442715
 21
998.35767663212118
  0
LINE
  8
_0-8_天板
  6
CONTINUOUS
 62
    4
 10
1405.0649826810126
 20
1002.0102740347186
 11
1403.8571753614098
 21
1000.1839753334201
  0
LINE
  8
_0-8_天板
  6
CONTINUOUS
 62
    4
 10
1405.7872278390584
 20
1003.0695272814718
 11
1405.0649826810126
 21
1002.0102740347186
  0
LINE
  8
_0-8_天板
  6
CONTINUOUS
 62
    4
 10
1170.0874132838139
 20
978.06952728147189
 11
1195.0874132838146
 21
1003.0695272814718
  0
LINE
  8
_0-8_天板
  6
CONTINUOUS
 62
    4
 10
1155.9452776600805
 20
978.06952728147189
 11
1180.9452776600812
 21
1003.0695272814733
  0
LINE
  8
_0-8_天板
  6
CONTINUOUS
 62
    4
 10
1141.8031420363561
 20
978.06952728147189
 11
1166.8031420363547
 21
1003.0695272814696
  0
LINE
  8
_0-8_天板
  6
CONTINUOUS
 62
    4
 10
1127.6610064126227
 20
978.06952728147189
 11
1152.6610064126214
 21
1003.0695272814707
  0
LINE
  8
_0-8_天板
  6
CONTINUOUS
 62
    4
 10
1113.5188707888892
 20
978.06952728147189
 11
1138.5188707888892
 21
1003.0695272814716
  0
LINE
  8
_0-8_天板
  6
CONTINUOUS
 62
    4
 10
1099.3767351651556
 20
978.06952728147189
 11
1124.376735165157
 21
1003.0695272814728
  0
LINE
  8
_0-8_天板
  6
CONTINUOUS
 62
    4
 10
1085.2345995414318
 20
978.06952728147189
 11
1110.2345995414304
 21
1003.0695272814703
  0
LINE
  8
_0-8_天板
  6
CONTINUOUS
 62
    4
 10
1082.5000000000011
 20
989.47706336377359
 11
1096.0924639176971
 21
1003.069527281471
  0
LINE
  8
_0-9_バックプレ__ト
  6
CONTINUOUS
 62
    7
 10
1010
 20
975.06952728147211
 11
1089.9999999999997
 21
975.06952728147211
  0
LINE
  8
_0-9_バックプレ__ト
  6
CONTINUOUS
 62
    7
 10
1089.9999999999997
 20
978.06952728147189
 11
1089.9999999999997
 21
975.06952728147211
  0
LINE
  8
_0-9_バックプレ__ト
  6
CONTINUOUS
 62
    7
 10
1010
 20
978.06952728147189
 11
1089.9999999999997
 21
978.06952728147189
  0
LINE
  8
_0-9_バックプレ__ト
  6
CONTINUOUS
 62
    7
 10
1010
 20
978.06952728147189
 11
1010
 21
975.06952728147211
  0
LINE
  8
_0-9_バックプレ__ト
  6
DASHED1
 62
    4
 10
1033.5
 20
978.06952728147189
 11
1033.5
 21
975.06952728147211
  0
LINE
  8
_0-9_バックプレ__ト
  6
DASHED1
 62
    4
 10
1066.5
 20
978.06952728147189
 11
1066.5
 21
975.06952728147211
  0
LINE
  8
_0-a_ナット
  6
CONTINUOUS
 62
    7
 10
1025.4999999999997
 20
999.84386655173148
 11
1025.4999999999997
 21
997.34386655173148
  0
LINE
  8
_0-a_ナット
  6
CONTINUOUS
 62
    7
 10
1025.4999999999997
 20
997.34386655173148
 11
1074.5
 21
997.34386655173148
  0
LINE
  8
_0-a_ナット
  6
CONTINUOUS
 62
    7
 10
1074.5
 20
999.84386655173148
 11
1074.5
 21
997.34386655173148
  0
LINE
  8
_0-a_ナット
  6
CONTINUOUS
 62
    7
 10
1025.4999999999997
 20
999.84386655173148
 11
1074.5
 21
999.84386655173148
  0
LINE
  8
_0-a_ナット
  6
CONTINUOUS
 62
    7
 10
1031
 20
997.34386655173148
 11
1031
 21
991.4438665517315
  0
LINE
  8
_0-a_ナット
  6
CONTINUOUS
 62
    7
 10
1031
 20
991.4438665517315
 11
1069
 21
991.4438665517315
  0
LINE
  8
_0-a_ナット
  6
CONTINUOUS
 62
    7
 10
1069
 20
997.34386655173148
 11
1069
 21
991.4438665517315
  0
LINE
  8
_0-a_ナット
  6
CONTINUOUS
 62
    7
 10
1025.4999999999997
 20
972.56952728147211
 11
1074.5
 21
972.56952728147211
  0
LINE
  8
_0-a_ナット
  6
CONTINUOUS
 62
    7
 10
1025.4999999999997
 20
975.06952728147211
 11
1074.5
 21
975.06952728147211
  0
LINE
  8
_0-a_ナット
  6
CONTINUOUS
 62
    7
 10
1025.4999999999997
 20
975.06952728147211
 11
1025.4999999999997
 21
972.56952728147211
  0
LINE
  8
_0-a_ナット
  6
CONTINUOUS
 62
    7
 10
1031
 20
972.56952728147211
 11
1031
 21
966.66952728147202
  0
LINE
  8
_0-a_ナット
  6
CONTINUOUS
 62
    7
 10
1031
 20
966.66952728147202
 11
1069
 21
966.66952728147202
  0
LINE
  8
_0-a_ナット
  6
CONTINUOUS
 62
    7
 10
1074.5
 20
975.06952728147211
 11
1074.5
 21
972.56952728147211
  0
LINE
  8
_0-a_ナット
  6
CONTINUOUS
 62
    7
 10
1069
 20
972.56952728147211
 11
1069
 21
966.66952728147202
  0
LINE
  8
_0-4_三角パッキン
  6
CONTINUOUS
 62
    7
 10
1034.25
 20
1007.8438665517314
 11
1024
 21
1001.8438665517314
  0
LINE
  8
_0-4_三角パッキン
  6
CONTINUOUS
 62
    7
 10
1024
 20
1001.8438665517314
 11
1024
 21
1000.3438665517314
  0
LINE
  8
_0-4_三角パッキン
  6
CONTINUOUS
 62
    7
 10
1024
 20
1000.3438665517314
 11
1076
 21
1000.3438665517314
  0
LINE
  8
_0-4_三角パッキン
  6
CONTINUOUS
 62
    7
 10
1076
 20
1000.3438665517314
 11
1076
 21
1001.8438665517314
  0
LINE
  8
_0-4_三角パッキン
  6
CONTINUOUS
 62
    7
 10
1065.75
 20
1007.8438665517314
 11
1076
 21
1001.8438665517314
  0
LINE
  8
_0-4_三角パッキン
  6
CONTINUOUS
 62
    7
 10
1065.75
 20
1007.8438665517314
 11
1034.25
 21
1007.8438665517314
  0
LINE
  8
_0-4_三角パッキン
  6
CONTINUOUS
 62
    4
 10
1024
 20
1001.8438665517314
 11
1076
 21
1001.8438665517314
  0
LINE
  8
_0-5_スリップパッキン
  6
CONTINUOUS
 62
    7
 10
1025
 20
1000.3438665517314
 11
1025
 21
999.84386655173148
  0
LINE
  8
_0-5_スリップパッキン
  6
CONTINUOUS
 62
    7
 10
1025
 20
999.84386655173148
 11
1075
 21
999.84386655173148
  0
LINE
  8
_0-5_スリップパッキン
  6
CONTINUOUS
 62
    7
 10
1075
 20
999.84386655173148
 11
1075
 21
1000.3438665517314
  0
LINE
  8
_0-5_スリップパッキン
  6
CONTINUOUS
 62
    7
 10
1025
 20
1000.3438665517314
 11
1075
 21
1000.3438665517314
  0
SOLID
  8
_0-5_スリップパッキン
  6
CONTINUOUS
 62
    4
 10
1025
 20
1000.3438665517314
 11
1025
 21
999.84386655173148
 12
1075
 22
1000.3438665517314
 13
1075
 23
999.84386655173148
  0
LINE
  8
_0-1_マウンティングディスク
  6
CONTINUOUS
 62
    7
 10
1019
 20
1013.0695272814718
 11
1019
 21
1008.0695272814718
  0
LINE
  8
_0-1_マウンティングディスク
  6
CONTINUOUS
 62
    7
 10
1081
 20
1013.0695272814718
 11
1081
 21
1008.0695272814718
  0
LINE
  8
_0-1_マウンティングディスク
  6
CONTINUOUS
 62
    7
 10
1005
 20
1008.0695272814718
 11
1019
 21
1008.0695272814718
  0
LINE
  8
_0-1_マウンティングディスク
  6
CONTINUOUS
 62
    7
 10
1095
 20
1008.0695272814718
 11
1081
 21
1008.0695272814718
  0
ARC
  8
_0-1_マウンティングディスク
  6
CONTINUOUS
 62
    7
 10
1005
 20
1003.0695272814718
 40
5
 50
90
 51
180
  0
ARC
  8
_0-1_マウンティングディスク
  6
CONTINUOUS
 62
    7
 10
1095
 20
1003.0695272814718
 40
5
 50
0
 51
90
  0
LINE
  8
_0-1_マウンティングディスク
  6
CONTINUOUS
 62
    4
 10
1099.5747890886023
 20
1003.0695272814714
 11
1099.9832851575647
 21
1003.4780233504335
  0
LINE
  8
_0-1_マウンティングディスク
  6
CONTINUOUS
 62
    4
 10
1098.1605755262355
 20
1003.0695272814705
 11
1099.7429908136346
 21
1004.6519425688694
  0
LINE
  8
_0-1_マウンティングディスク
  6
CONTINUOUS
 62
    4
 10
1096.7463619638613
 20
1003.0695272814714
 11
1099.2991925074202
 21
1005.6223578250302
  0
LINE
  8
_0-1_マウンティングディスク
  6
CONTINUOUS
 62
    4
 10
1095.332148401487
 20
1003.0695272814725
 11
1098.6977054612007
 21
1006.4350843411858
  0
LINE
  8
_0-1_マウンティングディスク
  6
CONTINUOUS
 62
    4
 10
1093.9179348391103
 20
1003.0695272814707
 11
1097.9528597686257
 21
1007.104452210986
  0
LINE
  8
_0-1_マウンティングディスク
  6
CONTINUOUS
 62
    4
 10
1092.5037212767435
 20
1003.0695272814703
 11
1097.0597524343575
 21
1007.6255584390838
  0
LINE
  8
_0-1_マウンティングディスク
  6
CONTINUOUS
 62
    4
 10
1091.0895077143691
 20
1003.069527281471
 11
1095.990430777857
 21
1007.9704503449586
  0
LINE
  8
_0-1_マウンティングディスク
  6
CONTINUOUS
 62
    4
 10
1089.6752941519953
 20
1003.0695272814718
 11
1094.6752941519926
 21
1008.0695272814693
  0
LINE
  8
_0-1_マウンティングディスク
  6
CONTINUOUS
 62
    4
 10
1088.2610805896208
 20
1003.069527281473
 11
1093.2610805896185
 21
1008.0695272814705
  0
LINE
  8
_0-1_マウンティングディスク
  6
CONTINUOUS
 62
    4
 10
1086.8468670272443
 20
1003.0695272814714
 11
1091.8468670272443
 21
1008.0695272814714
  0
LINE
  8
_0-1_マウンティングディスク
  6
CONTINUOUS
 62
    4
 10
1085.4326534648771
 20
1003.0695272814705
 11
1090.4326534648798
 21
1008.069527281473
  0
LINE
  8
_0-1_マウンティングディスク
  6
CONTINUOUS
 62
    4
 10
1084.0184399025031
 20
1003.0695272814714
 11
1089.0184399025017
 21
1008.0695272814699
  0
LINE
  8
_0-1_マウンティングディスク
  6
CONTINUOUS
 62
    4
 10
1082.6042263401291
 20
1003.0695272814725
 11
1087.6042263401277
 21
1008.0695272814712
  0
LINE
  8
_0-1_マウンティングディスク
  6
CONTINUOUS
 62
    4
 10
1081.1900127777521
 20
1003.0695272814707
 11
1086.1900127777521
 21
1008.069527281471
  0
LINE
  8
_0-1_マウンティングディスク
  6
CONTINUOUS
 62
    4
 10
1079.7757992153858
 20
1003.0695272814705
 11
1084.7757992153879
 21
1008.0695272814725
  0
LINE
  8
_0-1_マウンティングディスク
  6
CONTINUOUS
 62
    4
 10
1078.3615856530111
 20
1003.069527281471
 11
1083.3615856530111
 21
1008.069527281471
  0
LINE
  8
_0-1_マウンティングディスク
  6
CONTINUOUS
 62
    4
 10
1076.9473720906371
 20
1003.0695272814722
 11
1081.9473720906366
 21
1008.0695272814718
  0
LINE
  8
_0-1_マウンティングディスク
  6
CONTINUOUS
 62
    4
 10
1075.5331585282629
 20
1003.069527281473
 11
1081.0000000000015
 21
1008.5363687532117
  0
LINE
  8
_0-1_マウンティングディスク
  6
CONTINUOUS
 62
    4
 10
1016.1361889085947
 20
1003.0695272814703
 11
1026.1361889085983
 21
1013.0695272814739
  0
LINE
  8
_0-1_マウンティングディスク
  6
CONTINUOUS
 62
    4
 10
1014.7219753462204
 20
1003.0695272814714
 11
1024.721975346222
 21
1013.0695272814728
  0
LINE
  8
_0-1_マウンティングディスク
  6
CONTINUOUS
 62
    4
 10
1013.3077617838464
 20
1003.0695272814722
 11
1018.3077617838464
 21
1008.0695272814722
  0
LINE
  8
_0-1_マウンティングディスク
  6
CONTINUOUS
 62
    4
 10
1018.9999999999995
 20
1008.7617654976254
 11
1023.3077617838473
 21
1013.0695272814733
  0
LINE
  8
_0-1_マウンティングディスク
  6
CONTINUOUS
 62
    4
 10
1011.8935482214694
 20
1003.0695272814707
 11
1016.8935482214717
 21
1008.069527281473
  0
LINE
  8
_0-1_マウンティングディスク
  6
CONTINUOUS
 62
    4
 10
1018.9999999999992
 20
1010.1759790600001
 11
1021.8935482214709
 21
1013.0695272814718
  0
LINE
  8
_0-1_マウンティングディスク
  6
CONTINUOUS
 62
    4
 10
1010.4793346591027
 20
1003.0695272814699
 11
1015.4793346591072
 21
1008.0695272814745
  0
LINE
  8
_0-1_マウンティングディスク
  6
CONTINUOUS
 62
    4
 10
1018.9999999999977
 20
1011.590192622365
 11
1020.4793346591065
 21
1013.0695272814737
  0
LINE
  8
_0-1_マウンティングディスク
  6
CONTINUOUS
 62
    4
 10
1009.0651210967286
 20
1003.0695272814707
 11
1014.0651210967286
 21
1008.0695272814707
  0
LINE
  8
_0-1_マウンティングディスク
  6
CONTINUOUS
 62
    4
 10
1018.9999999999997
 20
1013.0044061847422
 11
1019.0651210967298
 21
1013.0695272814722
  0
LINE
  8
_0-1_マウンティングディスク
  6
CONTINUOUS
 62
    4
 10
1007.6509075343542
 20
1003.0695272814717
 11
1012.6509075343542
 21
1008.0695272814718
  0
LINE
  8
_0-1_マウンティングディスク
  6
CONTINUOUS
 62
    4
 10
1006.2366939719777
 20
1003.0695272814703
 11
1011.2366939719788
 21
1008.0695272814714
  0
LINE
  8
_0-1_マウンティングディスク
  6
CONTINUOUS
 62
    4
 10
1004.822480409613
 20
1003.0695272814717
 11
1009.8224804096141
 21
1008.0695272814728
  0
LINE
  8
_0-1_マウンティングディスク
  6
CONTINUOUS
 62
    4
 10
1003.4082668472365
 20
1003.0695272814703
 11
1008.4082668472372
 21
1008.069527281471
  0
LINE
  8
_0-1_マウンティングディスク
  6
CONTINUOUS
 62
    4
 10
1001.9940532848622
 20
1003.0695272814714
 11
1006.9940532848625
 21
1008.0695272814714
  0
LINE
  8
_0-1_マウンティングディスク
  6
CONTINUOUS
 62
    4
 10
1000.5798397224882
 20
1003.0695272814725
 11
1005.5798397224856
 21
1008.0695272814699
  0
LINE
  8
_0-1_マウンティングディスク
  6
CONTINUOUS
 62
    4
 10
1000.085309519587
 20
1003.9892106409462
 11
1004.0803166405303
 21
1007.9842177618895
  0
LINE
  8
_0-1_マウンティングディスク
  6
CONTINUOUS
 62
    4
 10
1072.7
 20
1004.4790094403265
 11
1080.9999999999993
 21
1012.7790094403258
  0
LINE
  8
_0-1_マウンティングディスク
  6
CONTINUOUS
 62
    7
 10
1031.6154189013759
 20
1007.3968230034375
 11
1025.4717209073894
 21
1003.0695272814718
  0
ARC
  8
_0-1_マウンティングディスク
  6
CONTINUOUS
 62
    7
 10
1031.0073714540114
 20
1008.1907236910262
 40
1
 50
307.44845420909501
 51
43.228530259965893
  0
LINE
  8
_0-1_マウンティングディスク
  6
CONTINUOUS
 62
    7
 10
1031.7359991229134
 20
1008.8756336997939
 11
1027.2999999999999
 21
1013.0695272814718
  0
LINE
  8
_0-1_マウンティングディスク
  6
CONTINUOUS
 62
    4
 10
1018.9646160333356
 20
1003.0695272814703
 11
1028.1556578298991
 21
1012.2605690780335
  0
LINE
  8
_0-1_マウンティングディスク
  6
CONTINUOUS
 62
    4
 10
1017.5504024709709
 20
1003.0695272814716
 11
1027.4287136676698
 21
1012.9478384781702
  0
LINE
  8
_0-1_マウンティングディスク
  6
CONTINUOUS
 62
    4
 10
1020.3788295957124
 20
1003.0695272814717
 11
1028.882601992133
 21
1011.5732996778923
  0
LINE
  8
_0-1_マウンティングディスク
  6
CONTINUOUS
 62
    4
 10
1021.7930431580867
 20
1003.0695272814707
 11
1029.6095461543673
 21
1010.8860302777511
  0
LINE
  8
_0-1_マウンティングディスク
  6
CONTINUOUS
 62
    4
 10
1023.2072567204627
 20
1003.0695272814716
 11
1030.3364903166011
 21
1010.1987608776101
  0
LINE
  8
_0-1_マウンティングディスク
  6
CONTINUOUS
 62
    4
 10
1024.6214702828276
 20
1003.0695272814705
 11
1031.0634344788304
 21
1009.5114914774734
  0
LINE
  8
_0-1_マウンティングディスク
  6
CONTINUOUS
 62
    4
 10
1027.3792377736108
 20
1004.4130812098808
 11
1031.7705412600171
 21
1008.804384696287
  0
LINE
  8
_0-1_マウンティングディスク
  6
CONTINUOUS
 62
    7
 10
1068.2640008770865
 20
1008.8756336997939
 11
1072.7
 21
1013.0695272814718
  0
ARC
  8
_0-1_マウンティングディスク
  6
CONTINUOUS
 62
    7
 10
1068.9926285459885
 20
1008.1907236910262
 40
1
 50
136.77146974003412
 51
232.55154579090498
  0
LINE
  8
_0-1_マウンティングディスク
  6
CONTINUOUS
 62
    7
 10
1068.384581098624
 20
1007.3968230034375
 11
1074.5282790926105
 21
1003.0695272814718
  0
LINE
  8
_0-1_マウンティングディスク
  6
CONTINUOUS
 62
    4
 10
1068.4797287682747
 20
1007.3298060204677
 11
1074.21945002928
 21
1013.0695272814733
  0
LINE
  8
_0-1_マウンティングディスク
  6
CONTINUOUS
 62
    4
 10
1070.13926582119
 20
1006.1609159486329
 11
1077.0478771540285
 21
1013.0695272814716
  0
LINE
  8
_0-1_マウンティングディスク
  6
CONTINUOUS
 62
    4
 10
1069.3094972947324
 20
1006.7453609845504
 11
1075.6336635916543
 21
1013.0695272814723
  0
LINE
  8
_0-1_マウンティングディスク
  6
CONTINUOUS
 62
    4
 10
1070.9690343476422
 20
1005.5764709127191
 11
1078.462090716393
 21
1013.0695272814699
  0
LINE
  8
_0-1_マウンティングディスク
  6
CONTINUOUS
 62
    4
 10
1071.7988028740999
 20
1004.9920258768014
 11
1079.8763042787695
 21
1013.0695272814714
  0
LINE
  8
_0-1_マウンティングディスク
  6
CONTINUOUS
 62
    4
 10
1067.9949807154546
 20
1008.2592715300208
 11
1072.8052364669056
 21
1013.0695272814718
  0
LINE
  8
_0-1_マウンティングディスク
  6
CONTINUOUS
 62
    4
 10
1073.4583399270152
 20
1003.8231358049665
 11
1080.9999999999997
 21
1011.3647958779512
  0
LINE
  8
_0-1_マウンティングディスク
  6
CONTINUOUS
 62
    4
 10
1074.2881084534674
 20
1003.2386907690528
 11
1081.0000000000009
 21
1009.9505823155863
  0
LINE
  8
_0-1_マウンティングディスク
  6
DASHED1
 62
    4
 10
1025.25
 20
1011.569527281472
 11
1025.25
 21
1013.0695272814718
  0
LINE
  8
_0-1_マウンティングディスク
  6
DASHED1
 62
    4
 10
1023.25
 20
1011.569527281472
 11
1023.25
 21
1013.0695272814718
  0
LINE
  8
_0-1_マウンティングディスク
  6
DASHED1
 62
    4
 10
1023.25
 20
1011.569527281472
 11
1025.25
 21
1011.569527281472
  0
LINE
  8
_0-1_マウンティングディスク
  6
DASHED1
 62
    4
 10
1009.5
 20
1004.569527281472
 11
1009.5
 21
1003.0695272814718
  0
LINE
  8
_0-1_マウンティングディスク
  6
DASHED1
 62
    4
 10
1009.5
 20
1004.569527281472
 11
1011.5
 21
1004.569527281472
  0
LINE
  8
_0-1_マウンティングディスク
  6
DASHED1
 62
    4
 10
1011.5
 20
1004.569527281472
 11
1011.5
 21
1003.0695272814718
  0
LINE
  8
_0-1_マウンティングディスク
  6
DASHED1
 62
    4
 10
1074.75
 20
1011.569527281472
 11
1074.75
 21
1013.0695272814718
  0
LINE
  8
_0-1_マウンティングディスク
  6
DASHED1
 62
    4
 10
1076.7499999999997
 20
1011.569527281472
 11
1074.75
 21
1011.569527281472
  0
LINE
  8
_0-1_マウンティングディスク
  6
DASHED1
 62
    4
 10
1076.7499999999997
 20
1011.569527281472
 11
1076.7499999999997
 21
1013.0695272814718
  0
LINE
  8
_0-1_マウンティングディスク
  6
DASHED1
 62
    4
 10
1088.5
 20
1004.569527281472
 11
1088.5
 21
1003.0695272814718
  0
LINE
  8
_0-1_マウンティングディスク
  6
DASHED1
 62
    4
 10
1090.4999999999997
 20
1004.569527281472
 11
1088.5
 21
1004.569527281472
  0
LINE
  8
_0-1_マウンティングディスク
  6
DASHED1
 62
    4
 10
1090.4999999999997
 20
1004.569527281472
 11
1090.4999999999997
 21
1003.0695272814718
  0
SOLID
  8
_0-1_マウンティングディスク
  6
CONTINUOUS
 62
    4
 10
1023.25
 20
1013.0695272814718
 11
1023.25
 21
1011.569527281472
 12
1025.25
 22
1013.0695272814718
 13
1025.25
 23
1011.569527281472
  0
SOLID
  8
_0-1_マウンティングディスク
  6
CONTINUOUS
 62
    4
 10
1009.5
 20
1004.569527281472
 11
1009.5
 21
1003.0695272814718
 12
1011.5
 22
1004.569527281472
 13
1011.5
 23
1003.0695272814718
  0
SOLID
  8
_0-1_マウンティングディスク
  6
CONTINUOUS
 62
    4
 10
1074.75
 20
1013.0695272814718
 11
1074.75
 21
1011.569527281472
 12
1076.7499999999997
 22
1013.0695272814718
 13
1076.7499999999997
 23
1011.569527281472
  0
SOLID
  8
_0-1_マウンティングディスク
  6
CONTINUOUS
 62
    4
 10
1088.5
 20
1004.569527281472
 11
1088.5
 21
1003.0695272814718
 12
1090.4999999999997
 22
1004.569527281472
 13
1090.4999999999997
 23
1003.0695272814718
  0
LINE
  8
_0-1_マウンティングディスク
  6
CONTINUOUS
 62
    7
 10
1019
 20
1013.0695272814718
 11
1032.8059632949889
 21
1013.0695272814718
  0
LINE
  8
_0-1_マウンティングディスク
  6
CONTINUOUS
 62
    7
 10
1067.194036705011
 20
1013.0695272814718
 11
1081
 21
1013.0695272814718
  0
LINE
  8
_0-1_マウンティングディスク
  6
CONTINUOUS
 62
    7
 10
1000
 20
1003.0695272814718
 11
1026.0938370799733
 21
1003.0695272814718
  0
LINE
  8
_0-1_マウンティングディスク
  6
CONTINUOUS
 62
    7
 10
1073.9061629200264
 20
1003.0695272814718
 11
1100
 21
1003.0695272814718
  0
LINE
  8
_0-a_ナット
  6
CONTINUOUS
 62
    4
 10
1050
 20
972.56952728147211
 11
1050
 21
966.66952728147202
  0
LINE
  8
_0-a_ナット
  6
CONTINUOUS
 62
    4
 10
1050
 20
997.34386655173148
 11
1050
 21
991.4438665517315
  0
LINE
  8
_0-2_目皿
  6
CONTINUOUS
 62
    7
 10
1023.7624755271724
 20
1024.4263871457192
 11
1076.2375244728289
 21
1024.4263871457192
  0
ARC
  8
_0-2_目皿
  6
CONTINUOUS
 62
    7
 10
1023.650000000001
 20
1023.9392021133267
 40
0.4999999999995
 50
77.00000000000098
 51
179.99999999998402
  0
ARC
  8
_0-2_目皿
  6
CONTINUOUS
 62
    7
 10
1023.650000000001
 20
1023.7339412917676
 40
0.4999999999995
 50
179.99999999998698
 51
256.99999999999698
  0
LINE
  8
_0-2_目皿
  6
CONTINUOUS
 62
    7
 10
1023.1499999999999
 20
1023.7339412917676
 11
1023.1499999999999
 21
1023.9392021133267
  0
LINE
  8
_0-2_目皿
  6
CONTINUOUS
 62
    7
 10
1023.5375244728279
 20
1023.2467562593751
 11
1028.4156301833118
 21
1021.5905387066561
  0
ARC
  8
_0-2_目皿
  6
CONTINUOUS
 62
    7
 10
1026.8081510649749
 20
1016.8559837239661
 40
4.9999999999995008
 50
12.250000000000001
 51
71.246589897256001
  0
LINE
  8
_0-2_目皿
  6
CONTINUOUS
 62
    7
 10
1023.7624755271724
 20
1024.4263871457192
 11
1076.2375244728289
 21
1024.4263871457192
  0
ARC
  8
_0-2_目皿
  6
CONTINUOUS
 62
    7
 10
1076.3500000000003
 20
1023.9392021133267
 40
0.4999999999995
 50
0.0000000000160045
 51
102.99999999999698
  0
ARC
  8
_0-2_目皿
  6
CONTINUOUS
 62
    7
 10
1076.3500000000003
 20
1023.7339412917676
 40
0.4999999999995
 50
283.00000000000397
 51
0.0000000000130148
  0
LINE
  8
_0-2_目皿
  6
CONTINUOUS
 62
    7
 10
1076.8499999999999
 20
1023.7339412917676
 11
1076.8499999999999
 21
1023.9392021133267
  0
LINE
  8
_0-2_目皿
  6
CONTINUOUS
 62
    7
 10
1076.462475527172
 20
1023.2467562593751
 11
1071.5843698166895
 21
1021.5905387066561
  0
ARC
  8
_0-2_目皿
  6
CONTINUOUS
 62
    7
 10
1073.1918489350264
 20
1016.8559837239661
 40
4.9999999999995008
 50
108.75341010274402
 51
167.75000000000002
  0
LINE
  8
_0-2_目皿
  6
CONTINUOUS
 62
    7
 10
1034.0999999999999
 20
1007.4269200716596
 11
1031.694306597288
 21
1017.9168720847483
  0
LINE
  8
_0-2_目皿
  6
CONTINUOUS
 62
    7
 10
1065.9
 20
1007.4269200716596
 11
1068.3056934027117
 21
1017.9168720847483
  0
LINE
  8
_0-2_目皿
  6
CONTINUOUS
 62
    4
 10
1028.4156301833118
 20
1021.5905387066561
 11
1071.5843698166895
 21
1021.5905387066561
  0
LINE
  8
_0-2_目皿
  6
CONTINUOUS
 62
    4
 10
1023.5375244728279
 20
1023.2467562593751
 11
1076.462475527172
 21
1023.2467562593751
  0
LINE
  8
_0-2_目皿
  6
CONTINUOUS
 62
    7
 10
1034.0999999999999
 20
985.94695469517091
 11
1035.3499999999999
 21
984.97934430464169
  0
LINE
  8
_0-2_目皿
  6
CONTINUOUS
 62
    7
 10
1035.3499999999999
 20
984.97934430464169
 11
1034.0999999999999
 21
983.94626911018917
  0
LINE
  8
_0-2_目皿
  6
CONTINUOUS
 62
    7
 10
1034.0999999999999
 20
983.94626911018917
 11
1035.3499999999999
 21
982.97865871965996
  0
LINE
  8
_0-2_目皿
  6
CONTINUOUS
 62
    7
 10
1035.3499999999999
 20
982.97865871965996
 11
1034.0999999999999
 21
981.94558352520743
  0
LINE
  8
_0-2_目皿
  6
CONTINUOUS
 62
    7
 10
1034.0999999999999
 20
981.94558352520743
 11
1035.3499999999999
 21
980.97797313467822
  0
LINE
  8
_0-2_目皿
  6
CONTINUOUS
 62
    7
 10
1035.3499999999999
 20
980.97797313467822
 11
1034.0999999999999
 21
979.9448979402257
  0
LINE
  8
_0-2_目皿
  6
CONTINUOUS
 62
    7
 10
1034.0999999999999
 20
979.9448979402257
 11
1035.3499999999999
 21
978.97728754969648
  0
LINE
  8
_0-2_目皿
  6
CONTINUOUS
 62
    7
 10
1034.0999999999999
 20
965.94009884535375
 11
1035.3499999999999
 21
964.97248845482454
  0
LINE
  8
_0-2_目皿
  6
CONTINUOUS
 62
    7
 10
1035.3499999999999
 20
964.97248845482454
 11
1034.0999999999999
 21
963.93941326037202
  0
LINE
  8
_0-2_目皿
  6
CONTINUOUS
 62
    7
 10
1034.0999999999999
 20
963.93941326037202
 11
1035.3499999999999
 21
962.9718028698428
  0
LINE
  8
_0-2_目皿
  6
CONTINUOUS
 62
    7
 10
1035.3499999999999
 20
962.9718028698428
 11
1034.0999999999999
 21
961.93872767539028
  0
LINE
  8
_0-2_目皿
  6
CONTINUOUS
 62
    7
 10
1034.0999999999999
 20
961.93872767539028
 11
1035.3499999999999
 21
960.97111728486106
  0
LINE
  8
_0-2_目皿
  6
CONTINUOUS
 62
    7
 10
1035.3499999999999
 20
960.97111728486106
 11
1034.0999999999999
 21
959.93804209040854
  0
LINE
  8
_0-2_目皿
  6
CONTINUOUS
 62
    7
 10
1034.0999999999999
 20
959.93804209040854
 11
1035.3499999999999
 21
958.97043169987932
  0
LINE
  8
_0-2_目皿
  6
CONTINUOUS
 62
    7
 10
1035.3499999999999
 20
958.97043169987932
 11
1034.0999999999999
 21
957.93735650542714
  0
LINE
  8
_0-2_目皿
  6
CONTINUOUS
 62
    7
 10
1034.0999999999999
 20
957.93735650542714
 11
1035.3499999999999
 21
956.96974611489758
  0
LINE
  8
_0-2_目皿
  6
CONTINUOUS
 62
    7
 10
1035.3499999999999
 20
956.96974611489758
 11
1034.0999999999999
 21
955.9366709204454
  0
LINE
  8
_0-2_目皿
  6
CONTINUOUS
 62
    7
 10
1064.6499999999998
 20
985.74659180661888
 11
1065.8999999999998
 21
984.77898141608932
  0
LINE
  8
_0-2_目皿
  6
CONTINUOUS
 62
    7
 10
1065.8999999999998
 20
984.77898141608932
 11
1064.6499999999998
 21
983.74590622163714
  0
LINE
  8
_0-2_目皿
  6
CONTINUOUS
 62
    7
 10
1064.6499999999998
 20
983.74590622163714
 11
1065.8999999999998
 21
982.77829583110758
  0
LINE
  8
_0-2_目皿
  6
CONTINUOUS
 62
    7
 10
1065.8999999999998
 20
982.77829583110758
 11
1064.6499999999998
 21
981.7452206366554
  0
LINE
  8
_0-2_目皿
  6
CONTINUOUS
 62
    7
 10
1064.6499999999998
 20
981.7452206366554
 11
1065.8999999999998
 21
980.77761024612584
  0
LINE
  8
_0-2_目皿
  6
CONTINUOUS
 62
    7
 10
1065.8999999999998
 20
980.77761024612584
 11
1064.6499999999998
 21
979.74453505167366
  0
LINE
  8
_0-2_目皿
  6
CONTINUOUS
 62
    7
 10
1064.6499999999998
 20
979.74453505167366
 11
1065.8999999999998
 21
978.77692466114444
  0
LINE
  8
_0-2_目皿
  6
CONTINUOUS
 62
    7
 10
1064.6499999999996
 20
965.73973595680172
 11
1065.8999999999996
 21
964.77212556627227
  0
LINE
  8
_0-2_目皿
  6
CONTINUOUS
 62
    7
 10
1065.8999999999996
 20
964.77212556627227
 11
1064.6499999999996
 21
963.73905037181998
  0
LINE
  8
_0-2_目皿
  6
CONTINUOUS
 62
    7
 10
1064.6499999999996
 20
963.73905037181998
 11
1065.8999999999996
 21
962.77143998129054
  0
LINE
  8
_0-2_目皿
  6
CONTINUOUS
 62
    7
 10
1065.8999999999996
 20
962.77143998129054
 11
1064.6499999999996
 21
961.73836478683824
  0
LINE
  8
_0-2_目皿
  6
CONTINUOUS
 62
    7
 10
1064.6499999999996
 20
961.73836478683824
 11
1065.8999999999996
 21
960.7707543963088
  0
LINE
  8
_0-2_目皿
  6
CONTINUOUS
 62
    7
 10
1065.8999999999996
 20
960.7707543963088
 11
1064.6499999999996
 21
959.7376792018565
  0
LINE
  8
_0-2_目皿
  6
CONTINUOUS
 62
    7
 10
1064.6499999999996
 20
959.7376792018565
 11
1065.8999999999996
 21
958.77006881132729
  0
LINE
  8
_0-2_目皿
  6
CONTINUOUS
 62
    7
 10
1065.8999999999996
 20
958.77006881132729
 11
1064.6499999999996
 21
957.73699361687476
  0
LINE
  8
_0-2_目皿
  6
CONTINUOUS
 62
    7
 10
1064.6499999999996
 20
957.73699361687476
 11
1065.8999999999996
 21
956.76938322634555
  0
LINE
  8
_0-2_目皿
  6
CONTINUOUS
 62
    7
 10
1035.4887601405087
 20
955.61134452985754
 11
1036.0106731924001
 21
954.42638714571921
  0
LINE
  8
_0-2_目皿
  6
CONTINUOUS
 62
    7
 10
1064.511239859491
 20
955.61134452985754
 11
1063.9893268075998
 21
954.42638714571921
  0
LINE
  8
_0-2_目皿
  6
CONTINUOUS
 62
    7
 10
1063.9893268075998
 20
954.42638714571921
 11
1036.0106731924001
 21
954.42638714571921
  0
LINE
  8
_0-2_目皿
  6
CONTINUOUS
 62
    7
 10
1065.8999999999996
 20
956.76938322634555
 11
1064.4987967009724
 21
955.61134452985754
  0
LINE
  8
_0-2_目皿
  6
CONTINUOUS
 62
    7
 10
1034.0999999999999
 20
955.9366709204454
 11
1034.5202703817724
 21
955.61134452985754
  0
LINE
  8
_0-2_目皿
  6
CONTINUOUS
 62
    7
 10
1034.5202703817724
 20
955.61134452985754
 11
1064.4987967009724
 21
955.61134452985754
  0
LINE
  8
_0-2_目皿
  6
CONTINUOUS
 62
    7
 10
1034.9742981515041
 20
986.66952728147066
 11
1034.0999999999999
 21
985.94695469517091
  0
LINE
  8
_0-2_目皿
  6
CONTINUOUS
 62
    7
 10
1065.7667331765971
 20
986.66952728147066
 11
1064.6499999999998
 21
985.74659180661888
  0
LINE
  8
_0-2_目皿
  6
CONTINUOUS
 62
    7
 10
1035.3499999999999
 20
978.97728754969648
 11
1034.2516285151612
 21
978.06952728147189
  0
LINE
  8
_0-2_目皿
  6
CONTINUOUS
 62
    7
 10
1065.8999999999998
 20
978.77692466114444
 11
1065.0440635402544
 21
978.06952728147189
  0
LINE
  8
_0-2_目皿
  6
CONTINUOUS
 62
    7
 10
1065.7750286156119
 20
966.66952728147202
 11
1064.6499999999996
 21
965.73973595680172
  0
LINE
  8
_0-2_目皿
  6
CONTINUOUS
 62
    7
 10
1034.9825935905189
 20
966.66952728147202
 11
1034.0999999999999
 21
965.94009884535375
  0
LINE
  8
_0-2_目皿
  6
CONTINUOUS
 62
    7
 10
1035.3499999999999
 20
990.98140105958691
 11
1034.0999999999999
 21
989.94832586513439
  0
LINE
  8
_0-2_目皿
  6
CONTINUOUS
 62
    7
 10
1034.0999999999999
 20
989.94832586513439
 11
1035.3499999999999
 21
988.98071547460517
  0
LINE
  8
_0-2_目皿
  6
CONTINUOUS
 62
    7
 10
1035.3499999999999
 20
988.98071547460517
 11
1034.0999999999999
 21
987.94764028015265
  0
LINE
  8
_0-2_目皿
  6
CONTINUOUS
 62
    7
 10
1034.0999999999999
 20
987.94764028015265
 11
1035.3499999999999
 21
986.98002988962343
  0
LINE
  8
_0-2_目皿
  6
CONTINUOUS
 62
    7
 10
1035.3499999999999
 20
986.98002988962343
 11
1034.0999999999999
 21
985.94695469517091
  0
LINE
  8
_0-2_目皿
  6
CONTINUOUS
 62
    7
 10
1034.0999999999999
 20
985.94695469517091
 11
1035.3499999999999
 21
984.97934430464169
  0
LINE
  8
_0-2_目皿
  6
CONTINUOUS
 62
    7
 10
1065.8999999999998
 20
990.78103817103453
 11
1064.6499999999998
 21
989.74796297658235
  0
LINE
  8
_0-2_目皿
  6
CONTINUOUS
 62
    7
 10
1064.6499999999998
 20
989.74796297658235
 11
1065.8999999999998
 21
988.78035258605279
  0
LINE
  8
_0-2_目皿
  6
CONTINUOUS
 62
    7
 10
1065.8999999999998
 20
988.78035258605279
 11
1064.6499999999998
 21
987.74727739160061
  0
LINE
  8
_0-2_目皿
  6
CONTINUOUS
 62
    7
 10
1064.6499999999998
 20
987.74727739160061
 11
1065.8999999999998
 21
986.77966700107106
  0
LINE
  8
_0-2_目皿
  6
CONTINUOUS
 62
    7
 10
1065.8999999999998
 20
986.77966700107106
 11
1064.6499999999998
 21
985.74659180661888
  0
LINE
  8
_0-2_目皿
  6
CONTINUOUS
 62
    7
 10
1064.6499999999998
 20
985.74659180661888
 11
1065.8999999999998
 21
984.77898141608966
  0
LINE
  8
_0-2_目皿
  6
CONTINUOUS
 62
    7
 10
1035.3499999999999
 20
984.97934430464169
 11
1034.2516285151612
 21
984.0715840364171
  0
LINE
  8
_0-2_目皿
  6
CONTINUOUS
 62
    7
 10
1065.8999999999998
 20
984.77898141608966
 11
1065.0440635402544
 21
984.0715840364171
  0
LINE
  8
_0-2_目皿
  6
CONTINUOUS
 62
    7
 10
1034.752567530445
 20
991.4438665517315
 11
1035.3499999999999
 21
990.98140105958691
  0
LINE
  8
_0-2_目皿
  6
CONTINUOUS
 62
    7
 10
1065.0437302823731
 20
991.4438665517315
 11
1065.8999999999998
 21
990.78103817103453
  0
LINE
  8
_0-2_目皿
  6
DASHED1
 62
    4
 10
1034.8499999999999
 20
1006.6769200716595
 11
1065.15
 21
1006.6769200716595
  0
LINE
  8
_0-2_目皿
  6
DASHED1
 62
    4
 10
1065.9
 20
1007.4269200716596
 11
1034.0999999999999
 21
1007.4269200716596
  0
LINE
  8
_0-2_目皿
  6
DASHED1
 62
    4
 10
1034.8499999999999
 20
1006.6769200716595
 11
1034.0999999999999
 21
1007.4269200716596
  0
LINE
  8
_0-2_目皿
  6
DASHED1
 62
    4
 10
1065.15
 20
1006.6769200716595
 11
1065.9
 21
1007.4269200716596
  0
LINE
  8
_0-b_化粧キャップラウンド
  6
CONTINUOUS
 62
    7
 10
1032.9999999999997
 20
1031.4263871457192
 11
1044.5
 21
1031.4263871457192
  0
LINE
  8
_0-b_化粧キャップラウンド
  6
CONTINUOUS
 62
    7
 10
1055.4999999999997
 20
1031.4263871457192
 11
1067
 21
1031.4263871457192
  0
LINE
  8
_0-b_化粧キャップラウンド
  6
CONTINUOUS
 62
    7
 10
1022.9999999999997
 20
1031.4263871457192
 11
1077
 21
1031.4263871457192
  0
LINE
  8
_0-b_化粧キャップラウンド
  6
CONTINUOUS
 62
    7
 10
1022.9999999999997
 20
1033.4263871457192
 11
1077
 21
1033.4263871457192
  0
LINE
  8
_0-b_化粧キャップラウンド
  6
CONTINUOUS
 62
    7
 10
1022.9999999999997
 20
1033.7088323207872
 11
1022.9999999999997
 21
1031.4263871457192
  0
ARC
  8
_0-b_化粧キャップラウンド
  6
CONTINUOUS
 62
    7
 10
1023.9999999999998
 20
1033.7088323207872
 40
1
 50
108.42780160788487
 51
180
  0
LINE
  8
_0-b_化粧キャップラウンド
  6
CONTINUOUS
 62
    7
 10
1077
 20
1033.7088323207872
 11
1077
 21
1031.4263871457192
  0
ARC
  8
_0-b_化粧キャップラウンド
  6
CONTINUOUS
 62
    7
 10
1050
 20
955.6763871457191
 40
83.250000000000014
 50
71.572198392114117
 51
108.42780160788588
  0
ARC
  8
_0-b_化粧キャップラウンド
  6
CONTINUOUS
 62
    7
 10
1076
 20
1033.7088323207872
 40
1
 50
0
 51
71.572198392115126
  0
LINE
  8
_0-b_化粧キャップラウンド
  6
CONTINUOUS
 62
    4
 10
1023.3034979732858
 20
1034.4263871457192
 11
1076.6965020267141
 21
1034.4263871457192
  0
LINE
  8
_0-b_化粧キャップラウンド
  6
CONTINUOUS
 62
    7
 10
1032.9999999999997
 20
1031.4263871457192
 11
1032.9999999999997
 21
1024.4263871457192
  0
LINE
  8
_0-b_化粧キャップラウンド
  6
CONTINUOUS
 62
    7
 10
1044.5
 20
1031.4263871457192
 11
1044.5
 21
1024.4263871457192
  0
LINE
  8
_0-b_化粧キャップラウンド
  6
CONTINUOUS
 62
    7
 10
1055.4999999999997
 20
1031.4263871457192
 11
1055.4999999999997
 21
1024.4263871457192
  0
LINE
  8
_0-b_化粧キャップラウンド
  6
CONTINUOUS
 62
    7
 10
1067
 20
1031.4263871457192
 11
1067
 21
1024.4263871457192
  0
TEXT
  8
_0-0_
 62
    4
 10
1259.5598824958633
 20
1073.903080056107
 40
12.5
 41
1
 50
0
  1
排水目皿
  0
LINE
  8
_0-3_スポンジパッキン
  6
CONTINUOUS
 62
    7
 10
1075
 20
1023.2467562593751
 11
1025
 21
1023.2467562593751
  0
LINE
  8
_0-3_スポンジパッキン
  6
CONTINUOUS
 62
    7
 10
1025
 20
1023.2467562593751
 11
1025
 21
1022.2467562593751
  0
LINE
  8
_0-3_スポンジパッキン
  6
CONTINUOUS
 62
    7
 10
1075
 20
1023.2467562593751
 11
1075
 21
1022.2467562593751
  0
LINE
  8
_0-3_スポンジパッキン
  6
CONTINUOUS
 62
    4
 10
1025.7633448188116
 20
1023.2467562593753
 11
1026.7633448188103
 21
1022.2467562593769
  0
LINE
  8
_0-3_スポンジパッキン
  6
CONTINUOUS
 62
    4
 10
1030.0059855059291
 20
1023.2467562593742
 11
1031.005985505928
 21
1022.2467562593758
  0
LINE
  8
_0-3_スポンジパッキン
  6
CONTINUOUS
 62
    4
 10
1034.2486261930448
 20
1023.2467562593751
 11
1035.2486261930434
 21
1022.2467562593765
  0
LINE
  8
_0-3_スポンジパッキン
  6
CONTINUOUS
 62
    4
 10
1038.4912668801698
 20
1023.2467562593757
 11
1039.4912668801684
 21
1022.2467562593769
  0
LINE
  8
_0-3_スポンジパッキン
  6
CONTINUOUS
 62
    4
 10
1042.7339075672866
 20
1023.246756259375
 11
1043.7339075672853
 21
1022.2467562593762
  0
LINE
  8
_0-3_スポンジパッキン
  6
CONTINUOUS
 62
    4
 10
1046.9765482544028
 20
1023.2467562593751
 11
1047.9765482544016
 21
1022.2467562593766
  0
LINE
  8
_0-3_スポンジパッキン
  6
CONTINUOUS
 62
    4
 10
1055.4618296286441
 20
1023.2467562593757
 11
1056.4618296286428
 21
1022.2467562593772
  0
LINE
  8
_0-3_スポンジパッキン
  6
CONTINUOUS
 62
    7
 10
1075
 20
1022.2467562593751
 11
1025
 21
1022.2467562593751
  0
LINE
  8
_0-3_スポンジパッキン
  6
CONTINUOUS
 62
    4
 10
1051.2191889415278
 20
1023.2467562593757
 11
1052.2191889415264
 21
1022.2467562593769
  0
LINE
  8
_0-3_スポンジパッキン
  6
CONTINUOUS
 62
    4
 10
1059.704470315761
 20
1023.2467562593752
 11
1060.7044703157596
 21
1022.2467562593766
  0
LINE
  8
_0-3_スポンジパッキン
  6
CONTINUOUS
 62
    4
 10
1063.947111002886
 20
1023.2467562593757
 11
1064.9471110028873
 21
1022.2467562593743
  0
LINE
  8
_0-3_スポンジパッキン
  6
CONTINUOUS
 62
    4
 10
1068.1897516900016
 20
1023.2467562593765
 11
1069.1897516900003
 21
1022.2467562593777
  0
LINE
  8
_0-3_スポンジパッキン
  6
CONTINUOUS
 62
    4
 10
1072.4323923771191
 20
1023.2467562593753
 11
1073.4323923771178
 21
1022.2467562593766
  0
LINE
  8
_0-7_
  6
CONTINUOUS
 62
    7
 10
911.09593271749099
 20
1106.2776700692356
 11
912.36686430633994
 21
1099.8641451811536
  0
LINE
  8
_0-7_
  6
CONTINUOUS
 62
    7
 10
912.36686430633994
 20
1099.8641451811536
 11
913.81264261673834
 21
1093.8108505578225
  0
LINE
  8
_0-7_
  6
CONTINUOUS
 62
    7
 10
913.81264261673834
 20
1093.8108505578225
 11
915.43186078373628
 21
1088.1002181950216
  0
LINE
  8
_0-7_
  6
CONTINUOUS
 62
    7
 10
915.43186078373628
 20
1088.1002181950216
 11
917.22201234718397
 21
1082.7152221726216
  0
LINE
  8
_0-7_
  6
CONTINUOUS
 62
    7
 10
917.22201234718397
 20
1082.7152221726216
 11
919.17964637167619
 21
1077.6393866834903
  0
LINE
  8
_0-7_
  6
CONTINUOUS
 62
    7
 10
919.17964637167619
 20
1077.6393866834903
 11
921.3005225664915
 21
1072.856794062402
  0
LINE
  8
_0-7_
  6
CONTINUOUS
 62
    7
 10
921.3005225664915
 20
1072.856794062402
 11
923.57976640553602
 21
1068.3520928149434
  0
LINE
  8
_0-7_
  6
CONTINUOUS
 62
    7
 10
923.57976640553602
 20
1068.3520928149434
 11
926.01202424728626
 21
1064.110505646422
  0
LINE
  8
_0-7_
  6
CONTINUOUS
 62
    7
 10
926.01202424728626
 20
1064.110505646422
 11
928.59161845472897
 21
1060.1178374907722
  0
LINE
  8
_0-7_
  6
CONTINUOUS
 62
    7
 10
928.59161845472897
 20
1060.1178374907722
 11
931.31270251530509
 21
1056.3604835394642
  0
LINE
  8
_0-7_
  6
CONTINUOUS
 62
    7
 10
931.31270251530509
 20
1056.3604835394642
 11
934.16941616085205
 21
1052.8254372704102
  0
LINE
  8
_0-7_
  6
CONTINUOUS
 62
    7
 10
934.16941616085205
 20
1052.8254372704102
 11
937.15604048754448
 21
1049.5002984768732
  0
LINE
  8
_0-7_
  6
CONTINUOUS
 62
    7
 10
937.15604048754448
 20
1049.5002984768732
 11
940.26715307583742
 21
1046.3732812963717
  0
LINE
  8
_0-7_
  6
CONTINUOUS
 62
    7
 10
940.26715307583742
 20
1046.3732812963717
 11
943.49778311040836
 21
1043.4332222395905
  0
LINE
  8
_0-7_
  6
CONTINUOUS
 62
    7
 10
943.49778311040836
 20
1043.4332222395905
 11
946.84356650009931
 21
1040.6695882192861
  0
LINE
  8
_0-7_
  6
CONTINUOUS
 62
    7
 10
946.84356650009931
 20
1040.6695882192861
 11
950.30090099785809
 21
1038.0724845791933
  0
LINE
  8
_0-7_
  6
CONTINUOUS
 62
    7
 10
950.30090099785809
 20
1038.0724845791933
 11
953.86710132068174
 21
1035.6326631229351
  0
LINE
  8
_0-7_
  6
CONTINUOUS
 62
    7
 10
953.86710132068174
 20
1035.6326631229351
 11
957.54055426955858
 21
1033.3415301429276
  0
LINE
  8
_0-7_
  6
CONTINUOUS
 62
    7
 10
957.54055426955858
 20
1033.3415301429276
 11
961.32087384940882
 21
1031.1911544492895
  0
LINE
  8
_0-7_
  6
CONTINUOUS
 62
    7
 10
961.32087384940882
 20
1031.1911544492895
 11
965.20905638902922
 21
1029.1742753987473
  0
LINE
  8
_0-7_
  6
CONTINUOUS
 62
    7
 10
965.20905638902922
 20
1029.1742753987473
 11
969.20763566103255
 21
1027.2843109235445
  0
LINE
  8
_0-7_
  6
CONTINUOUS
 62
    7
 10
969.20763566103255
 20
1027.2843109235445
 11
973.32083800179134
 21
1025.5153655603487
  0
LINE
  8
_0-7_
  6
CONTINUOUS
 62
    7
 10
973.32083800179134
 20
1025.5153655603487
 11
977.55473743138031
 21
1023.8622384791576
  0
LINE
  8
_0-7_
  6
CONTINUOUS
 62
    7
 10
977.55473743138031
 20
1023.8622384791576
 11
981.91741077351684
 21
1022.3204315122086
  0
LINE
  8
_0-7_
  6
CONTINUOUS
 62
    7
 10
981.91741077351684
 20
1022.3204315122086
 11
986.41909277550439
 21
1020.8861571828838
  0
LINE
  8
_0-7_
  6
CONTINUOUS
 62
    7
 10
986.41909277550439
 20
1020.8861571828838
 11
991.07233122817547
 21
1019.5563467346192
  0
LINE
  8
_0-7_
  6
CONTINUOUS
 62
    7
 10
991.07233122817547
 20
1019.5563467346192
 11
995.89214208583143
 21
1018.3286581598116
  0
LINE
  8
_0-7_
  6
CONTINUOUS
 62
    7
 10
995.89214208583143
 20
1018.3286581598116
 11
1000.8961645861859
 21
1017.2014842287253
  0
LINE
  8
_0-7_
  6
CONTINUOUS
 62
    7
 10
1000.8961645861859
 20
1017.2014842287253
 11
1006.1048163703077
 21
1016.1739605184006
  0
LINE
  8
_0-7_
  6
CONTINUOUS
 62
    7
 10
1006.1048163703077
 20
1016.1739605184006
 11
1011.541448602562
 21
1015.2459734415604
  0
LINE
  8
_0-7_
  6
CONTINUOUS
 62
    7
 10
1011.541448602562
 20
1015.2459734415604
 11
1017.2325010905518
 21
1014.4181682755175
  0
LINE
  8
_0-7_
  6
CONTINUOUS
 62
    7
 10
1017.2325010905518
 20
1014.4181682755175
 11
1023.207657405062
 21
1013.6919571910829
  0
LINE
  8
_0-7_
  6
CONTINUOUS
 62
    7
 10
1023.207657405062
 20
1013.6919571910829
 11
1029.5
 21
1013.0695272814718
  0
LINE
  8
_0-7_
  6
DASHED3
 62
    7
 10
1029.5
 20
1020.0695272814721
 11
1029.5
 21
1013.0695272814718
  0
LINE
  8
_0-7_
  6
DASHED3
 62
    7
 10
1028.3151438507702
 20
1020.2439333417796
 11
1029.5
 21
1020.0695272814721
  0
LINE
  8
_0-7_
  6
DASHED3
 62
    7
 10
1027.2069362335539
 20
1020.4626777723178
 11
1028.3151438507702
 21
1020.2439333417796
  0
LINE
  8
_0-7_
  6
DASHED3
 62
    7
 10
1026.1753771483517
 20
1020.7257605730867
 11
1027.2069362335539
 21
1020.4626777723178
  0
LINE
  8
_0-7_
  6
DASHED3
 62
    7
 10
1025.2204665951637
 20
1021.0331817440862
 11
1026.1753771483517
 21
1020.7257605730867
  0
LINE
  8
_0-7_
  6
DASHED3
 62
    7
 10
1024.3422045739894
 20
1021.3849412853164
 11
1025.2204665951637
 21
1021.0331817440862
  0
LINE
  8
_0-7_
  6
DASHED3
 62
    7
 10
1023.5405910848292
 20
1021.7810391967772
 11
1024.3422045739894
 21
1021.3849412853164
  0
LINE
  8
_0-7_
  6
DASHED3
 62
    7
 10
1022.8156261276825
 20
1022.2214754784683
 11
1023.5405910848292
 21
1021.7810391967772
  0
LINE
  8
_0-7_
  6
DASHED3
 62
    7
 10
1022.1673097025501
 20
1022.7062501303905
 11
1022.8156261276825
 21
1022.2214754784683
  0
LINE
  8
_0-7_
  6
DASHED3
 62
    7
 10
1021.5956418094316
 20
1023.2353631525429
 11
1022.1673097025501
 21
1022.7062501303905
  0
LINE
  8
_0-7_
  6
DASHED3
 62
    7
 10
1021.1006224483267
 20
1023.8088145449263
 11
1021.5956418094316
 21
1023.2353631525429
  0
LINE
  8
_0-7_
  6
DASHED3
 62
    7
 10
1020.682251619236
 20
1024.4266043075401
 11
1021.1006224483267
 21
1023.8088145449263
  0
LINE
  8
_0-7_
  6
DASHED3
 62
    7
 10
1020.3405293221592
 20
1025.0887324403845
 11
1020.682251619236
 21
1024.4266043075401
  0
LINE
  8
_0-7_
  6
DASHED3
 62
    7
 10
1020.0754555570963
 20
1025.7951989434595
 11
1020.3405293221592
 21
1025.0887324403845
  0
LINE
  8
_0-7_
  6
CONTINUOUS
 62
    7
 10
910
 20
1113.0695272814718
 11
911.09593271749099
 21
1106.2776700692356
  0
LINE
  8
_0-7_
  6
CONTINUOUS
 62
    7
 10
910
 20
1113.0695272814718
 11
1190
 21
1113.0695272814718
  0
LINE
  8
_0-7_
  6
CONTINUOUS
 62
    7
 10
1190
 20
1113.0695272814718
 11
1188.9040672825092
 21
1106.2776700692356
  0
LINE
  8
_0-7_
  6
CONTINUOUS
 62
    7
 10
1188.9040672825092
 20
1106.2776700692356
 11
1187.63313569366
 21
1099.8641451811536
  0
LINE
  8
_0-7_
  6
CONTINUOUS
 62
    7
 10
1187.63313569366
 20
1099.8641451811536
 11
1186.1873573832617
 21
1093.8108505578225
  0
LINE
  8
_0-7_
  6
CONTINUOUS
 62
    7
 10
1186.1873573832617
 20
1093.8108505578225
 11
1184.5681392162637
 21
1088.1002181950216
  0
LINE
  8
_0-7_
  6
CONTINUOUS
 62
    7
 10
1184.5681392162637
 20
1088.1002181950216
 11
1182.7779876528156
 21
1082.7152221726216
  0
LINE
  8
_0-7_
  6
CONTINUOUS
 62
    7
 10
1182.7779876528161
 20
1082.7152221726216
 11
1180.8203536283238
 21
1077.6393866834903
  0
LINE
  8
_0-7_
  6
CONTINUOUS
 62
    7
 10
1180.8203536283238
 20
1077.6393866834903
 11
1178.6994774335084
 21
1072.856794062402
  0
LINE
  8
_0-7_
  6
CONTINUOUS
 62
    7
 10
1178.6994774335084
 20
1072.856794062402
 11
1176.4202335944639
 21
1068.3520928149434
  0
LINE
  8
_0-7_
  6
CONTINUOUS
 62
    7
 10
1176.4202335944639
 20
1068.3520928149434
 11
1173.9879757527137
 21
1064.110505646422
  0
LINE
  8
_0-7_
  6
CONTINUOUS
 62
    7
 10
1173.9879757527137
 20
1064.110505646422
 11
1171.4083815452709
 21
1060.1178374907722
  0
LINE
  8
_0-7_
  6
CONTINUOUS
 62
    7
 10
1171.4083815452709
 20
1060.1178374907722
 11
1168.6872974846949
 21
1056.3604835394642
  0
LINE
  8
_0-7_
  6
CONTINUOUS
 62
    7
 10
1168.6872974846949
 20
1056.3604835394642
 11
1165.8305838391479
 21
1052.8254372704102
  0
LINE
  8
_0-7_
  6
CONTINUOUS
 62
    7
 10
1165.8305838391479
 20
1052.8254372704102
 11
1162.8439595124555
 21
1049.5002984768732
  0
LINE
  8
_0-7_
  6
CONTINUOUS
 62
    7
 10
1162.8439595124555
 20
1049.5002984768732
 11
1159.7328469241624
 21
1046.3732812963717
  0
LINE
  8
_0-7_
  6
CONTINUOUS
 62
    7
 10
1159.7328469241624
 20
1046.3732812963717
 11
1156.5022168895916
 21
1043.4332222395905
  0
LINE
  8
_0-7_
  6
CONTINUOUS
 62
    7
 10
1156.5022168895916
 20
1043.4332222395905
 11
1153.1564334999006
 21
1040.6695882192861
  0
LINE
  8
_0-7_
  6
CONTINUOUS
 62
    7
 10
1153.1564334999006
 20
1040.6695882192861
 11
1149.6990990021417
 21
1038.0724845791933
  0
LINE
  8
_0-7_
  6
CONTINUOUS
 62
    7
 10
1149.6990990021417
 20
1038.0724845791933
 11
1146.1328986793182
 21
1035.6326631229351
  0
LINE
  8
_0-7_
  6
CONTINUOUS
 62
    7
 10
1146.1328986793182
 20
1035.6326631229351
 11
1142.4594457304415
 21
1033.3415301429276
  0
LINE
  8
_0-7_
  6
CONTINUOUS
 62
    7
 10
1142.4594457304415
 20
1033.3415301429276
 11
1138.6791261505911
 21
1031.1911544492895
  0
LINE
  8
_0-7_
  6
CONTINUOUS
 62
    7
 10
1138.6791261505911
 20
1031.1911544492895
 11
1134.7909436109707
 21
1029.1742753987473
  0
LINE
  8
_0-7_
  6
CONTINUOUS
 62
    7
 10
1134.7909436109707
 20
1029.1742753987473
 11
1130.7923643389674
 21
1027.2843109235445
  0
LINE
  8
_0-7_
  6
CONTINUOUS
 62
    7
 10
1130.7923643389674
 20
1027.2843109235445
 11
1126.6791619982086
 21
1025.5153655603487
  0
LINE
  8
_0-7_
  6
CONTINUOUS
 62
    7
 10
1126.6791619982086
 20
1025.5153655603487
 11
1122.4452625686196
 21
1023.8622384791576
  0
LINE
  8
_0-7_
  6
CONTINUOUS
 62
    7
 10
1126.6791619982086
 20
1025.5153655603487
 11
1122.4452625686196
 21
1023.8622384791576
  0
LINE
  8
_0-7_
  6
CONTINUOUS
 62
    7
 10
1130.7923643389674
 20
1027.2843109235445
 11
1126.6791619982086
 21
1025.5153655603487
  0
LINE
  8
_0-7_
  6
CONTINUOUS
 62
    7
 10
1134.7909436109707
 20
1029.1742753987473
 11
1130.7923643389674
 21
1027.2843109235445
  0
LINE
  8
_0-7_
  6
CONTINUOUS
 62
    7
 10
1138.6791261505911
 20
1031.1911544492895
 11
1134.7909436109707
 21
1029.1742753987473
  0
LINE
  8
_0-7_
  6
CONTINUOUS
 62
    7
 10
1142.4594457304415
 20
1033.3415301429276
 11
1138.6791261505911
 21
1031.1911544492895
  0
LINE
  8
_0-7_
  6
CONTINUOUS
 62
    7
 10
1146.1328986793182
 20
1035.6326631229351
 11
1142.4594457304415
 21
1033.3415301429276
  0
LINE
  8
_0-7_
  6
CONTINUOUS
 62
    7
 10
1149.6990990021417
 20
1038.0724845791933
 11
1146.1328986793182
 21
1035.6326631229351
  0
LINE
  8
_0-7_
  6
CONTINUOUS
 62
    7
 10
1153.1564334999006
 20
1040.6695882192861
 11
1149.6990990021417
 21
1038.0724845791933
  0
LINE
  8
_0-7_
  6
CONTINUOUS
 62
    7
 10
1156.5022168895916
 20
1043.4332222395905
 11
1153.1564334999006
 21
1040.6695882192861
  0
LINE
  8
_0-7_
  6
CONTINUOUS
 62
    7
 10
1159.7328469241624
 20
1046.3732812963717
 11
1156.5022168895916
 21
1043.4332222395905
  0
LINE
  8
_0-7_
  6
CONTINUOUS
 62
    7
 10
1162.8439595124555
 20
1049.5002984768732
 11
1159.7328469241624
 21
1046.3732812963717
  0
LINE
  8
_0-7_
  6
CONTINUOUS
 62
    7
 10
1165.8305838391479
 20
1052.8254372704102
 11
1162.8439595124555
 21
1049.5002984768732
  0
LINE
  8
_0-7_
  6
CONTINUOUS
 62
    7
 10
1168.6872974846949
 20
1056.3604835394642
 11
1165.8305838391479
 21
1052.8254372704102
  0
LINE
  8
_0-7_
  6
CONTINUOUS
 62
    7
 10
1171.4083815452713
 20
1060.1178374907722
 11
1168.6872974846949
 21
1056.3604835394642
  0
LINE
  8
_0-7_
  6
CONTINUOUS
 62
    7
 10
1173.9879757527137
 20
1064.110505646422
 11
1171.4083815452713
 21
1060.1178374907722
  0
LINE
  8
_0-7_
  6
CONTINUOUS
 62
    7
 10
1176.4202335944639
 20
1068.3520928149434
 11
1173.9879757527137
 21
1064.110505646422
  0
LINE
  8
_0-7_
  6
CONTINUOUS
 62
    7
 10
1178.6994774335084
 20
1072.856794062402
 11
1176.4202335944639
 21
1068.3520928149434
  0
LINE
  8
_0-7_
  6
CONTINUOUS
 62
    7
 10
1180.8203536283238
 20
1077.6393866834903
 11
1178.6994774335084
 21
1072.856794062402
  0
LINE
  8
_0-7_
  6
CONTINUOUS
 62
    7
 10
1182.7779876528156
 20
1082.7152221726216
 11
1180.8203536283238
 21
1077.6393866834903
  0
LINE
  8
_0-7_
  6
CONTINUOUS
 62
    7
 10
1184.5681392162637
 20
1088.1002181950216
 11
1182.7779876528156
 21
1082.7152221726216
  0
LINE
  8
_0-7_
  6
CONTINUOUS
 62
    7
 10
1186.1873573832617
 20
1093.8108505578225
 11
1184.5681392162637
 21
1088.1002181950216
  0
LINE
  8
_0-7_
  6
CONTINUOUS
 62
    7
 10
1187.63313569366
 20
1099.8641451811536
 11
1186.1873573832617
 21
1093.8108505578225
  0
LINE
  8
_0-7_
  6
CONTINUOUS
 62
    7
 10
1188.9040672825092
 20
1106.2776700692356
 11
1187.63313569366
 21
1099.8641451811536
  0
LINE
  8
_0-7_
  6
CONTINUOUS
 62
    7
 10
1190
 20
1113.0695272814718
 11
1188.9040672825092
 21
1106.2776700692356
  0
LINE
  8
_0-7_
  6
DASHED3
 62
    7
 10
919.79535062070681
 20
1111.6017791543949
 11
920.3283294482378
 21
1108.7058150801649
  0
LINE
  8
_0-7_
  6
DASHED3
 62
    7
 10
920.3283294482378
 20
1108.7058150801649
 11
920.88267750352599
 21
1105.8163900499766
  0
LINE
  8
_0-7_
  6
DASHED3
 62
    7
 10
920.88267750352599
 20
1105.8163900499766
 11
921.47191961426551
 21
1102.9376426992998
  0
LINE
  8
_0-7_
  6
DASHED3
 62
    7
 10
921.47191961426551
 20
1102.9376426992998
 11
922.10958060815096
 21
1100.0737116636041
  0
LINE
  8
_0-7_
  6
DASHED3
 62
    7
 10
922.10958060815096
 20
1100.0737116636041
 11
922.80918531287682
 21
1097.2287355783591
  0
LINE
  8
_0-7_
  6
DASHED3
 62
    7
 10
922.80918531287682
 20
1097.2287355783591
 11
923.24866813532764
 21
1095.5889654447978
  0
LINE
  8
_0-7_
  6
DASHED3
 62
    7
 10
923.24866813532764
 20
1095.5889654447978
 11
923.98374054411988
 21
1093.0645070328537
  0
LINE
  8
_0-7_
  6
DASHED3
 62
    7
 10
923.98374054411988
 20
1093.0645070328537
 11
925.39804169611272
 21
1088.7569173364422
  0
LINE
  8
_0-7_
  6
DASHED3
 62
    7
 10
925.39804169611272
 20
1088.7569173364422
 11
926.98153823954498
 21
1084.5009971949216
  0
LINE
  8
_0-7_
  6
DASHED3
 62
    7
 10
926.98153823954498
 20
1084.5009971949216
 11
928.71469739446297
 21
1080.2907032485968
  0
LINE
  8
_0-7_
  6
DASHED3
 62
    7
 10
928.71469739446297
 20
1080.2907032485968
 11
930.57798638091355
 21
1076.1199921377733
  0
LINE
  8
_0-7_
  6
DASHED3
 62
    7
 10
930.57798638091355
 20
1076.1199921377733
 11
932.55187241894327
 21
1071.9828205027565
  0
LINE
  8
_0-7_
  6
DASHED3
 62
    7
 10
932.55187241894327
 20
1071.9828205027565
 11
933.73970495902767
 21
1069.5962473442866
  0
LINE
  8
_0-7_
  6
DASHED3
 62
    7
 10
933.73970495902767
 20
1069.5962473442866
 11
934.37170222759561
 21
1068.3537087563504
  0
LINE
  8
_0-7_
  6
DASHED3
 62
    7
 10
934.37170222759561
 20
1068.3537087563504
 11
935.48948139601975
 21
1066.2270904492663
  0
LINE
  8
_0-7_
  6
DASHED3
 62
    7
 10
935.48948139601975
 20
1066.2270904492663
 11
936.65941716941745
 21
1064.136237833035
  0
LINE
  8
_0-7_
  6
DASHED3
 62
    7
 10
936.65941716941745
 20
1064.136237833035
 11
937.90075448825575
 21
1062.0996455980066
  0
LINE
  8
_0-7_
  6
DASHED3
 62
    7
 10
937.90075448825575
 20
1062.0996455980066
 11
939.23273829300057
 21
1060.1358084345306
  0
LINE
  8
_0-7_
  6
DASHED3
 62
    7
 10
939.23273829300057
 20
1060.1358084345306
 11
940.67461352411919
 21
1058.2632210329572
  0
LINE
  8
_0-7_
  6
DASHED3
 62
    7
 10
940.67461352411919
 20
1058.2632210329572
 11
941.56883691701295
 21
1057.2262188506697
  0
LINE
  8
_0-7_
  6
DASHED3
 62
    7
 10
941.56883691701295
 20
1057.2262188506697
 11
942.14715326021655
 21
1056.6021131281706
  0
LINE
  8
_0-7_
  6
DASHED3
 62
    7
 10
942.14715326021655
 20
1056.6021131281706
 11
943.18199271348589
 21
1055.558687778797
  0
LINE
  8
_0-7_
  6
DASHED3
 62
    7
 10
943.18199271348589
 20
1055.558687778797
 11
944.25706372932552
 21
1054.5503930433937
  0
LINE
  8
_0-7_
  6
DASHED3
 62
    7
 10
944.25706372932552
 20
1054.5503930433937
 11
945.36359478082113
 21
1053.5700669927186
  0
LINE
  8
_0-7_
  6
DASHED3
 62
    7
 10
945.36359478082113
 20
1053.5700669927186
 11
946.49281434106001
 21
1052.6105476975296
  0
LINE
  8
_0-7_
  6
DASHED3
 62
    7
 10
946.49281434106001
 20
1052.6105476975296
 11
947.63595088312911
 21
1051.6646732285855
  0
LINE
  8
_0-7_
  6
DASHED3
 62
    7
 10
947.63595088312911
 20
1051.6646732285855
 11
948.30189040088043
 21
1051.1194959234412
  0
LINE
  8
_0-7_
  6
DASHED3
 62
    7
 10
948.30189040088043
 20
1051.1194959234412
 11
949.44064531740991
 21
1050.1903793023825
  0
LINE
  8
_0-7_
  6
DASHED3
 62
    7
 10
949.44064531740991
 20
1050.1903793023825
 11
951.40816760763129
 21
1048.5990714210347
  0
LINE
  8
_0-7_
  6
DASHED3
 62
    7
 10
951.40816760763129
 20
1048.5990714210347
 11
953.38702032502078
 21
1047.0291326625831
  0
LINE
  8
_0-7_
  6
DASHED3
 62
    7
 10
953.38702032502078
 20
1047.0291326625831
 11
955.38426748633355
 21
1045.4897833386462
  0
LINE
  8
_0-7_
  6
DASHED3
 62
    7
 10
955.38426748633355
 20
1045.4897833386462
 11
957.40697310832331
 21
1043.9902437608432
  0
LINE
  8
_0-7_
  6
DASHED3
 62
    7
 10
957.40697310832331
 20
1043.9902437608432
 11
959.46220120774398
 21
1042.5397342407925
  0
LINE
  8
_0-7_
  6
DASHED3
 62
    7
 10
959.46220120774398
 20
1042.5397342407925
 11
960.67191889449736
 21
1041.7245375738591
  0
LINE
  8
_0-7_
  6
DASHED3
 62
    7
 10
960.67191889449736
 20
1041.7245375738591
 11
961.63799125393836
 21
1041.095170151884
  0
LINE
  8
_0-7_
  6
DASHED3
 62
    7
 10
961.63799125393836
 20
1041.095170151884
 11
963.32398123226255
 21
1040.0398811616205
  0
LINE
  8
_0-7_
  6
DASHED3
 62
    7
 10
963.32398123226255
 20
1040.0398811616205
 11
965.03391216073509
 21
1039.0200112908541
  0
LINE
  8
_0-7_
  6
DASHED3
 62
    7
 10
965.03391216073509
 20
1039.0200112908541
 11
966.76567242812552
 21
1038.0328432153037
  0
LINE
  8
_0-7_
  6
DASHED3
 62
    7
 10
966.76567242812552
 20
1038.0328432153037
 11
968.51715042320279
 21
1037.0756596106868
  0
LINE
  8
_0-7_
  6
DASHED3
 62
    7
 10
968.51715042320279
 20
1037.0756596106868
 11
970.28623453473619
 21
1036.1457431527221
  0
LINE
  8
_0-7_
  6
DASHED3
 62
    7
 10
970.28623453473619
 20
1036.1457431527221
 11
971.31953835735714
 21
1035.6178146466304
  0
LINE
  8
_0-7_
  6
DASHED3
 62
    7
 10
971.31953835735714
 20
1035.6178146466304
 11
972.84354644707468
 21
1034.8583272302785
  0
LINE
  8
_0-7_
  6
DASHED3
 62
    7
 10
972.84354644707468
 20
1034.8583272302785
 11
975.49599002779814
 21
1033.5973309727783
  0
LINE
  8
_0-7_
  6
DASHED3
 62
    7
 10
975.49599002779814
 20
1033.5973309727783
 11
978.18079409420511
 21
1032.4119556634545
  0
LINE
  8
_0-7_
  6
DASHED3
 62
    7
 10
978.18079409420511
 20
1032.4119556634545
 11
980.89902040321476
 21
1031.3187979226847
  0
LINE
  8
_0-7_
  6
DASHED3
 62
    7
 10
980.89902040321476
 20
1031.3187979226847
 11
983.65173071174672
 21
1030.3344543708453
  0
LINE
  8
_0-7_
  6
DASHED3
 62
    7
 10
983.65173071174672
 20
1030.3344543708453
 11
986.43998677672129
 21
1029.4755216283137
  0
LINE
  8
_0-7_
  6
DASHED3
 62
    7
 10
986.43998677672129
 20
1029.4755216283137
 11
988.07388074744585
 21
1029.0413438019229
  0
LINE
  8
_0-7_
  6
DASHED3
 62
    7
 10
988.07388074744585
 20
1029.0413438019229
 11
989.27812826184344
 21
1028.7549059775722
  0
LINE
  8
_0-7_
  6
DASHED3
 62
    7
 10
989.27812826184344
 20
1028.7549059775722
 11
991.36817273449287
 21
1028.3172174533897
  0
LINE
  8
_0-7_
  6
DASHED3
 62
    7
 10
991.36817273449287
 20
1028.3172174533897
 11
993.47258662501212
 21
1027.9384381972593
  0
LINE
  8
_0-7_
  6
DASHED3
 62
    7
 10
993.47258662501212
 20
1027.9384381972593
 11
995.58783179003307
 21
1027.6043917712922
  0
LINE
  8
_0-7_
  6
DASHED3
 62
    7
 10
995.58783179003307
 20
1027.6043917712922
 11
997.71037008618714
 21
1027.3009017375989
  0
LINE
  8
_0-7_
  6
DASHED3
 62
    7
 10
997.71037008618714
 20
1027.3009017375989
 11
999.83666337010561
 21
1027.0137916582903
  0
LINE
  8
_0-7_
  6
DASHED3
 62
    7
 10
999.83666337010561
 20
1027.0137916582903
 11
1001.0702397977013
 21
1026.8491868536871
  0
LINE
  8
_0-7_
  6
DASHED3
 62
    7
 10
1001.0702397977013
 20
1026.8491868536871
 11
1002.0280294594067
 21
1026.7205808949872
  0
LINE
  8
_0-7_
  6
DASHED3
 62
    7
 10
1002.0280294594067
 20
1026.7205808949872
 11
1003.67887740995
 21
1026.500871903363
  0
LINE
  8
_0-7_
  6
DASHED3
 62
    7
 10
1003.67887740995
 20
1026.500871903363
 11
1005.3296212733878
 21
1026.2911259021427
  0
LINE
  8
_0-7_
  6
DASHED3
 62
    7
 10
1005.3296212733878
 20
1026.2911259021427
 11
1006.9808958839001
 21
1026.0999465747122
  0
LINE
  8
_0-7_
  6
DASHED3
 62
    7
 10
1006.9808958839001
 20
1026.0999465747122
 11
1008.6333360756682
 21
1025.9359376044565
  0
LINE
  8
_0-7_
  6
DASHED3
 62
    7
 10
1008.6333360756682
 20
1025.9359376044565
 11
1010.2875766828725
 21
1025.8077026747616
  0
LINE
  8
_0-7_
  6
DASHED3
 62
    7
 10
1010.2875766828725
 20
1025.8077026747616
 11
1011.2481113430823
 21
1025.7531083795688
  0
LINE
  8
_0-7_
  6
DASHED3
 62
    7
 10
1011.2481113430823
 20
1025.7531083795688
 11
1012.0700462181421
 21
1025.7191717867108
  0
LINE
  8
_0-7_
  6
DASHED3
 62
    7
 10
1012.0700462181421
 20
1025.7191717867108
 11
1013.4886049535784
 21
1025.6858359021198
  0
LINE
  8
_0-7_
  6
DASHED3
 62
    7
 10
1013.4886049535784
 20
1025.6858359021198
 11
1014.9086872727633
 21
1025.6793298084394
  0
LINE
  8
_0-7_
  6
DASHED3
 62
    7
 10
1014.9086872727633
 20
1025.6793298084394
 11
1016.3299605154898
 21
1025.69379547272
  0
LINE
  8
_0-7_
  6
DASHED3
 62
    7
 10
1016.3299605154898
 20
1025.69379547272
 11
1017.7520920215505
 21
1025.7233748620117
  0
LINE
  8
_0-7_
  6
DASHED3
 62
    7
 10
1017.7520920215505
 20
1025.7233748620117
 11
1019.1747491307381
 21
1025.762209943364
  0
LINE
  8
_0-7_
  6
DASHED3
 62
    7
 10
1019.1747491307381
 20
1025.762209943364
 11
1020
 21
1025.7866668790509
  0
LINE
  8
_0-7_
  6
DASHED3
 62
    7
 10
919.52933862015015
 20
1113.0695272814718
 11
919.79535062070681
 21
1111.6017791543949
  0
LINE
  8
_0-7_
  6
DASHED3
 62
    7
 10
1155.7429362706743
 20
1054.5503930433937
 11
1154.6364052191788
 21
1053.5700669927186
  0
LINE
  8
_0-7_
  6
DASHED3
 62
    7
 10
1154.6364052191788
 20
1053.5700669927186
 11
1153.5071856589399
 21
1052.6105476975296
  0
LINE
  8
_0-7_
  6
DASHED3
 62
    7
 10
1153.5071856589399
 20
1052.6105476975296
 11
1152.3640491168707
 21
1051.6646732285855
  0
LINE
  8
_0-7_
  6
DASHED3
 62
    7
 10
1152.3640491168707
 20
1051.6646732285855
 11
1151.6981095991195
 21
1051.1194959234412
  0
LINE
  8
_0-7_
  6
DASHED3
 62
    7
 10
1151.6981095991195
 20
1051.1194959234412
 11
1150.55935468259
 21
1050.1903793023825
  0
LINE
  8
_0-7_
  6
DASHED3
 62
    7
 10
1150.55935468259
 20
1050.1903793023825
 11
1148.5918323923688
 21
1048.5990714210347
  0
LINE
  8
_0-7_
  6
DASHED3
 62
    7
 10
1148.5918323923688
 20
1048.5990714210347
 11
1146.6129796749792
 21
1047.0291326625831
  0
LINE
  8
_0-7_
  6
DASHED3
 62
    7
 10
1146.6129796749792
 20
1047.0291326625831
 11
1144.6157325136664
 21
1045.4897833386462
  0
LINE
  8
_0-7_
  6
DASHED3
 62
    7
 10
1144.6157325136664
 20
1045.4897833386462
 11
1142.5930268916768
 21
1043.9902437608432
  0
LINE
  8
_0-7_
  6
DASHED3
 62
    7
 10
1142.5930268916768
 20
1043.9902437608432
 11
1140.5377987922561
 21
1042.5397342407925
  0
LINE
  8
_0-7_
  6
DASHED3
 62
    7
 10
1140.5377987922561
 20
1042.5397342407925
 11
1139.3280811055026
 21
1041.7245375738591
  0
LINE
  8
_0-7_
  6
DASHED3
 62
    7
 10
1139.3280811055026
 20
1041.7245375738591
 11
1138.3620087460617
 21
1041.095170151884
  0
LINE
  8
_0-7_
  6
DASHED3
 62
    7
 10
1138.3620087460617
 20
1041.095170151884
 11
1136.6760187677373
 21
1040.0398811616205
  0
LINE
  8
_0-7_
  6
DASHED3
 62
    7
 10
1136.6760187677373
 20
1040.0398811616205
 11
1134.9660878392649
 21
1039.0200112908541
  0
LINE
  8
_0-7_
  6
DASHED3
 62
    7
 10
1134.9660878392649
 20
1039.0200112908541
 11
1133.2343275718744
 21
1038.0328432153037
  0
LINE
  8
_0-7_
  6
DASHED3
 62
    7
 10
1133.2343275718744
 20
1038.0328432153037
 11
1131.4828495767972
 21
1037.0756596106868
  0
LINE
  8
_0-7_
  6
DASHED3
 62
    7
 10
1131.4828495767972
 20
1037.0756596106868
 11
1129.7137654652638
 21
1036.1457431527221
  0
LINE
  8
_0-7_
  6
DASHED3
 62
    7
 10
1129.7137654652638
 20
1036.1457431527221
 11
1128.6804616426429
 21
1035.6178146466304
  0
LINE
  8
_0-7_
  6
DASHED3
 62
    7
 10
1128.6804616426429
 20
1035.6178146466304
 11
1127.1564535529253
 21
1034.8583272302785
  0
LINE
  8
_0-7_
  6
DASHED3
 62
    7
 10
1127.1564535529253
 20
1034.8583272302785
 11
1124.5040099722018
 21
1033.5973309727783
  0
LINE
  8
_0-7_
  6
DASHED3
 62
    7
 10
1124.5040099722018
 20
1033.5973309727783
 11
1121.8192059057948
 21
1032.4119556634545
  0
LINE
  8
_0-7_
  6
DASHED3
 62
    7
 10
1121.8192059057948
 20
1032.4119556634545
 11
1119.1009795967852
 21
1031.3187979226847
  0
LINE
  8
_0-7_
  6
DASHED3
 62
    7
 10
1156.8180072865141
 20
1055.558687778797
 11
1155.7429362706743
 21
1054.5503930433937
  0
LINE
  8
_0-7_
  6
DASHED3
 62
    7
 10
1157.8528467397834
 20
1056.6021131281706
 11
1156.8180072865141
 21
1055.558687778797
  0
LINE
  8
_0-7_
  6
DASHED3
 62
    7
 10
1158.431163082987
 20
1057.2262188506697
 11
1157.8528467397834
 21
1056.6021131281706
  0
LINE
  8
_0-7_
  6
DASHED3
 62
    7
 10
1159.3253864758808
 20
1058.2632210329572
 11
1158.431163082987
 21
1057.2262188506697
  0
LINE
  8
_0-7_
  6
DASHED3
 62
    7
 10
1160.7672617069993
 20
1060.1358084345306
 11
1159.3253864758808
 21
1058.2632210329572
  0
LINE
  8
_0-7_
  6
DASHED3
 62
    7
 10
1162.0992455117443
 20
1062.0996455980066
 11
1160.7672617069993
 21
1060.1358084345306
  0
LINE
  8
_0-7_
  6
DASHED3
 62
    7
 10
1163.3405828305826
 20
1064.136237833035
 11
1162.0992455117443
 21
1062.0996455980066
  0
LINE
  8
_0-7_
  6
DASHED3
 62
    7
 10
1164.5105186039802
 20
1066.2270904492663
 11
1163.3405828305826
 21
1064.136237833035
  0
LINE
  8
_0-7_
  6
DASHED3
 62
    7
 10
1165.6282977724044
 20
1068.3537087563504
 11
1164.5105186039802
 21
1066.2270904492663
  0
LINE
  8
_0-7_
  6
DASHED3
 62
    7
 10
1166.2602950409723
 20
1069.5962473442866
 11
1165.6282977724044
 21
1068.3537087563504
  0
LINE
  8
_0-7_
  6
DASHED3
 62
    7
 10
1167.4481275810567
 20
1071.9828205027565
 11
1166.2602950409723
 21
1069.5962473442866
  0
LINE
  8
_0-7_
  6
DASHED3
 62
    7
 10
1169.4220136190865
 20
1076.1199921377733
 11
1167.4481275810567
 21
1071.9828205027565
  0
LINE
  8
_0-7_
  6
DASHED3
 62
    7
 10
1171.285302605537
 20
1080.2907032485968
 11
1169.4220136190865
 21
1076.1199921377733
  0
LINE
  8
_0-7_
  6
DASHED3
 62
    7
 10
1173.018461760455
 20
1084.5009971949216
 11
1171.285302605537
 21
1080.2907032485968
  0
LINE
  8
_0-7_
  6
DASHED3
 62
    7
 10
1174.6019583038873
 20
1088.7569173364422
 11
1173.018461760455
 21
1084.5009971949216
  0
LINE
  8
_0-7_
  6
DASHED3
 62
    7
 10
1176.0162594558801
 20
1093.0645070328537
 11
1174.6019583038873
 21
1088.7569173364422
  0
LINE
  8
_0-7_
  6
DASHED3
 62
    7
 10
1176.7513318646724
 20
1095.5889654447978
 11
1176.0162594558801
 21
1093.0645070328537
  0
LINE
  8
_0-7_
  6
DASHED3
 62
    7
 10
1177.1908146871232
 20
1097.2287355783591
 11
1176.7513318646724
 21
1095.5889654447978
  0
LINE
  8
_0-7_
  6
DASHED3
 62
    7
 10
1177.890419391849
 20
1100.0737116636041
 11
1177.1908146871232
 21
1097.2287355783591
  0
LINE
  8
_0-7_
  6
DASHED3
 62
    7
 10
1178.5280803857344
 20
1102.9376426992998
 11
1177.890419391849
 21
1100.0737116636041
  0
LINE
  8
_0-7_
  6
DASHED3
 62
    7
 10
1179.1173224964741
 20
1105.8163900499766
 11
1178.5280803857344
 21
1102.9376426992998
  0
LINE
  8
_0-7_
  6
DASHED3
 62
    7
 10
1179.6716705517621
 20
1108.7058150801649
 11
1179.1173224964741
 21
1105.8163900499766
  0
LINE
  8
_0-7_
  6
DASHED3
 62
    7
 10
1180.2046493792931
 20
1111.6017791543949
 11
1179.6716705517621
 21
1108.7058150801649
  0
LINE
  8
_0-7_
  6
DASHED3
 62
    7
 10
1180.4706613798498
 20
1113.0695272814718
 11
1180.2046493792931
 21
1111.6017791543949
  0
LINE
  8
_0-7_
  6
CONTINUOUS
 62
    7
 10
1082.767498909448
 20
1014.4181682755175
 11
1076.7923425949379
 21
1013.6919571910829
  0
LINE
  8
_0-7_
  6
CONTINUOUS
 62
    7
 10
1076.7923425949379
 20
1013.6919571910829
 11
1070.5
 21
1013.0695272814718
  0
LINE
  8
_0-7_
  6
DASHED3
 62
    7
 10
1070.5
 20
1020.0695272814721
 11
1070.5
 21
1013.0695272814718
  0
LINE
  8
_0-7_
  6
DASHED3
 62
    7
 10
1079.3177483807639
 20
1024.4266043075401
 11
1078.8993775516732
 21
1023.8088145449263
  0
LINE
  8
_0-7_
  6
DASHED3
 62
    7
 10
1079.6594706778407
 20
1025.0887324403845
 11
1079.3177483807639
 21
1024.4266043075401
  0
LINE
  8
_0-7_
  6
DASHED3
 62
    7
 10
1079.9245444429036
 20
1025.7951989434595
 11
1079.6594706778407
 21
1025.0887324403845
  0
LINE
  8
_0-7_
  6
CONTINUOUS
 62
    7
 10
1122.4452625686196
 20
1023.8622384791576
 11
1118.0825892264831
 21
1022.3204315122086
  0
LINE
  8
_0-7_
  6
CONTINUOUS
 62
    7
 10
1118.0825892264831
 20
1022.3204315122086
 11
1113.5809072244956
 21
1020.8861571828838
  0
LINE
  8
_0-7_
  6
CONTINUOUS
 62
    7
 10
1108.9276687718245
 20
1019.5563467346192
 11
1104.1078579141685
 21
1018.3286581598116
  0
LINE
  8
_0-7_
  6
CONTINUOUS
 62
    7
 10
1104.1078579141685
 20
1018.3286581598116
 11
1099.103835413814
 21
1017.2014842287253
  0
LINE
  8
_0-7_
  6
CONTINUOUS
 62
    7
 10
1099.103835413814
 20
1017.2014842287253
 11
1093.8951836296923
 21
1016.1739605184006
  0
LINE
  8
_0-7_
  6
CONTINUOUS
 62
    7
 10
1088.4585513974379
 20
1015.2459734415604
 11
1082.767498909448
 21
1014.4181682755175
  0
LINE
  8
_0-7_
  6
DASHED3
 62
    7
 10
1079.9245444429036
 20
1025.7951989434595
 11
1079.6594706778407
 21
1025.0887324403845
  0
LINE
  8
_0-7_
  6
DASHED3
 62
    7
 10
1079.6594706778407
 20
1025.0887324403845
 11
1079.3177483807639
 21
1024.4266043075401
  0
LINE
  8
_0-7_
  6
DASHED3
 62
    7
 10
1079.3177483807639
 20
1024.4266043075401
 11
1078.8993775516732
 21
1023.8088145449263
  0
LINE
  8
_0-7_
  6
DASHED3
 62
    7
 10
1078.8993775516732
 20
1023.8088145449263
 11
1078.4043581905684
 21
1023.2353631525429
  0
LINE
  8
_0-7_
  6
CONTINUOUS
 62
    7
 10
1122.4452625686196
 20
1023.8622384791576
 11
1118.0825892264831
 21
1022.3204315122086
  0
LINE
  8
_0-7_
  6
CONTINUOUS
 62
    7
 10
1099.103835413814
 20
1017.2014842287253
 11
1093.8951836296923
 21
1016.1739605184006
  0
LINE
  8
_0-7_
  6
DASHED3
 62
    7
 10
1119.1009795967852
 20
1031.3187979226847
 11
1116.3482692882532
 21
1030.3344543708453
  0
LINE
  8
_0-7_
  6
DASHED3
 62
    7
 10
1116.3482692882532
 20
1030.3344543708453
 11
1113.5600132232787
 21
1029.4755216283137
  0
LINE
  8
_0-7_
  6
DASHED3
 62
    7
 10
1113.5600132232787
 20
1029.4755216283137
 11
1111.9261192525541
 21
1029.0413438019229
  0
LINE
  8
_0-7_
  6
DASHED3
 62
    7
 10
1111.9261192525541
 20
1029.0413438019229
 11
1110.7218717381565
 21
1028.7549059775722
  0
LINE
  8
_0-7_
  6
DASHED3
 62
    7
 10
1110.7218717381565
 20
1028.7549059775722
 11
1108.6318272655071
 21
1028.3172174533897
  0
LINE
  8
_0-7_
  6
DASHED3
 62
    7
 10
1108.6318272655071
 20
1028.3172174533897
 11
1106.5274133749878
 21
1027.9384381972593
  0
LINE
  8
_0-7_
  6
DASHED3
 62
    7
 10
1106.5274133749878
 20
1027.9384381972593
 11
1104.4121682099669
 21
1027.6043917712922
  0
LINE
  8
_0-7_
  6
DASHED3
 62
    7
 10
1104.4121682099669
 20
1027.6043917712922
 11
1102.2896299138128
 21
1027.3009017375989
  0
LINE
  8
_0-7_
  6
DASHED3
 62
    7
 10
1102.2896299138128
 20
1027.3009017375989
 11
1100.1633366298942
 21
1027.0137916582903
  0
LINE
  8
_0-7_
  6
DASHED3
 62
    7
 10
1100.1633366298942
 20
1027.0137916582903
 11
1098.9297602022986
 21
1026.8491868536871
  0
LINE
  8
_0-7_
  6
DASHED3
 62
    7
 10
1098.9297602022986
 20
1026.8491868536871
 11
1097.9719705405932
 21
1026.7205808949872
  0
LINE
  8
_0-7_
  6
DASHED3
 62
    7
 10
1097.9719705405932
 20
1026.7205808949872
 11
1096.3211225900499
 21
1026.500871903363
  0
LINE
  8
_0-7_
  6
DASHED3
 62
    7
 10
1096.3211225900499
 20
1026.500871903363
 11
1094.6703787266121
 21
1026.2911259021427
  0
LINE
  8
_0-7_
  6
DASHED3
 62
    7
 10
1094.6703787266121
 20
1026.2911259021427
 11
1093.0191041160996
 21
1026.0999465747122
  0
LINE
  8
_0-7_
  6
DASHED3
 62
    7
 10
1093.0191041160996
 20
1026.0999465747122
 11
1091.3666639243317
 21
1025.9359376044565
  0
LINE
  8
_0-7_
  6
DASHED3
 62
    7
 10
1091.3666639243317
 20
1025.9359376044565
 11
1089.7124233171275
 21
1025.8077026747616
  0
LINE
  8
_0-7_
  6
DASHED3
 62
    7
 10
1089.7124233171275
 20
1025.8077026747616
 11
1088.7518886569177
 21
1025.7531083795688
  0
LINE
  8
_0-7_
  6
DASHED3
 62
    7
 10
1088.7518886569177
 20
1025.7531083795688
 11
1087.9299537818578
 21
1025.7191717867108
  0
LINE
  8
_0-7_
  6
DASHED3
 62
    7
 10
1087.9299537818578
 20
1025.7191717867108
 11
1086.5113950464215
 21
1025.6858359021198
  0
LINE
  8
_0-7_
  6
DASHED3
 62
    7
 10
1086.5113950464215
 20
1025.6858359021198
 11
1085.0913127272365
 21
1025.6793298084394
  0
LINE
  8
_0-7_
  6
DASHED3
 62
    7
 10
1085.0913127272365
 20
1025.6793298084394
 11
1083.6700394845101
 21
1025.69379547272
  0
LINE
  8
_0-7_
  6
DASHED3
 62
    7
 10
1083.6700394845101
 20
1025.69379547272
 11
1082.2479079784493
 21
1025.7233748620117
  0
LINE
  8
_0-7_
  6
DASHED3
 62
    7
 10
1082.2479079784493
 20
1025.7233748620117
 11
1080.8252508692617
 21
1025.762209943364
  0
LINE
  8
_0-7_
  6
DASHED3
 62
    7
 10
1080.8252508692617
 20
1025.762209943364
 11
1080
 21
1025.7866668790509
  0
LINE
  8
_0-7_
  6
CONTINUOUS
 62
    7
 10
1093.8951836296923
 20
1016.1739605184006
 11
1088.4585513974379
 21
1015.2459734415604
  0
LINE
  8
_0-7_
  6
CONTINUOUS
 62
    7
 10
1093.8951836296923
 20
1016.1739605184006
 11
1088.4585513974379
 21
1015.2459734415604
  0
LINE
  8
_0-7_
  6
CONTINUOUS
 62
    7
 10
1088.4585513974379
 20
1015.2459734415604
 11
1082.767498909448
 21
1014.4181682755175
  0
LINE
  8
_0-7_
  6
CONTINUOUS
 62
    7
 10
1113.5809072244956
 20
1020.8861571828838
 11
1108.9276687718245
 21
1019.5563467346192
  0
LINE
  8
_0-7_
  6
CONTINUOUS
 62
    7
 10
1113.5809072244956
 20
1020.8861571828838
 11
1108.9276687718245
 21
1019.5563467346192
  0
LINE
  8
_0-7_
  6
CONTINUOUS
 62
    7
 10
1108.9276687718245
 20
1019.5563467346192
 11
1104.1078579141685
 21
1018.3286581598116
  0
LINE
  8
_0-7_
  6
CONTINUOUS
 62
    7
 10
1118.0825892264831
 20
1022.3204315122086
 11
1113.5809072244956
 21
1020.8861571828838
  0
LINE
  8
_0-7_
  6
CONTINUOUS
 62
    7
 10
1104.1078579141685
 20
1018.3286581598116
 11
1099.103835413814
 21
1017.2014842287253
  0
LINE
  8
_0-7_
  6
DASHED3
 62
    7
 10
1073.8246228516482
 20
1020.7257605730867
 11
1072.793063766446
 21
1020.4626777723178
  0
LINE
  8
_0-7_
  6
DASHED3
 62
    7
 10
1077.1843738723173
 20
1022.2214754784683
 11
1076.4594089151707
 21
1021.7810391967772
  0
LINE
  8
_0-7_
  6
DASHED3
 62
    7
 10
1074.7795334048362
 20
1021.0331817440862
 11
1073.8246228516482
 21
1020.7257605730867
  0
LINE
  8
_0-7_
  6
DASHED3
 62
    7
 10
1077.8326902974499
 20
1022.7062501303905
 11
1077.1843738723173
 21
1022.2214754784683
  0
LINE
  8
_0-7_
  6
DASHED3
 62
    7
 10
1078.4043581905684
 20
1023.2353631525429
 11
1077.8326902974499
 21
1022.7062501303905
  0
LINE
  8
_0-7_
  6
DASHED3
 62
    7
 10
1078.8993775516732
 20
1023.8088145449263
 11
1078.4043581905684
 21
1023.2353631525429
  0
LINE
  8
_0-7_
  6
DASHED3
 62
    7
 10
1079.3177483807639
 20
1024.4266043075401
 11
1078.8993775516732
 21
1023.8088145449263
  0
LINE
  8
_0-7_
  6
DASHED3
 62
    7
 10
1079.9245444429036
 20
1025.7951989434595
 11
1079.6594706778407
 21
1025.0887324403845
  0
LINE
  8
_0-7_
  6
DASHED3
 62
    7
 10
1079.6594706778407
 20
1025.0887324403845
 11
1079.3177483807639
 21
1024.4266043075401
  0
LINE
  8
_0-7_
  6
DASHED3
 62
    7
 10
1072.793063766446
 20
1020.4626777723178
 11
1071.6848561492297
 21
1020.2439333417796
  0
LINE
  8
_0-7_
  6
DASHED3
 62
    7
 10
1071.6848561492297
 20
1020.2439333417796
 11
1070.5
 21
1020.0695272814721
  0
LINE
  8
_0-7_
  6
DASHED3
 62
    7
 10
1075.6577954260105
 20
1021.3849412853164
 11
1074.7795334048362
 21
1021.0331817440862
  0
LINE
  8
_0-7_
  6
DASHED3
 62
    7
 10
1076.4594089151707
 20
1021.7810391967772
 11
1075.6577954260105
 21
1021.3849412853164
  0
LINE
  8
_0-0_
  6
CONTINUOUS
 62
    4
 10
1067.0747907414172
 20
1023.7666078955417
 11
1256.7611396673123
 21
1077.9810681775234
  0
LINE
  8
_0-0_
  6
CONTINUOUS
 62
    4
 10
1069.5225105748691
 20
1022.7281812995317
 11
1259.3979344990614
 21
1058.951335173559
  0
TEXT
  8
_0-0_
 62
    4
 10
1229.026989324275
 20
823.33191292274909
 40
12.5
 41
1
 50
0
  1
排水トラップφ25
  0
TEXT
  8
_0-0_
 62
    4
 10
723.29450915141421
 20
903.689683860233
 40
12.5
 41
1
 50
0
  1
ボウル固定板（バックプレート）
  0
TEXT
  8
_0-0_
 62
    4
 10
790.5574043261231
 20
861.75956738768718
 40
12.5
 41
1
 50
0
  1
排水目皿用パイプナット
  0
TEXT
  8
_0-0_
 62
    7
 10
1030
 20
797.32036074465304
 40
10
 41
1
 50
0
  1
取付方法
  0
LINE
  8
_0-0_
  6
CONTINUOUS
 62
    7
 10
1003.75
 20
811.07036074465304
 11
1003.75
 21
793.57036074465304
  0
LINE
  8
_0-0_
  6
CONTINUOUS
 62
    7
 10
1003.75
 20
793.57036074465304
 11
1096.25
 21
793.57036074465304
  0
LINE
  8
_0-0_
  6
CONTINUOUS
 62
    7
 10
1096.25
 20
793.57036074465304
 11
1096.25
 21
811.07036074465304
  0
LINE
  8
_0-0_
  6
CONTINUOUS
 62
    7
 10
1003.75
 20
811.07036074465304
 11
1096.25
 21
811.07036074465304
  0
ENDSEC
  0
EOF
