  0
SECTION
  2
HEADER
  9
$ACADVER
  1
AC1009
  9
$INSBASE
 10
0
 20
0
 30
0
  9
$EXTMIN
 10
0
 20
0
  9
$EXTMAX
 10
841
 20
594
  9
$LIMMIN
 10
0
 20
0
  9
$LIMMAX
 10
841
 20
594
  9
$LTSCALE
 40
1
  0
ENDSEC
  0
SECTION
  2
TABLES
  0
TABLE
  2
LTYPE
 70
     9
  0
LTYPE
  2
CONTINUOUS
 70
    64
  3
実線
 72
    65
 73
     0
 40
0.0
  0
LTYPE
  2
DASHED1
 70
    64
  3
--  --  --  --  --  --  --  --  
 72
    65
 73
     2
 40
2.5
 49
1.25
 49
-1.25
  0
LTYPE
  2
DASHED2
 70
    64
  3
----    ----    ----    ----    
 72
    65
 73
     2
 40
5.0
 49
2.5
 49
-2.5
  0
LTYPE
  2
DASHED3
 70
    64
  3
------  ------  ------  ------  
 72
    65
 73
     2
 40
5.0
 49
3.75
 49
-1.25
  0
LTYPE
  2
CENTER1
 70
    64
  3
----- - ----- - ----- - ----- - 
 72
    65
 73
     4
 40
10.0
 49
6.25
 49
-1.25
 49
1.25
 49
-1.25
  0
LTYPE
  2
CENTER2
 70
    64
  3
----------  --  ----------  --  
 72
    65
 73
     4
 40
20.0
 49
12.5
 49
-2.5
 49
2.5
 49
-2.5
  0
LTYPE
  2
PHANTOM1
 70
    64
  3
--- - - --- - - --- - - --- - - 
 72
    65
 73
     6
 40
10.0
 49
3.25
 49
-1.25
 49
1.25
 49
-1.25
 49
1.25
 49
-1.25
  0
LTYPE
  2
PHANTOM2
 70
    64
  3
--------  -  -  --------  -  -  
 72
    65
 73
     6
 40
20.0
 49
10.0
 49
-2.5
 49
1.25
 49
-2.5
 49
1.25
 49
-2.5
  0
LTYPE
  2
DOT
 70
    64
  3
-   -   -   -   -   -   -   -   
 72
    65
 73
     2
 40
2.5
 49
0.625
 49
-1.875
  0
LTYPE
  2
DUMMY
 70
    64
  3
ダミー
 72
    65
 73
     0
 40
0.0
  0
LTYPE
  2
RAND1
 70
    64
  3
ランダム線1
 72
    65
 73
     4
 40
10.0
 49
1.0
 49
-2.0
 49
3.0
 49
-4.0
  0
LTYPE
  2
RAND2
 70
    64
  3
ランダム線2
 72
    65
 73
     4
 40
14.0
 49
2.0
 49
-3.0
 49
4.0
 49
-5.0
  0
LTYPE
  2
RAND3
 70
    64
  3
ランダム線3
 72
    65
 73
     4
 40
18.0
 49
3.0
 49
-4.0
 49
5.0
 49
-6.0
  0
LTYPE
  2
RAND4
 70
    64
  3
ランダム線4
 72
    65
 73
     4
 40
22.0
 49
4.0
 49
-5.0
 49
6.0
 49
-7.0
  0
LTYPE
  2
RAND5
 70
    64
  3
ランダム線5
 72
    65
 73
     4
 40
26.0
 49
5.0
 49
-6.0
 49
7.0
 49
-8.0
  0
LTYPE
  2
LONG1
 70
    64
  3
----------  --  ----------  --  
 72
    65
 73
     4
 40
40.0
 49
32.5
 49
-2.5
 49
2.5
 49
-2.5
  0
LTYPE
  2
LONG2
 70
    64
  3
--------  -  -  --------  -  -  
 72
    65
 73
     6
 40
40.0
 49
30.0
 49
-2.5
 49
1.25
 49
-2.5
 49
1.25
 49
-2.5
  0
LTYPE
  2
LONG3
 70
    64
  3
+++++++++++++++..+++++++++++++++
 72
    65
 73
     2
 40
40.0
 49
37.5
 49
-2.5
  0
LTYPE
  2
LONG4
 70
    64
  3
+++++++++++++++..+++++++++++++++
 72
    65
 73
     2
 40
80.0
 49
75.0
 49
-5.0
  0
LTYPE
  2
LONG5
 70
    64
  3
----------  --  ----------  --  
 72
    65
 73
     4
 40
60.0
 49
37.5
 49
-7.5
 49
7.5
 49
-7.5
  0
LTYPE
  2
dashed
 70
   64
  3
-------   -------------   ------
 72
   65
 73
    2
 40
7.5
 49
6
 49
-1.5
  0
LTYPE
  2
dashed_spaced
 70
   64
  3
----        --------        ----
 72
   65
 73
    2
 40
12
 49
6
 49
-6
  0
LTYPE
  2
long_dashed_dotted
 70
   64
  3
------------- --- --------------
 72
   65
 73
    4
 40
15.25
 49
12
 49
-1.5
 49
0.25
 49
-1.5
  0
LTYPE
  2
long_dashed_double-dotted
 70
   64
  3
----------- --- --- ------------
 72
   65
 73
    6
 40
17
 49
12
 49
-1.5
 49
0.25
 49
-1.5
 49
0.25
 49
-1.5
  0
LTYPE
  2
long_dashed_triplicate-dotted
 70
   64
  3
--------- --- --- --- ----------
 72
   65
 73
    8
 40
18.75
 49
12
 49
-1.5
 49
0.25
 49
-1.5
 49
0.25
 49
-1.5
 49
0.25
 49
-1.5
  0
LTYPE
  2
dotted
 70
   64
  3
   -       -       -       -    
 72
   65
 73
    2
 40
1.75
 49
0.25
 49
-1.5
  0
LTYPE
  2
chain
 70
   64
  3
-------------- -- --------------
 72
   65
 73
    4
 40
18.5
 49
12
 49
-1.5
 49
3.5
 49
-1.5
  0
LTYPE
  2
chain_double_dash
 70
   64
  3
------------ -- -- -------------
 72
   65
 73
    6
 40
23.5
 49
12
 49
-1.5
 49
3.5
 49
-1.5
 49
3.5
 49
-1.5
  0
LTYPE
  2
dashed_dotted
 70
   64
  3
-----------     -     ----------
 72
   65
 73
    4
 40
9.25
 49
6
 49
-1.5
 49
0.25
 49
-1.5
  0
LTYPE
  2
double-dashed_dotted
 70
   64
  3
------   -----------   -   -----
 72
   65
 73
    6
 40
16.75
 49
6
 49
-1.5
 49
6
 49
-1.5
 49
0.25
 49
-1.5
  0
LTYPE
  2
dashed_double-dotted
 70
   64
  3
---------    -    -    ---------
 72
   65
 73
    6
 40
11
 49
6
 49
-1.5
 49
0.25
 49
-1.5
 49
0.25
 49
-1.5
  0
LTYPE
  2
double-dashed_double-dotted
 70
   64
  3
-----   ---------   -   -   ----
 72
   65
 73
    8
 40
18.5
 49
6
 49
-1.5
 49
6
 49
-1.5
 49
0.25
 49
-1.5
 49
0.25
 49
-1.5
  0
LTYPE
  2
dashed_triplicate-dotted
 70
   64
  3
-------    -    -    -    ------
 72
   65
 73
    8
 40
12.75
 49
6
 49
-1.5
 49
0.25
 49
-1.5
 49
0.25
 49
-1.5
 49
0.25
 49
-1.5
  0
LTYPE
  2
double-dashed_triplicate-dotted
 70
   64
  3
-----  ---------  -  -  -  -----
 72
   65
 73
   10
 40
20.25
 49
6
 49
-1.5
 49
6
 49
-1.5
 49
0.25
 49
-1.5
 49
0.25
 49
-1.5
 49
0.25
 49
-1.5
  0
LTYPE
  2
undefined
 70
   64
  3
--------------------------------
 72
   65
 73
    0
 40
0
  0
LTYPE
  2
_
 70
   64
  3
                                
 72
   65
 73
    0
 40
0
  0
LTYPE
  2
__18
 70
   64
  3
                                
 72
   65
 73
    0
 40
0
  0
LTYPE
  2
__19
 70
   64
  3
                                
 72
   65
 73
    0
 40
0
  0
LTYPE
  2
__20
 70
   64
  3
                                
 72
   65
 73
    0
 40
0
  0
LTYPE
  2
__21
 70
   64
  3
                                
 72
   65
 73
    0
 40
0
  0
LTYPE
  2
__22
 70
   64
  3
                                
 72
   65
 73
    0
 40
0
  0
LTYPE
  2
__23
 70
   64
  3
                                
 72
   65
 73
    0
 40
0
  0
LTYPE
  2
__24
 70
   64
  3
                                
 72
   65
 73
    0
 40
0
  0
LTYPE
  2
__25
 70
   64
  3
                                
 72
   65
 73
    0
 40
0
  0
LTYPE
  2
__26
 70
   64
  3
                                
 72
   65
 73
    0
 40
0
  0
LTYPE
  2
__27
 70
   64
  3
                                
 72
   65
 73
    0
 40
0
  0
LTYPE
  2
__28
 70
   64
  3
                                
 72
   65
 73
    0
 40
0
  0
LTYPE
  2
__29
 70
   64
  3
                                
 72
   65
 73
    0
 40
0
  0
LTYPE
  2
__30
 70
   64
  3
                                
 72
   65
 73
    0
 40
0
  0
LTYPE
  2
__31
 70
   64
  3
                                
 72
   65
 73
    0
 40
0
  0
LTYPE
  2
__32
 70
   64
  3
                                
 72
   65
 73
    0
 40
0
  0
ENDTAB
  0
TABLE
  2
STYLE
  5
3
100
AcDbSymbolTable
 70
     1
  0
STYLE
  5
10
100
AcDbSymbolTableRecord
100
AcDbTextStyleTableRecord
  2
STANDARD
 70
     0
 40
0.0
 41
1.0
 50
0.0
 71
     0
 42
0.2
  3
txt
  4
bigfont.shx
  0
STYLE
  5
26
100
AcDbSymbolTableRecord
100
AcDbTextStyleTableRecord
  2
TATEGAKI
 70
    68
 40
0.0
 41
1.0
 50
0.0
 71
     0
 42
1.0
  3
txt
  4
bigfont.shx
  0
ENDTAB
  0
TABLE
  2
LAYER
 70
    2
  0
LAYER
  2
_1-0_
 70
   64
 62
    7
  6
CONTINUOUS
  0
LAYER
  2
ADD_LINE
 70
   64
 62
    7
  6
CONTINUOUS
  0
ENDTAB
  0
ENDSEC
  0
SECTION
  2
BLOCKS
  0
BLOCK
  2
-000-_None
 70
   64
 10
0
 20
0
 30
0
  0
ENDBLK
  0
BLOCK
  2
-001-_None_1_
 70
   64
 10
0
 20
0
 30
0
  0
ENDBLK
  0
ENDSEC
  0
SECTION
  2
ENTITIES
  0
CIRCLE
  8
_1-0_
  6
CONTINUOUS
 62
    7
 10
101.35888448769333
 20
495.61453256272238
 40
26.850000000000001
  0
CIRCLE
  8
_1-0_
  6
CONTINUOUS
 62
    7
 10
101.35888448769333
 20
495.61453256272238
 40
4.9999999999994999
  0
CIRCLE
  8
_1-0_
  6
CONTINUOUS
 62
    7
 10
95.895189805357858
 20
502.12591032923444
 40
2.5000000000005004
  0
CIRCLE
  8
_1-0_
  6
CONTINUOUS
 62
    7
 10
92.988018587089925
 20
497.09054207289193
 40
2.5000000000005004
  0
CIRCLE
  8
_1-0_
  6
CONTINUOUS
 62
    7
 10
93.997668555525422
 20
491.36453256272295
 40
2.5000000000005004
  0
CIRCLE
  8
_1-0_
  6
CONTINUOUS
 62
    7
 10
98.451713269425397
 20
487.62714528604249
 40
2.5000000000005004
  0
CIRCLE
  8
_1-0_
  6
CONTINUOUS
 62
    7
 10
104.26605570596143
 20
487.62714528604249
 40
2.5000000000005004
  0
CIRCLE
  8
_1-0_
  6
CONTINUOUS
 62
    7
 10
108.72010041986141
 20
491.36453256272295
 40
2.5000000000005004
  0
CIRCLE
  8
_1-0_
  6
CONTINUOUS
 62
    7
 10
109.7297503882969
 20
497.09054207289193
 40
2.5000000000005004
  0
CIRCLE
  8
_1-0_
  6
CONTINUOUS
 62
    7
 10
106.82257917002885
 20
502.12591032923444
 40
2.5000000000005004
  0
CIRCLE
  8
_1-0_
  6
CONTINUOUS
 62
    7
 10
101.35888448769333
 20
504.11453256272295
 40
2.5000000000005004
  0
INSERT
  2
-000-_None
  8
_1-0_
 10
88.891918314028941
 20
488.21015855645589
 41
0.1499999999999999
 42
0.1499999999999999
 50
210.70690126177498
  0
INSERT
  2
-000-_None
  8
_1-0_
 10
106.60991301382688
 20
501.43969279354848
 41
0.1499999999999999
 42
0.1499999999999999
 50
47.967257976598993
  0
INSERT
  2
-000-_None
  8
_1-0_
 10
104.94029247716741
 20
495.13029550872198
 41
0.1499999999999999
 42
0.1499999999999999
 50
135.10664774295298
  0
CIRCLE
  8
_1-0_
  6
CONTINUOUS
 62
    4
 10
101.35888448769333
 20
495.61453256272238
 40
19.133442981194999
  0
CIRCLE
  8
_1-0_
  6
CONTINUOUS
 62
    4
 10
101.35888448769333
 20
495.61453256272238
 40
14.260146210643501
  0
CIRCLE
  8
_1-0_
  6
CONTINUOUS
 62
    4
 10
101.35888448769333
 20
495.61453256272238
 40
12.1000000000005
  0
CIRCLE
  8
_1-0_
  6
CONTINUOUS
 62
    4
 10
101.35888448769333
 20
495.61453256272238
 40
26.237524472827502
  0
INSERT
  2
-000-_None
  8
_1-0_
 10
73.532706924877857
 20
458.43144757819436
 41
0.1499999999999999
 42
0.1499999999999999
 50
227.96725797660207
  0
LINE
  8
_1-0_
  6
CONTINUOUS
 62
    7
 10
75.121360014865842
 20
452.85026219136835
 11
127.59640896052241
 21
452.85026219136835
  0
LINE
  8
_1-0_
  6
CONTINUOUS
 62
    7
 10
147.95493317583827
 20
452.85026219136835
 11
148.73139031114584
 21
449.95248471250113
  0
LINE
  8
_1-0_
  6
CONTINUOUS
 62
    7
 10
147.95493317583827
 20
452.85026219136835
 11
147.17847604053071
 21
449.95248471250113
  0
LINE
  8
_1-0_
  6
CONTINUOUS
 62
    4
 10
147.95493317583827
 20
452.85026219136835
 11
131.51217953690934
 21
452.85026219136835
  0
LINE
  8
_1-0_
  6
CONTINUOUS
 62
    7
 10
136.70462805446584
 20
435.85079511730884
 11
137.4810851897734
 21
432.95301763844167
  0
LINE
  8
_1-0_
  6
CONTINUOUS
 62
    7
 10
136.70462805446584
 20
435.85079511730884
 11
135.92817091915827
 21
432.95301763844167
  0
LINE
  8
_1-0_
  6
CONTINUOUS
 62
    4
 10
136.70462805446584
 20
435.85079511730884
 11
126.31973101935278
 21
435.85079511730884
  0
CIRCLE
  8
_1-0_
  6
CONTINUOUS
 62
    7
 10
227.64554962860401
 20
495.61453256272238
 40
24.5
  0
CIRCLE
  8
_1-0_
  6
CONTINUOUS
 62
    4
 10
227.64554962860401
 20
495.61453256272238
 40
17
  0
CIRCLE
  8
_1-0_
  6
CONTINUOUS
 62
    7
 10
227.64554962860401
 20
495.61453256272238
 40
15
  0
ARC
  8
_1-0_
  6
CONTINUOUS
 62
    4
 10
217.83059505238043
 20
512.61453256272238
 40
2
 50
90
 51
149.99999999999994
  0
LINE
  8
_1-0_
  6
CONTINUOUS
 62
    4
 10
237.46050420482768
 20
514.61453256272238
 11
217.83059505238043
 21
514.61453256272238
  0
ARC
  8
_1-0_
  6
CONTINUOUS
 62
    4
 10
237.46050420482768
 20
512.61453256272238
 40
2
 50
29.999999999999864
 51
90
  0
LINE
  8
_1-0_
  6
CONTINUOUS
 62
    4
 10
249.00750958862022
 20
496.61453256272238
 11
239.19255501239658
 21
513.61453256272238
  0
ARC
  8
_1-0_
  6
CONTINUOUS
 62
    4
 10
247.27545878105132
 20
495.61453256272238
 40
2
 50
329.99999999999994
 51
29.999999999999875
  0
LINE
  8
_1-0_
  6
CONTINUOUS
 62
    4
 10
239.19255501239652
 20
477.61453256272238
 11
249.00750958862022
 21
494.61453256272238
  0
ARC
  8
_1-0_
  6
CONTINUOUS
 62
    4
 10
237.46050420482768
 20
478.61453256272238
 40
2
 50
270
 51
329.99999999999994
  0
LINE
  8
_1-0_
  6
CONTINUOUS
 62
    4
 10
217.83059505238043
 20
476.61453256272238
 11
237.46050420482768
 21
476.61453256272238
  0
ARC
  8
_1-0_
  6
CONTINUOUS
 62
    4
 10
217.83059505238043
 20
478.61453256272238
 40
2
 50
209.99999999999997
 51
270
  0
LINE
  8
_1-0_
  6
CONTINUOUS
 62
    4
 10
206.28358966858789
 20
496.6145325627225
 11
216.09854424481153
 21
513.61453256272238
  0
LINE
  8
_1-0_
  6
CONTINUOUS
 62
    4
 10
206.28358966858789
 20
494.6145325627225
 11
216.09854424481153
 21
477.61453256272238
  0
ARC
  8
_1-0_
  6
CONTINUOUS
 62
    4
 10
208.01564047615673
 20
495.6145325627225
 40
2
 50
149.99999999999994
 51
209.99999999999997
  0
LINE
  8
_1-0_
  6
CENTER1
 62
    4
 10
183.21481746041825
 20
495.61453256272238
 11
267.62247711866473
 21
495.61453256272238
  0
LINE
  8
_1-0_
  6
CONTINUOUS
 62
    7
 10
203.14554962860401
 20
446.18447856237128
 11
252.14554962860401
 21
446.18447856237128
  0
LINE
  8
_1-0_
  6
CONTINUOUS
 62
    7
 10
203.14554962860401
 20
446.18447856237128
 11
203.14554962860401
 21
443.68447856237128
  0
LINE
  8
_1-0_
  6
CONTINUOUS
 62
    7
 10
203.14554962860401
 20
443.68447856237128
 11
252.14554962860401
 21
443.68447856237128
  0
LINE
  8
_1-0_
  6
CONTINUOUS
 62
    7
 10
252.14554962860401
 20
446.18447856237128
 11
252.14554962860401
 21
443.68447856237128
  0
LINE
  8
_1-0_
  6
CONTINUOUS
 62
    7
 10
208.64554962860401
 20
443.68447856237128
 11
208.64554962860401
 21
437.7844785623713
  0
LINE
  8
_1-0_
  6
CONTINUOUS
 62
    7
 10
208.64554962860401
 20
437.7844785623713
 11
246.64554962860401
 21
437.7844785623713
  0
LINE
  8
_1-0_
  6
CONTINUOUS
 62
    7
 10
246.64554962860401
 20
443.68447856237128
 11
246.64554962860401
 21
437.7844785623713
  0
LINE
  8
_1-0_
  6
CONTINUOUS
 62
    4
 10
227.64554962860401
 20
443.68447856237128
 11
227.64554962860401
 21
437.7844785623713
  0
LINE
  8
_1-0_
  6
CONTINUOUS
 62
    7
 10
190.1455496286041
 20
416.86480011794174
 11
190.1455496286041
 21
409.86480011794174
  0
LINE
  8
_1-0_
  6
CONTINUOUS
 62
    7
 10
265.1455496286041
 20
416.86480011794174
 11
190.1455496286041
 21
416.86480011794174
  0
LINE
  8
_1-0_
  6
CONTINUOUS
 62
    7
 10
265.1455496286041
 20
409.86480011794174
 11
265.1455496286041
 21
416.86480011794174
  0
LINE
  8
_1-0_
  6
CONTINUOUS
 62
    7
 10
190.1455496286041
 20
409.86480011794174
 11
265.1455496286041
 21
409.86480011794174
  0
LINE
  8
_1-0_
  6
CONTINUOUS
 62
    4
 10
187.44475844796869
 20
451.18447856237128
 11
187.44475844796869
 21
432.7844785623713
  0
LINE
  8
_1-0_
  6
CONTINUOUS
 62
    7
 10
187.44475844796869
 20
437.7844785623713
 11
188.22121558327626
 21
434.88670108350402
  0
LINE
  8
_1-0_
  6
CONTINUOUS
 62
    7
 10
187.44475844796869
 20
437.7844785623713
 11
186.66830131266112
 21
434.88670108350402
  0
LINE
  8
_1-0_
  6
CONTINUOUS
 62
    7
 10
187.44475844796869
 20
446.18447856237128
 11
186.66830131266112
 21
449.08225604123845
  0
LINE
  8
_1-0_
  6
CONTINUOUS
 62
    7
 10
187.44475844796869
 20
446.18447856237128
 11
188.22121558327626
 21
449.08225604123845
  0
LINE
  8
_1-0_
  6
CONTINUOUS
 62
    4
 10
187.44475844796869
 20
437.7844785623713
 11
198.19134106721639
 21
437.7844785623713
  0
LINE
  8
_1-0_
  6
CONTINUOUS
 62
    4
 10
187.44475844796869
 20
446.18447856237128
 11
198.19134106721639
 21
446.18447856237128
  0
LINE
  8
_1-0_
  6
CONTINUOUS
 62
    4
 10
263.61906466087168
 20
451.18447856237128
 11
263.61906466087168
 21
438.68447856237128
  0
LINE
  8
_1-0_
  6
CONTINUOUS
 62
    7
 10
263.61906466087168
 20
443.68447856237128
 11
264.39552179617925
 21
440.78670108350416
  0
LINE
  8
_1-0_
  6
CONTINUOUS
 62
    7
 10
263.61906466087168
 20
443.68447856237128
 11
262.84260752556406
 21
440.78670108350416
  0
LINE
  8
_1-0_
  6
CONTINUOUS
 62
    7
 10
263.61906466087168
 20
446.18447856237128
 11
262.84260752556406
 21
449.08225604123845
  0
LINE
  8
_1-0_
  6
CONTINUOUS
 62
    7
 10
263.61906466087168
 20
446.18447856237128
 11
264.39552179617925
 21
449.08225604123845
  0
LINE
  8
_1-0_
  6
CONTINUOUS
 62
    4
 10
263.61906466087168
 20
443.68447856237128
 11
256.66539355429961
 21
443.68447856237128
  0
LINE
  8
_1-0_
  6
CONTINUOUS
 62
    4
 10
263.61906466087168
 20
446.18447856237128
 11
256.66539355429961
 21
446.18447856237128
  0
TEXT
  8
_1-0_
 62
    7
 10
191.6455496286041
 20
411.36480011794174
 40
4
 41
1
 50
0
  1
排水口パイプ用ナット（座付きナット）
  0
TEXT
  8
_1-0_
 62
    7
 10
186.44475844796869
 20
438.23447856237123
 40
5
 41
1
 50
90
  1
8.4
  0
TEXT
  8
_1-0_
 62
    7
 10
262.61906466087168
 20
447.43447856237128
 40
5
 41
1.0000000000000037
 50
90
  1
2.5
  0
CIRCLE
  8
_1-0_
  6
CONTINUOUS
 62
    7
 10
344.5465354974595
 20
495.61453256272238
 40
25
  0
CIRCLE
  8
_1-0_
  6
CONTINUOUS
 62
    7
 10
344.5465354974595
 20
495.61453256272238
 40
18
  0
CIRCLE
  8
_1-0_
  6
CONTINUOUS
 62
    7
 10
443.35160169907487
 20
495.61453256272238
 40
26
  0
CIRCLE
  8
_1-0_
  6
CONTINUOUS
 62
    7
 10
443.35160169907487
 20
495.61453256272238
 40
15.75
  0
CIRCLE
  8
_1-0_
  6
CONTINUOUS
 62
    7
 10
542.15666790069008
 20
495.61453256272238
 40
25
  0
CIRCLE
  8
_1-0_
  6
CONTINUOUS
 62
    7
 10
542.15666790069008
 20
495.61453256272238
 40
17.5
  0
LINE
  8
_1-0_
  6
CONTINUOUS
 62
    4
 10
331.81861343610165
 20
508.34245462408017
 11
357.27445755881734
 21
482.88661050136454
  0
LINE
  8
_1-0_
  6
CONTINUOUS
 62
    7
 10
331.81861343610165
 20
508.34245462408017
 11
334.41668964745502
 21
506.84245462408017
  0
LINE
  8
_1-0_
  6
CONTINUOUS
 62
    7
 10
331.81861343610165
 20
508.34245462408017
 11
333.31861343610165
 21
505.74437841272703
  0
LINE
  8
_1-0_
  6
CONTINUOUS
 62
    7
 10
357.27445755881734
 20
482.88661050136454
 11
354.67638134746408
 21
484.38661050136454
  0
LINE
  8
_1-0_
  6
CONTINUOUS
 62
    7
 10
357.27445755881734
 20
482.88661050136454
 11
355.77445755881734
 21
485.48468671271791
  0
LINE
  8
_1-0_
  6
CONTINUOUS
 62
    4
 10
432.21466989538674
 20
506.75146436641063
 11
454.48853350276306
 21
484.47760075903431
  0
LINE
  8
_1-0_
  6
CONTINUOUS
 62
    7
 10
432.21466989538674
 20
506.75146436641063
 11
434.81274610674006
 21
505.25146436641063
  0
LINE
  8
_1-0_
  6
CONTINUOUS
 62
    7
 10
432.21466989538674
 20
506.75146436641063
 11
433.71466989538674
 21
504.1533881550572
  0
LINE
  8
_1-0_
  6
CONTINUOUS
 62
    7
 10
454.48853350276306
 20
484.47760075903431
 11
451.89045729140968
 21
485.97760075903431
  0
LINE
  8
_1-0_
  6
CONTINUOUS
 62
    7
 10
454.48853350276306
 20
484.47760075903431
 11
452.98853350276306
 21
487.07567697038757
  0
LINE
  8
_1-0_
  6
CONTINUOUS
 62
    4
 10
529.78229922992545
 20
507.98890123348701
 11
554.5310365714547
 21
483.24016389195787
  0
LINE
  8
_1-0_
  6
CONTINUOUS
 62
    7
 10
529.78229922992545
 20
507.98890123348701
 11
532.38037544127882
 21
506.48890123348701
  0
LINE
  8
_1-0_
  6
CONTINUOUS
 62
    7
 10
529.78229922992545
 20
507.98890123348701
 11
531.28229922992545
 21
505.39082502213369
  0
LINE
  8
_1-0_
  6
CONTINUOUS
 62
    7
 10
554.5310365714547
 20
483.24016389195787
 11
551.93296036010133
 21
484.74016389195787
  0
LINE
  8
_1-0_
  6
CONTINUOUS
 62
    7
 10
554.5310365714547
 20
483.24016389195787
 11
553.0310365714547
 21
485.83824010331119
  0
LINE
  8
_1-0_
  6
CONTINUOUS
 62
    4
 10
554.5310365714547
 20
483.24016389195787
 11
565.36241577444275
 21
472.40878468896971
  0
LINE
  8
_1-0_
  6
CONTINUOUS
 62
    4
 10
357.27445755881734
 20
482.88661050136454
 11
367.57913401314959
 21
472.5819340470324
  0
LINE
  8
_1-0_
  6
CONTINUOUS
 62
    4
 10
454.48853350276306
 20
484.47760075903431
 11
470.96667453369093
 21
467.99945972810644
  0
LINE
  8
_1-0_
  6
CONTINUOUS
 62
    7
 10
369.5465354974595
 20
446.18447856237128
 11
369.5465354974595
 21
440.18447856237128
  0
LINE
  8
_1-0_
  6
CONTINUOUS
 62
    7
 10
319.5465354974595
 20
446.18447856237128
 11
319.5465354974595
 21
440.18447856237128
  0
LINE
  8
_1-0_
  6
CONTINUOUS
 62
    7
 10
369.5465354974595
 20
446.18447856237128
 11
319.5465354974595
 21
446.18447856237128
  0
LINE
  8
_1-0_
  6
CONTINUOUS
 62
    7
 10
319.5465354974595
 20
440.18447856237128
 11
369.5465354974595
 21
440.18447856237128
  0
LINE
  8
_1-0_
  6
CONTINUOUS
 62
    7
 10
469.35160169907487
 20
440.18447856237128
 11
469.35160169907487
 21
441.68447856237128
  0
LINE
  8
_1-0_
  6
CONTINUOUS
 62
    7
 10
459.10160169907487
 20
447.68447856237128
 11
427.60160169907493
 21
447.68447856237128
  0
LINE
  8
_1-0_
  6
CONTINUOUS
 62
    7
 10
417.35160169907493
 20
441.68447856237128
 11
417.35160169907493
 21
440.18447856237128
  0
LINE
  8
_1-0_
  6
CONTINUOUS
 62
    7
 10
417.35160169907493
 20
440.18447856237128
 11
469.35160169907487
 21
440.18447856237128
  0
LINE
  8
_1-0_
  6
CONTINUOUS
 62
    7
 10
427.60160169907493
 20
447.68447856237128
 11
417.35160169907493
 21
441.68447856237128
  0
LINE
  8
_1-0_
  6
CONTINUOUS
 62
    7
 10
459.10160169907487
 20
447.68447856237128
 11
469.35160169907487
 21
441.68447856237128
  0
LINE
  8
_1-0_
  6
CONTINUOUS
 62
    4
 10
417.35160169907493
 20
441.68447856237128
 11
469.35160169907487
 21
441.68447856237128
  0
LINE
  8
_1-0_
  6
CONTINUOUS
 62
    7
 10
517.15666790069008
 20
440.68447856237128
 11
517.15666790069008
 21
440.18447856237128
  0
LINE
  8
_1-0_
  6
CONTINUOUS
 62
    7
 10
517.15666790069008
 20
440.18447856237128
 11
567.15666790069008
 21
440.18447856237128
  0
LINE
  8
_1-0_
  6
CONTINUOUS
 62
    7
 10
567.15666790069008
 20
440.18447856237128
 11
567.15666790069008
 21
440.68447856237128
  0
LINE
  8
_1-0_
  6
CONTINUOUS
 62
    7
 10
517.15666790069008
 20
440.68447856237128
 11
567.15666790069008
 21
440.68447856237128
  0
LINE
  8
_1-0_
  6
CONTINUOUS
 62
    4
 10
307.91972835320626
 20
440.18447856237128
 11
307.91972835320626
 21
435.18447856237128
  0
LINE
  8
_1-0_
  6
CONTINUOUS
 62
    4
 10
307.91972835320626
 20
446.18447856237128
 11
307.91972835320626
 21
451.18447856237128
  0
LINE
  8
_1-0_
  6
CONTINUOUS
 62
    4
 10
307.91972835320626
 20
440.18447856237128
 11
307.91972835320626
 21
446.18447856237128
  0
LINE
  8
_1-0_
  6
CONTINUOUS
 62
    7
 10
307.91972835320626
 20
440.18447856237128
 11
308.69618548851389
 21
437.28670108350416
  0
LINE
  8
_1-0_
  6
CONTINUOUS
 62
    7
 10
307.91972835320626
 20
440.18447856237128
 11
307.14327121789875
 21
437.28670108350416
  0
LINE
  8
_1-0_
  6
CONTINUOUS
 62
    7
 10
307.91972835320626
 20
446.18447856237128
 11
307.14327121789875
 21
449.08225604123856
  0
LINE
  8
_1-0_
  6
CONTINUOUS
 62
    7
 10
307.91972835320626
 20
446.18447856237128
 11
308.69618548851389
 21
449.08225604123856
  0
LINE
  8
_1-0_
  6
CONTINUOUS
 62
    4
 10
307.91972835320626
 20
440.18447856237128
 11
315.01648436038993
 21
440.18447856237128
  0
LINE
  8
_1-0_
  6
CONTINUOUS
 62
    4
 10
307.91972835320626
 20
446.18447856237128
 11
315.01648436038993
 21
446.18447856237128
  0
LINE
  8
_1-0_
  6
CONTINUOUS
 62
    4
 10
406.70524307295318
 20
440.18447856237128
 11
406.70524307295318
 21
435.18447856237128
  0
LINE
  8
_1-0_
  6
CONTINUOUS
 62
    4
 10
406.70524307295318
 20
447.68447856237128
 11
406.70524307295318
 21
452.68447856237128
  0
LINE
  8
_1-0_
  6
CONTINUOUS
 62
    4
 10
406.70524307295318
 20
440.18447856237128
 11
406.70524307295318
 21
447.68447856237128
  0
LINE
  8
_1-0_
  6
CONTINUOUS
 62
    7
 10
406.70524307295318
 20
440.18447856237128
 11
407.48170020826074
 21
437.28670108350416
  0
LINE
  8
_1-0_
  6
CONTINUOUS
 62
    7
 10
406.70524307295318
 20
440.18447856237128
 11
405.92878593764555
 21
437.28670108350416
  0
LINE
  8
_1-0_
  6
CONTINUOUS
 62
    7
 10
406.70524307295318
 20
447.68447856237128
 11
405.92878593764555
 21
450.58225604123856
  0
LINE
  8
_1-0_
  6
CONTINUOUS
 62
    7
 10
406.70524307295318
 20
447.68447856237128
 11
407.48170020826074
 21
450.58225604123856
  0
LINE
  8
_1-0_
  6
CONTINUOUS
 62
    4
 10
406.70524307295318
 20
440.18447856237128
 11
413.80596434700885
 21
440.18447856237128
  0
LINE
  8
_1-0_
  6
CONTINUOUS
 62
    4
 10
406.70524307295318
 20
447.68447856237128
 11
413.80596434700885
 21
447.68447856237128
  0
LINE
  8
_1-0_
  6
CONTINUOUS
 62
    4
 10
508.52236507042891
 20
440.18447856237128
 11
508.52236507042891
 21
435.18447856237128
  0
LINE
  8
_1-0_
  6
CONTINUOUS
 62
    4
 10
508.52236507042891
 20
440.68447856237128
 11
508.52236507042891
 21
445.68447856237128
  0
LINE
  8
_1-0_
  6
CONTINUOUS
 62
    4
 10
508.52236507042891
 20
440.18447856237128
 11
508.52236507042891
 21
440.68447856237128
  0
LINE
  8
_1-0_
  6
CONTINUOUS
 62
    7
 10
508.52236507042891
 20
440.18447856237128
 11
509.29882220573665
 21
437.28670108350416
  0
LINE
  8
_1-0_
  6
CONTINUOUS
 62
    7
 10
508.52236507042891
 20
440.18447856237128
 11
507.7459079351214
 21
437.28670108350416
  0
LINE
  8
_1-0_
  6
CONTINUOUS
 62
    7
 10
508.52236507042891
 20
440.68447856237128
 11
507.7459079351214
 21
443.58225604123856
  0
LINE
  8
_1-0_
  6
CONTINUOUS
 62
    7
 10
508.52236507042891
 20
440.68447856237128
 11
509.29882220573665
 21
443.58225604123856
  0
LINE
  8
_1-0_
  6
CONTINUOUS
 62
    4
 10
508.52236507042891
 20
440.18447856237128
 11
513.57711580789214
 21
440.18447856237128
  0
LINE
  8
_1-0_
  6
CONTINUOUS
 62
    4
 10
508.52236507042891
 20
440.68447856237128
 11
513.57711580789214
 21
440.68447856237128
  0
LINE
  8
_1-0_
  6
DASHED2
 62
    4
 10
326.5465354974595
 20
446.18447856237128
 11
326.5465354974595
 21
440.18447856237128
  0
LINE
  8
_1-0_
  6
DASHED2
 62
    4
 10
362.5465354974595
 20
446.18447856237128
 11
362.5465354974595
 21
440.18447856237128
  0
LINE
  8
_1-0_
  6
DASHED2
 62
    4
 10
427.60160169907493
 20
447.68447856237128
 11
427.60160169907493
 21
440.18447856237128
  0
LINE
  8
_1-0_
  6
DASHED2
 62
    4
 10
459.10160169907487
 20
447.68447856237128
 11
459.10160169907487
 21
440.18447856237128
  0
LINE
  8
_1-0_
  6
DASHED2
 62
    4
 10
524.65666790069008
 20
440.68447856237128
 11
524.65666790069008
 21
440.18447856237128
  0
LINE
  8
_1-0_
  6
DASHED2
 62
    4
 10
559.65666790069008
 20
440.68447856237128
 11
559.65666790069008
 21
440.18447856237128
  0
LINE
  8
_1-0_
  6
CONTINUOUS
 62
    7
 10
322.0465354974595
 20
416.86480011794174
 11
322.0465354974595
 21
409.86480011794174
  0
LINE
  8
_1-0_
  6
CONTINUOUS
 62
    7
 10
322.0465354974595
 20
409.86480011794174
 11
367.0465354974595
 21
409.86480011794174
  0
LINE
  8
_1-0_
  6
CONTINUOUS
 62
    7
 10
367.0465354974595
 20
409.86480011794174
 11
367.0465354974595
 21
416.86480011794174
  0
LINE
  8
_1-0_
  6
CONTINUOUS
 62
    7
 10
367.0465354974595
 20
416.86480011794174
 11
322.0465354974595
 21
416.86480011794174
  0
LINE
  8
_1-0_
  6
CONTINUOUS
 62
    7
 10
420.85160169907493
 20
416.86480011794174
 11
420.85160169907493
 21
409.86480011794174
  0
LINE
  8
_1-0_
  6
CONTINUOUS
 62
    7
 10
420.85160169907493
 20
409.86480011794174
 11
465.85160169907487
 21
409.86480011794174
  0
LINE
  8
_1-0_
  6
CONTINUOUS
 62
    7
 10
465.85160169907487
 20
409.86480011794174
 11
465.85160169907487
 21
416.86480011794174
  0
LINE
  8
_1-0_
  6
CONTINUOUS
 62
    7
 10
465.85160169907487
 20
416.86480011794174
 11
420.85160169907493
 21
416.86480011794174
  0
LINE
  8
_1-0_
  6
CONTINUOUS
 62
    7
 10
519.65666790069008
 20
416.86480011794174
 11
519.65666790069008
 21
409.86480011794174
  0
LINE
  8
_1-0_
  6
CONTINUOUS
 62
    7
 10
519.65666790069008
 20
409.86480011794174
 11
564.65666790069008
 21
409.86480011794174
  0
LINE
  8
_1-0_
  6
CONTINUOUS
 62
    7
 10
564.65666790069008
 20
409.86480011794174
 11
564.65666790069008
 21
416.86480011794174
  0
LINE
  8
_1-0_
  6
CONTINUOUS
 62
    7
 10
564.65666790069008
 20
416.86480011794174
 11
519.65666790069008
 21
416.86480011794174
  0
TEXT
  8
_1-0_
 62
    7
 10
328.5465354974595
 20
411.36480011794174
 40
4
 41
1
 50
0
  1
スポンジパッキン
  0
TEXT
  8
_1-0_
 62
    7
 10
431.35160169907487
 20
411.36480011794174
 40
4
 41
1
 50
0
  1
三角パッキン
  0
TEXT
  8
_1-0_
 62
    7
 10
526.15666790069008
 20
411.36480011794174
 40
4
 41
1
 50
0
  1
スリップパッキン
  0
CIRCLE
  8
_1-0_
  6
CONTINUOUS
 62
    7
 10
736.83743055504896
 20
495.61453256272238
 40
31.75
  0
CIRCLE
  8
_1-0_
  6
CONTINUOUS
 62
    7
 10
736.83743055504896
 20
495.61453256272238
 40
29.75
  0
CIRCLE
  8
_1-0_
  6
CONTINUOUS
 62
    7
 10
648.60513475359766
 20
495.61453256272238
 40
26.75
  0
CIRCLE
  8
_1-0_
  6
CONTINUOUS
 62
    7
 10
648.60513475359766
 20
495.61453256272238
 40
24.75
  0
LINE
  8
_1-0_
  6
CONTINUOUS
 62
    4
 10
128.20888521757029
 20
541.44631880283668
 11
74.508884454630845
 21
541.44631880283668
  0
LINE
  8
_1-0_
  6
CONTINUOUS
 62
    7
 10
128.20888521757029
 20
541.44631880283668
 11
125.31110773870318
 21
540.66986166752906
  0
LINE
  8
_1-0_
  6
CONTINUOUS
 62
    7
 10
128.20888521757029
 20
541.44631880283668
 11
125.31110773870318
 21
542.22277593814419
  0
LINE
  8
_1-0_
  6
CONTINUOUS
 62
    7
 10
74.508884454630845
 20
541.44631880283668
 11
77.406661933498071
 21
542.22277593814419
  0
LINE
  8
_1-0_
  6
CONTINUOUS
 62
    7
 10
74.508884454630845
 20
541.44631880283668
 11
77.406661933498071
 21
540.66986166752906
  0
LINE
  8
_1-0_
  6
CONTINUOUS
 62
    4
 10
128.20888521757029
 20
514.65469792882458
 11
128.20888521757029
 21
541.44631880283668
  0
LINE
  8
_1-0_
  6
CONTINUOUS
 62
    4
 10
74.508884454630845
 20
514.65469792882458
 11
74.508884454630845
 21
541.44631880283668
  0
TEXT
  8
_1-0_
 62
    7
 10
93.858884836100571
 20
542.44631880283668
 40
5
 41
1
 50
0
  1
φ53.7
  0
LINE
  8
_1-0_
  6
CONTINUOUS
 62
    4
 10
252.14554797682228
 20
541.44631880283668
 11
203.14554797682228
 21
541.44631880283668
  0
LINE
  8
_1-0_
  6
CONTINUOUS
 62
    7
 10
252.14554797682228
 20
541.44631880283668
 11
249.24777049795511
 21
540.66986166752917
  0
LINE
  8
_1-0_
  6
CONTINUOUS
 62
    7
 10
252.14554797682228
 20
541.44631880283668
 11
249.24777049795511
 21
542.22277593814442
  0
LINE
  8
_1-0_
  6
CONTINUOUS
 62
    7
 10
203.14554797682228
 20
541.44631880283668
 11
206.04332545568948
 21
542.22277593814442
  0
LINE
  8
_1-0_
  6
CONTINUOUS
 62
    7
 10
203.14554797682228
 20
541.44631880283668
 11
206.04332545568948
 21
540.66986166752917
  0
LINE
  8
_1-0_
  6
CONTINUOUS
 62
    4
 10
252.14554797682228
 20
509.30370572603334
 11
252.14554797682228
 21
541.44631880283668
  0
LINE
  8
_1-0_
  6
CONTINUOUS
 62
    4
 10
203.14554797682228
 20
509.30370572603334
 11
203.14554797682228
 21
541.44631880283668
  0
TEXT
  8
_1-0_
 62
    7
 10
222.64554797682228
 20
542.44631880283668
 40
5
 41
1
 50
0
  1
φ49
  0
LINE
  8
_1-0_
  6
CONTINUOUS
 62
    4
 10
319.54653639760766
 20
541.44631880283668
 11
369.54653639760766
 21
541.44631880283668
  0
LINE
  8
_1-0_
  6
CONTINUOUS
 62
    7
 10
319.54653639760766
 20
541.44631880283668
 11
322.44431387647483
 21
542.22277593814442
  0
LINE
  8
_1-0_
  6
CONTINUOUS
 62
    7
 10
319.54653639760766
 20
541.44631880283668
 11
322.44431387647483
 21
540.66986166752917
  0
LINE
  8
_1-0_
  6
CONTINUOUS
 62
    7
 10
369.54653639760766
 20
541.44631880283668
 11
366.64875891874038
 21
540.66986166752917
  0
LINE
  8
_1-0_
  6
CONTINUOUS
 62
    7
 10
369.54653639760766
 20
541.44631880283668
 11
366.64875891874038
 21
542.22277593814442
  0
LINE
  8
_1-0_
  6
CONTINUOUS
 62
    4
 10
319.54653639760766
 20
508.63630745368527
 11
319.54653639760766
 21
541.44631880283668
  0
LINE
  8
_1-0_
  6
CONTINUOUS
 62
    4
 10
369.54653639760766
 20
508.63630745368527
 11
369.54653639760766
 21
541.44631880283668
  0
LINE
  8
_1-0_
  6
CONTINUOUS
 62
    4
 10
469.3516015526369
 20
541.44631880283668
 11
417.3516015526369
 21
541.44631880283668
  0
LINE
  8
_1-0_
  6
CONTINUOUS
 62
    7
 10
469.3516015526369
 20
541.44631880283668
 11
466.45382407376973
 21
540.66986166752917
  0
LINE
  8
_1-0_
  6
CONTINUOUS
 62
    7
 10
469.3516015526369
 20
541.44631880283668
 11
466.45382407376973
 21
542.22277593814442
  0
LINE
  8
_1-0_
  6
CONTINUOUS
 62
    7
 10
417.3516015526369
 20
541.44631880283668
 11
420.24937903150413
 21
542.22277593814442
  0
LINE
  8
_1-0_
  6
CONTINUOUS
 62
    7
 10
417.3516015526369
 20
541.44631880283668
 11
420.24937903150413
 21
540.66986166752917
  0
LINE
  8
_1-0_
  6
CONTINUOUS
 62
    4
 10
469.3516015526369
 20
508.63630745368527
 11
469.3516015526369
 21
541.44631880283668
  0
LINE
  8
_1-0_
  6
CONTINUOUS
 62
    4
 10
417.3516015526369
 20
508.63630745368527
 11
417.3516015526369
 21
541.44631880283668
  0
LINE
  8
_1-0_
  6
CONTINUOUS
 62
    4
 10
567.15666670766609
 20
541.44631880283668
 11
517.15666670766609
 21
541.44631880283668
  0
LINE
  8
_1-0_
  6
CONTINUOUS
 62
    7
 10
567.15666670766609
 20
541.44631880283668
 11
564.2588892287988
 21
540.66986166752917
  0
LINE
  8
_1-0_
  6
CONTINUOUS
 62
    7
 10
567.15666670766609
 20
541.44631880283668
 11
564.2588892287988
 21
542.22277593814442
  0
LINE
  8
_1-0_
  6
CONTINUOUS
 62
    7
 10
517.15666670766609
 20
541.44631880283668
 11
520.05444418653337
 21
542.22277593814442
  0
LINE
  8
_1-0_
  6
CONTINUOUS
 62
    7
 10
517.15666670766609
 20
541.44631880283668
 11
520.05444418653337
 21
540.66986166752917
  0
LINE
  8
_1-0_
  6
CONTINUOUS
 62
    4
 10
567.15666670766609
 20
508.63630745368527
 11
567.15666670766609
 21
541.44631880283668
  0
LINE
  8
_1-0_
  6
CONTINUOUS
 62
    4
 10
517.15666670766609
 20
508.63630745368527
 11
517.15666670766609
 21
541.44631880283668
  0
TEXT
  8
_1-0_
 62
    7
 10
339.54653639760766
 20
542.44631880283668
 40
5
 41
1.0000000000000013
 50
0
  1
φ50
  0
TEXT
  8
_1-0_
 62
    7
 10
438.3516015526369
 20
542.44631880283668
 40
5
 41
1
 50
0
  1
φ52
  0
TEXT
  8
_1-0_
 62
    7
 10
537.15666670766609
 20
542.44631880283668
 40
5
 41
1
 50
0
  1
φ50
  0
LINE
  8
_1-0_
  6
CONTINUOUS
 62
    4
 10
621.85513401504908
 20
541.44631880283668
 11
675.35513401504908
 21
541.44631880283668
  0
TEXT
  8
_1-0_
 62
    7
 10
641.10513401504908
 20
542.44631880283668
 40
5
 41
1
 50
0
  1
φ53.5
  0
LINE
  8
_1-0_
  6
CONTINUOUS
 62
    7
 10
621.85513401504908
 20
541.44631880283668
 11
624.75291149391637
 21
542.22277593814419
  0
LINE
  8
_1-0_
  6
CONTINUOUS
 62
    7
 10
621.85513401504908
 20
541.44631880283668
 11
624.75291149391637
 21
540.66986166752917
  0
LINE
  8
_1-0_
  6
CONTINUOUS
 62
    7
 10
675.35513401504908
 20
541.44631880283668
 11
672.45735653618203
 21
540.66986166752917
  0
LINE
  8
_1-0_
  6
CONTINUOUS
 62
    7
 10
675.35513401504908
 20
541.44631880283668
 11
672.45735653618203
 21
542.22277593814419
  0
LINE
  8
_1-0_
  6
CONTINUOUS
 62
    4
 10
621.85513401504908
 20
508.63630745368527
 11
621.85513401504908
 21
541.44631880283668
  0
LINE
  8
_1-0_
  6
CONTINUOUS
 62
    4
 10
675.35513401504908
 20
508.63630745368527
 11
675.35513401504908
 21
541.44631880283668
  0
LINE
  8
_1-0_
  6
CONTINUOUS
 62
    4
 10
768.58743381973658
 20
541.44631880283668
 11
705.08743381973658
 21
541.44631880283668
  0
TEXT
  8
_1-0_
 62
    7
 10
729.33743381973658
 20
542.44631880283668
 40
5
 41
1
 50
0
  1
φ63.5
  0
LINE
  8
_1-0_
  6
CONTINUOUS
 62
    7
 10
768.58743381973658
 20
541.44631880283668
 11
765.68965634086953
 21
540.66986166752917
  0
LINE
  8
_1-0_
  6
CONTINUOUS
 62
    7
 10
768.58743381973658
 20
541.44631880283668
 11
765.68965634086953
 21
542.22277593814419
  0
LINE
  8
_1-0_
  6
CONTINUOUS
 62
    7
 10
705.08743381973658
 20
541.44631880283668
 11
707.98521129860387
 21
542.22277593814419
  0
LINE
  8
_1-0_
  6
CONTINUOUS
 62
    7
 10
705.08743381973658
 20
541.44631880283668
 11
707.98521129860387
 21
540.66986166752917
  0
LINE
  8
_1-0_
  6
CONTINUOUS
 62
    4
 10
768.58743381973658
 20
508.63630745368527
 11
768.58743381973658
 21
541.44631880283668
  0
LINE
  8
_1-0_
  6
CONTINUOUS
 62
    4
 10
705.08743381973658
 20
508.63630745368527
 11
705.08743381973658
 21
541.44631880283668
  0
LINE
  8
_1-0_
  6
CENTER1
 62
    4
 10
227.64554962860401
 20
530.63802340424001
 11
227.64554962860401
 21
426.67229208113826
  0
LINE
  8
_1-0_
  6
CENTER1
 62
    4
 10
344.5465354974595
 20
528.56308291539107
 11
344.5465354974595
 21
426.67229208113826
  0
LINE
  8
_1-0_
  6
CENTER1
 62
    4
 10
443.35160169907487
 20
528.56308291539107
 11
443.35160169907487
 21
426.67229208113826
  0
LINE
  8
_1-0_
  6
CENTER1
 62
    4
 10
542.15666790069008
 20
528.56308291539107
 11
542.15666790069008
 21
426.67229208113826
  0
LINE
  8
_1-0_
  6
CONTINUOUS
 62
    4
 10
627.49752283214979
 20
479.93401100741249
 11
606.18224671312441
 21
462.56600824376243
  0
TEXT
  8
_1-0_
 62
    7
 10
593.55097197592499
 20
459.07918990491862
 40
5
 41
1
 50
0
  1
乳白
  0
LINE
  8
_1-0_
  6
CONTINUOUS
 62
    4
 10
714.20882513649439
 20
474.44709250060225
 11
692.89354901746901
 21
457.07908973695231
  0
TEXT
  8
_1-0_
 62
    7
 10
685.2636769233436
 20
453.67931744079805
 40
5
 41
1
 50
0
  1
黒
  0
LINE
  8
_1-0_
  6
CONTINUOUS
 62
    7
 10
642.28641729624973
 20
436.17085903280189
 11
642.28641729624973
 21
429.17085903280189
  0
LINE
  8
_1-0_
  6
CONTINUOUS
 62
    7
 10
642.28641729624973
 20
429.17085903280189
 11
719.28641729624973
 21
429.17085903280189
  0
LINE
  8
_1-0_
  6
CONTINUOUS
 62
    7
 10
719.28641729624973
 20
429.17085903280189
 11
719.28641729624973
 21
436.17085903280189
  0
LINE
  8
_1-0_
  6
CONTINUOUS
 62
    7
 10
642.28641729624973
 20
436.17085903280189
 11
719.28641729624973
 21
436.17085903280189
  0
TEXT
  8
_1-0_
 62
    7
 10
721.28641729624973
 20
430.67085903280189
 40
4
 41
1
 50
0
  1
S=1/2
  0
TEXT
  8
_1-0_
 62
    7
 10
658.78641729624973
 20
430.67085903280189
 40
4
 41
1
 50
0
  1
Оリング　乳白・黒　各1
  0
TEXT
  8
_1-0_
 62
    7
 10
566.65666790069008
 20
411.36480011794174
 40
4
 41
1
 50
0
  1
S=1/2
  0
TEXT
  8
_1-0_
 62
    7
 10
467.85160169907487
 20
411.36480011794174
 40
4
 41
1
 50
0
  1
S=1/2
  0
TEXT
  8
_1-0_
 62
    7
 10
369.0465354974595
 20
411.36480011794174
 40
4
 41
1
 50
0
  1
S=1/2
  0
TEXT
  8
_1-0_
 62
    7
 10
267.1455496286041
 20
411.36480011794174
 40
4
 41
1
 50
0
  1
S=1/2
  0
LINE
  8
_1-0_
  6
CENTER1
 62
    4
 10
60.475700250435181
 20
495.61453256272238
 11
155.70674430277949
 21
495.61453256272238
  0
LINE
  8
_1-0_
  6
CENTER1
 62
    4
 10
169.37220402757665
 20
495.61453256272238
 11
248.96024612795235
 21
495.61453256272238
  0
LINE
  8
_1-0_
  6
CENTER1
 62
    4
 10
302.07663202602037
 20
495.61453256272238
 11
388.56617801332276
 21
495.61453256272238
  0
LINE
  8
_1-0_
  6
CENTER1
 62
    4
 10
401.13840096013609
 20
495.61453256272238
 11
484.22439608690262
 21
495.61453256272238
  0
LINE
  8
_1-0_
  6
CENTER1
 62
    4
 10
495.15676386674039
 20
495.61453256272238
 11
576.8892238267922
 21
495.61453256272238
  0
TEXT
  8
_1-0_
 62
    7
 10
306.91972835320626
 20
441.93447856237128
 40
5
 41
1
 50
90
  1
6
  0
TEXT
  8
_1-0_
 62
    7
 10
405.70524307295318
 20
440.18447856237128
 40
5
 41
1
 50
90
  1
7.5
  0
TEXT
  8
_1-0_
 62
    7
 10
507.52236507042891
 20
436.68447856237128
 40
5
 41
1
 50
90
  1
0.5
  0
TEXT
  8
_1-0_
 62
    7
 10
364.21992056412511
 20
477.11587323692208
 40
5
 41
1
 50
-45
  1
φ36
  0
TEXT
  8
_1-0_
 62
    7
 10
464.00414780103676
 20
476.83346534083295
 40
5
 41
1
 50
-45
  1
φ31.5
  0
TEXT
  8
_1-0_
 62
    7
 10
560.10263255542622
 20
478.38754851195824
 40
5
 41
1.0000000000000002
 50
-45.000000000000689
  1
φ35
  0
LINE
  8
_1-0_
  6
CONTINUOUS
 62
    7
 10
116.00888448769342
 20
434.177322702085
 11
117.25888448769342
 21
433.20971231155567
  0
LINE
  8
_1-0_
  6
CONTINUOUS
 62
    7
 10
117.25888448769342
 20
433.20971231155567
 11
116.00888448769336
 21
432.17663711710338
  0
INSERT
  2
-001-_None_1_
  8
_1-0_
 10
73.532706924877857
 20
458.43144757819436
 41
0.1499999999999999
 42
0.1499999999999999
 50
227.96725797660207
  0
LINE
  8
_1-0_
  6
CONTINUOUS
 62
    7
 10
86.20888448769341
 20
435.10079511730884
 11
85.45888448769341
 21
435.85079511730884
  0
LINE
  8
_1-0_
  6
CONTINUOUS
 62
    7
 10
116.50888448769342
 20
435.10079511730884
 11
117.25888448769342
 21
435.85079511730884
  0
ARC
  8
_1-0_
  6
CONTINUOUS
 62
    7
 10
75.008884487694331
 20
452.36307715897584
 40
0.4999999999995
 50
77.00000000000098
 51
179.99999999998402
  0
ARC
  8
_1-0_
  6
CONTINUOUS
 62
    7
 10
75.008884487694331
 20
452.15781633741681
 40
0.4999999999995
 50
179.99999999998701
 51
256.99999999999698
  0
LINE
  8
_1-0_
  6
CONTINUOUS
 62
    7
 10
74.508884487693421
 20
452.15781633741681
 11
74.508884487693421
 21
452.36307715897584
  0
LINE
  8
_1-0_
  6
CONTINUOUS
 62
    7
 10
74.896408960521398
 20
451.67063130502435
 11
79.774514671005363
 21
450.01441375230535
  0
ARC
  8
_1-0_
  6
CONTINUOUS
 62
    7
 10
78.16703555266838
 20
445.27985876961531
 40
4.9999999999994999
 50
12.250000000000001
 51
71.246589897256001
  0
LINE
  8
_1-0_
  6
CONTINUOUS
 62
    7
 10
75.121360014865842
 20
452.85026219136835
 11
127.59640896052241
 21
452.85026219136835
  0
ARC
  8
_1-0_
  6
CONTINUOUS
 62
    7
 10
127.70888448769392
 20
452.36307715897584
 40
0.4999999999995
 50
0.0000000000160045
 51
102.99999999999697
  0
ARC
  8
_1-0_
  6
CONTINUOUS
 62
    7
 10
127.70888448769392
 20
452.15781633741681
 40
0.4999999999995
 50
283.00000000000397
 51
0.0000000000130148
  0
LINE
  8
_1-0_
  6
CONTINUOUS
 62
    7
 10
128.20888448769341
 20
452.15781633741681
 11
128.20888448769341
 21
452.36307715897584
  0
LINE
  8
_1-0_
  6
CONTINUOUS
 62
    7
 10
127.82136001486537
 20
451.67063130502435
 11
122.94325430438289
 21
450.01441375230535
  0
ARC
  8
_1-0_
  6
CONTINUOUS
 62
    7
 10
124.55073342271987
 20
445.27985876961531
 40
4.9999999999994999
 50
108.75341010274401
 51
167.75000000000005
  0
LINE
  8
_1-0_
  6
CONTINUOUS
 62
    7
 10
85.45888448769341
 20
435.85079511730884
 11
83.053191084981335
 21
446.34074713039728
  0
LINE
  8
_1-0_
  6
CONTINUOUS
 62
    7
 10
117.25888448769342
 20
435.85079511730884
 11
119.66457789040538
 21
446.34074713039728
  0
LINE
  8
_1-0_
  6
CONTINUOUS
 62
    4
 10
79.774514671005363
 20
450.01441375230535
 11
122.94325430438289
 21
450.01441375230535
  0
LINE
  8
_1-0_
  6
CONTINUOUS
 62
    4
 10
74.896408960521398
 20
451.67063130502435
 11
127.82136001486537
 21
451.67063130502435
  0
LINE
  8
_1-0_
  6
CONTINUOUS
 62
    4
 10
117.25888448769342
 20
435.85079511730884
 11
85.45888448769341
 21
435.85079511730884
  0
LINE
  8
_1-0_
  6
CONTINUOUS
 62
    4
 10
85.45888448769341
 20
434.37768559063727
 11
113.07332321428435
 21
435.10079511730884
  0
LINE
  8
_1-0_
  6
CONTINUOUS
 62
    7
 10
85.45888448769341
 20
434.37768559063727
 11
86.70888448769341
 21
433.41007520010782
  0
LINE
  8
_1-0_
  6
CONTINUOUS
 62
    7
 10
86.70888448769341
 20
433.41007520010782
 11
85.45888448769341
 21
432.37700000565553
  0
LINE
  8
_1-0_
  6
CONTINUOUS
 62
    7
 10
85.45888448769341
 20
432.37700000565553
 11
86.70888448769341
 21
431.4093896151262
  0
LINE
  8
_1-0_
  6
CONTINUOUS
 62
    7
 10
86.70888448769341
 20
431.4093896151262
 11
85.45888448769341
 21
430.37631442067379
  0
LINE
  8
_1-0_
  6
CONTINUOUS
 62
    7
 10
85.45888448769341
 20
430.37631442067379
 11
86.70888448769341
 21
429.40870403014451
  0
LINE
  8
_1-0_
  6
CONTINUOUS
 62
    7
 10
86.70888448769341
 20
429.40870403014451
 11
85.45888448769341
 21
428.37562883569205
  0
LINE
  8
_1-0_
  6
CONTINUOUS
 62
    7
 10
85.45888448769341
 20
428.37562883569205
 11
86.70888448769341
 21
427.40801844516272
  0
LINE
  8
_1-0_
  6
CONTINUOUS
 62
    7
 10
86.70888448769341
 20
427.40801844516272
 11
85.45888448769341
 21
426.37494325071043
  0
LINE
  8
_1-0_
  6
CONTINUOUS
 62
    7
 10
85.45888448769341
 20
426.37494325071043
 11
86.70888448769341
 21
425.40733286018098
  0
LINE
  8
_1-0_
  6
CONTINUOUS
 62
    7
 10
86.70888448769341
 20
425.40733286018098
 11
85.45888448769341
 21
424.37425766572869
  0
LINE
  8
_1-0_
  6
CONTINUOUS
 62
    7
 10
85.45888448769341
 20
424.37425766572869
 11
86.70888448769341
 21
423.40664727519936
  0
LINE
  8
_1-0_
  6
CONTINUOUS
 62
    7
 10
86.70888448769341
 20
423.40664727519936
 11
85.45888448769341
 21
422.37357208074701
  0
LINE
  8
_1-0_
  6
CONTINUOUS
 62
    7
 10
85.45888448769341
 20
422.37357208074701
 11
86.70888448769341
 21
421.40596169021762
  0
LINE
  8
_1-0_
  6
CONTINUOUS
 62
    7
 10
86.70888448769341
 20
421.40596169021762
 11
85.45888448769341
 21
420.37288649576521
  0
LINE
  8
_1-0_
  6
CONTINUOUS
 62
    7
 10
85.45888448769341
 20
420.37288649576521
 11
86.70888448769341
 21
419.40527610523588
  0
LINE
  8
_1-0_
  6
CONTINUOUS
 62
    7
 10
86.70888448769341
 20
419.40527610523588
 11
85.45888448769341
 21
418.37220091078359
  0
LINE
  8
_1-0_
  6
CONTINUOUS
 62
    7
 10
85.45888448769341
 20
418.37220091078359
 11
86.70888448769341
 21
417.40459052025414
  0
LINE
  8
_1-0_
  6
CONTINUOUS
 62
    7
 10
86.70888448769341
 20
417.40459052025414
 11
85.45888448769341
 21
416.37151532580185
  0
LINE
  8
_1-0_
  6
CONTINUOUS
 62
    7
 10
85.45888448769341
 20
416.37151532580185
 11
86.70888448769341
 21
415.40390493527246
  0
LINE
  8
_1-0_
  6
CONTINUOUS
 62
    7
 10
86.70888448769341
 20
415.40390493527246
 11
85.45888448769341
 21
414.37082974082011
  0
LINE
  8
_1-0_
  6
CONTINUOUS
 62
    7
 10
85.45888448769341
 20
414.37082974082011
 11
86.70888448769341
 21
413.40321935029078
  0
LINE
  8
_1-0_
  6
CONTINUOUS
 62
    7
 10
86.70888448769341
 20
413.40321935029078
 11
85.45888448769341
 21
412.37014415583837
  0
LINE
  8
_1-0_
  6
CONTINUOUS
 62
    7
 10
85.45888448769341
 20
412.37014415583837
 11
86.70888448769341
 21
411.4025337653091
  0
LINE
  8
_1-0_
  6
CONTINUOUS
 62
    7
 10
86.70888448769341
 20
411.4025337653091
 11
85.45888448769341
 21
410.36945857085675
  0
LINE
  8
_1-0_
  6
CONTINUOUS
 62
    7
 10
85.45888448769341
 20
410.36945857085675
 11
86.70888448769341
 21
409.40184818032724
  0
LINE
  8
_1-0_
  6
CONTINUOUS
 62
    7
 10
86.70888448769341
 20
409.40184818032724
 11
85.45888448769341
 21
408.36877298587501
  0
LINE
  8
_1-0_
  6
CONTINUOUS
 62
    7
 10
85.45888448769341
 20
408.36877298587501
 11
86.70888448769341
 21
407.40116259534568
  0
LINE
  8
_1-0_
  6
CONTINUOUS
 62
    7
 10
86.70888448769341
 20
407.40116259534568
 11
85.45888448769341
 21
406.36808740089321
  0
LINE
  8
_1-0_
  6
CONTINUOUS
 62
    7
 10
85.45888448769341
 20
406.36808740089321
 11
86.70888448769341
 21
405.40047701036394
  0
LINE
  8
_1-0_
  6
CONTINUOUS
 62
    7
 10
86.70888448769341
 20
405.40047701036394
 11
85.45888448769341
 21
404.36740181591153
  0
LINE
  8
_1-0_
  6
CONTINUOUS
 62
    7
 10
85.45888448769341
 20
404.36740181591153
 11
86.70888448769341
 21
403.3997914253822
  0
LINE
  8
_1-0_
  6
CONTINUOUS
 62
    7
 10
86.70888448769341
 20
403.3997914253822
 11
85.45888448769341
 21
402.36671623092991
  0
LINE
  8
_1-0_
  6
CONTINUOUS
 62
    7
 10
85.45888448769341
 20
402.36671623092991
 11
86.70888448769341
 21
401.39910584040046
  0
LINE
  8
_1-0_
  6
CONTINUOUS
 62
    7
 10
86.70888448769341
 20
401.39910584040046
 11
85.45888448769341
 21
400.36603064594817
  0
LINE
  8
_1-0_
  6
CONTINUOUS
 62
    7
 10
85.45888448769341
 20
400.36603064594817
 11
86.70888448769341
 21
399.39842025541884
  0
LINE
  8
_1-0_
  6
CONTINUOUS
 62
    7
 10
86.70888448769341
 20
399.39842025541884
 11
85.45888448769341
 21
398.36534506096643
  0
LINE
  8
_1-0_
  6
CONTINUOUS
 62
    7
 10
85.45888448769341
 20
398.36534506096643
 11
86.70888448769341
 21
397.3977346704371
  0
LINE
  8
_1-0_
  6
CONTINUOUS
 62
    7
 10
86.70888448769341
 20
397.3977346704371
 11
85.45888448769341
 21
396.36465947598469
  0
LINE
  8
_1-0_
  6
CONTINUOUS
 62
    7
 10
85.45888448769341
 20
396.36465947598469
 11
86.70888448769341
 21
395.39704908545536
  0
LINE
  8
_1-0_
  6
CONTINUOUS
 62
    7
 10
86.70888448769341
 20
395.39704908545536
 11
85.45888448769341
 21
394.36397389100307
  0
LINE
  8
_1-0_
  6
CONTINUOUS
 62
    7
 10
85.45888448769341
 20
394.36397389100307
 11
86.70888448769341
 21
393.39636350047362
  0
LINE
  8
_1-0_
  6
CONTINUOUS
 62
    7
 10
86.70888448769341
 20
393.39636350047362
 11
85.45888448769341
 21
392.36328830602133
  0
LINE
  8
_1-0_
  6
CONTINUOUS
 62
    7
 10
85.45888448769341
 20
392.36328830602133
 11
86.70888448769341
 21
391.395677915492
  0
LINE
  8
_1-0_
  6
CONTINUOUS
 62
    7
 10
86.70888448769341
 20
391.395677915492
 11
85.45888448769341
 21
390.36260272103959
  0
LINE
  8
_1-0_
  6
CONTINUOUS
 62
    7
 10
85.45888448769341
 20
390.36260272103959
 11
86.70888448769341
 21
389.39499233051026
  0
LINE
  8
_1-0_
  6
CONTINUOUS
 62
    7
 10
86.70888448769341
 20
389.39499233051026
 11
85.45888448769341
 21
388.36191713605785
  0
LINE
  8
_1-0_
  6
CONTINUOUS
 62
    7
 10
85.45888448769341
 20
388.36191713605785
 11
86.70888448769341
 21
387.39430674552852
  0
LINE
  8
_1-0_
  6
CONTINUOUS
 62
    7
 10
86.70888448769341
 20
387.39430674552852
 11
85.45888448769341
 21
386.36123155107623
  0
LINE
  8
_1-0_
  6
CONTINUOUS
 62
    7
 10
85.45888448769341
 20
386.36123155107623
 11
86.70888448769341
 21
385.39362116054678
  0
LINE
  8
_1-0_
  6
CONTINUOUS
 62
    7
 10
86.70888448769341
 20
385.39362116054678
 11
85.45888448769341
 21
384.36054596609449
  0
LINE
  8
_1-0_
  6
CONTINUOUS
 62
    7
 10
116.00888448769336
 20
432.17663711710338
 11
117.25888448769336
 21
431.20902672657393
  0
LINE
  8
_1-0_
  6
CONTINUOUS
 62
    7
 10
117.25888448769336
 20
431.20902672657393
 11
116.00888448769336
 21
430.1759515321217
  0
LINE
  8
_1-0_
  6
CONTINUOUS
 62
    7
 10
116.00888448769336
 20
430.1759515321217
 11
117.25888448769336
 21
429.20834114159225
  0
LINE
  8
_1-0_
  6
CONTINUOUS
 62
    7
 10
117.25888448769336
 20
429.20834114159225
 11
116.00888448769336
 21
428.1752659471399
  0
LINE
  8
_1-0_
  6
CONTINUOUS
 62
    7
 10
116.00888448769336
 20
428.1752659471399
 11
117.25888448769336
 21
427.20765555661057
  0
LINE
  8
_1-0_
  6
CONTINUOUS
 62
    7
 10
117.25888448769336
 20
427.20765555661057
 11
116.00888448769336
 21
426.17458036215816
  0
LINE
  8
_1-0_
  6
CONTINUOUS
 62
    7
 10
116.00888448769336
 20
426.17458036215816
 11
117.25888448769336
 21
425.20696997162883
  0
LINE
  8
_1-0_
  6
CONTINUOUS
 62
    7
 10
117.25888448769336
 20
425.20696997162883
 11
116.00888448769336
 21
424.17389477717654
  0
LINE
  8
_1-0_
  6
CONTINUOUS
 62
    7
 10
116.00888448769336
 20
424.17389477717654
 11
117.25888448769336
 21
423.20628438664709
  0
LINE
  8
_1-0_
  6
CONTINUOUS
 62
    7
 10
117.25888448769336
 20
423.20628438664709
 11
116.00888448769336
 21
422.1732091921948
  0
LINE
  8
_1-0_
  6
CONTINUOUS
 62
    7
 10
116.00888448769325
 20
422.1732091921948
 11
117.25888448769325
 21
421.20559880166536
  0
LINE
  8
_1-0_
  6
CONTINUOUS
 62
    7
 10
117.25888448769325
 20
421.20559880166536
 11
116.00888448769325
 21
420.17252360721306
  0
LINE
  8
_1-0_
  6
CONTINUOUS
 62
    7
 10
116.00888448769325
 20
420.17252360721306
 11
117.25888448769325
 21
419.20491321668379
  0
LINE
  8
_1-0_
  6
CONTINUOUS
 62
    7
 10
117.25888448769325
 20
419.20491321668379
 11
116.00888448769325
 21
418.17183802223132
  0
LINE
  8
_1-0_
  6
CONTINUOUS
 62
    7
 10
116.00888448769325
 20
418.17183802223132
 11
117.25888448769325
 21
417.20422763170199
  0
LINE
  8
_1-0_
  6
CONTINUOUS
 62
    7
 10
117.25888448769325
 20
417.20422763170199
 11
116.00888448769325
 21
416.17115243724964
  0
LINE
  8
_1-0_
  6
CONTINUOUS
 62
    7
 10
116.00888448769325
 20
416.17115243724964
 11
117.25888448769325
 21
415.2035420467202
  0
LINE
  8
_1-0_
  6
CONTINUOUS
 62
    7
 10
117.25888448769325
 20
415.2035420467202
 11
116.00888448769325
 21
414.17046685226796
  0
LINE
  8
_1-0_
  6
CONTINUOUS
 62
    7
 10
116.00888448769325
 20
414.17046685226796
 11
117.25888448769325
 21
413.20285646173852
  0
LINE
  8
_1-0_
  6
CONTINUOUS
 62
    7
 10
117.25888448769325
 20
413.20285646173852
 11
116.00888448769325
 21
412.16978126728628
  0
LINE
  8
_1-0_
  6
CONTINUOUS
 62
    7
 10
116.00888448769325
 20
412.16978126728628
 11
117.25888448769325
 21
411.20217087675689
  0
LINE
  8
_1-0_
  6
CONTINUOUS
 62
    7
 10
117.25888448769325
 20
411.20217087675689
 11
116.00888448769325
 21
410.16909568230448
  0
LINE
  8
_1-0_
  6
CONTINUOUS
 62
    7
 10
116.00888448769325
 20
410.16909568230448
 11
117.25888448769325
 21
409.20148529177515
  0
LINE
  8
_1-0_
  6
CONTINUOUS
 62
    7
 10
117.25888448769325
 20
409.20148529177515
 11
116.00888448769325
 21
408.16841009732286
  0
LINE
  8
_1-0_
  6
CONTINUOUS
 62
    7
 10
116.00888448769325
 20
408.16841009732286
 11
117.25888448769325
 21
407.20079970679341
  0
LINE
  8
_1-0_
  6
CONTINUOUS
 62
    7
 10
117.25888448769325
 20
407.20079970679341
 11
116.00888448769325
 21
406.16772451234112
  0
LINE
  8
_1-0_
  6
CONTINUOUS
 62
    7
 10
116.00888448769325
 20
406.16772451234112
 11
117.25888448769325
 21
405.20011412181167
  0
LINE
  8
_1-0_
  6
CONTINUOUS
 62
    7
 10
117.25888448769325
 20
405.20011412181167
 11
116.00888448769325
 21
404.16703892735938
  0
LINE
  8
_1-0_
  6
CONTINUOUS
 62
    7
 10
116.00888448769325
 20
404.16703892735938
 11
117.25888448769325
 21
403.19942853683005
  0
LINE
  8
_1-0_
  6
CONTINUOUS
 62
    7
 10
117.25888448769325
 20
403.19942853683005
 11
116.00888448769325
 21
402.16635334237759
  0
LINE
  8
_1-0_
  6
CONTINUOUS
 62
    7
 10
116.00888448769325
 20
402.16635334237759
 11
117.25888448769325
 21
401.19874295184825
  0
LINE
  8
_1-0_
  6
CONTINUOUS
 62
    7
 10
117.25888448769325
 20
401.19874295184825
 11
116.00888448769319
 21
400.16566775739602
  0
LINE
  8
_1-0_
  6
CONTINUOUS
 62
    7
 10
116.00888448769319
 20
400.16566775739602
 11
117.25888448769319
 21
399.19805736686657
  0
LINE
  8
_1-0_
  6
CONTINUOUS
 62
    7
 10
117.25888448769319
 20
399.19805736686657
 11
116.00888448769319
 21
398.16498217241428
  0
LINE
  8
_1-0_
  6
CONTINUOUS
 62
    7
 10
116.00888448769319
 20
398.16498217241428
 11
117.25888448769319
 21
397.19737178188483
  0
LINE
  8
_1-0_
  6
CONTINUOUS
 62
    7
 10
117.25888448769319
 20
397.19737178188483
 11
116.00888448769319
 21
396.16429658743254
  0
LINE
  8
_1-0_
  6
CONTINUOUS
 62
    7
 10
116.00888448769319
 20
396.16429658743254
 11
117.25888448769319
 21
395.19668619690321
  0
LINE
  8
_1-0_
  6
CONTINUOUS
 62
    7
 10
117.25888448769319
 20
395.19668619690321
 11
116.00888448769319
 21
394.1636110024508
  0
LINE
  8
_1-0_
  6
CONTINUOUS
 62
    7
 10
116.00888448769319
 20
394.1636110024508
 11
117.25888448769319
 21
393.19600061192147
  0
LINE
  8
_1-0_
  6
CONTINUOUS
 62
    7
 10
117.25888448769319
 20
393.19600061192147
 11
116.00888448769319
 21
392.16292541746918
  0
LINE
  8
_1-0_
  6
CONTINUOUS
 62
    7
 10
116.00888448769319
 20
392.16292541746918
 11
117.25888448769319
 21
391.19531502693973
  0
LINE
  8
_1-0_
  6
CONTINUOUS
 62
    7
 10
117.25888448769319
 20
391.19531502693973
 11
116.00888448769319
 21
390.16223983248744
  0
LINE
  8
_1-0_
  6
CONTINUOUS
 62
    7
 10
116.00888448769313
 20
390.16223983248744
 11
117.25888448769313
 21
389.19462944195799
  0
LINE
  8
_1-0_
  6
CONTINUOUS
 62
    7
 10
117.25888448769313
 20
389.19462944195799
 11
116.00888448769313
 21
388.1615542475057
  0
LINE
  8
_1-0_
  6
CONTINUOUS
 62
    7
 10
116.00888448769313
 20
388.1615542475057
 11
117.25888448769313
 21
387.19394385697637
  0
LINE
  8
_1-0_
  6
CONTINUOUS
 62
    7
 10
117.25888448769313
 20
387.19394385697637
 11
116.00888448769313
 21
386.16086866252396
  0
LINE
  8
_1-0_
  6
CONTINUOUS
 62
    7
 10
116.00888448769313
 20
386.16086866252396
 11
117.25888448769313
 21
385.19325827199463
  0
LINE
  8
_1-0_
  6
CONTINUOUS
 62
    7
 10
85.45888448769341
 20
434.37768559063727
 11
86.20888448769341
 21
434.9975307072973
  0
LINE
  8
_1-0_
  6
CONTINUOUS
 62
    7
 10
86.70888448769341
 20
433.41007520010782
 11
116.00888448769342
 21
434.177322702085
  0
LINE
  8
_1-0_
  6
CONTINUOUS
 62
    7
 10
86.70888448769341
 20
431.4093896151262
 11
116.00888448769342
 21
432.17663711710338
  0
LINE
  8
_1-0_
  6
CONTINUOUS
 62
    7
 10
86.70888448769341
 20
429.40870403014434
 11
116.00888448769342
 21
430.17595153212153
  0
LINE
  8
_1-0_
  6
CONTINUOUS
 62
    7
 10
86.70888448769341
 20
427.40801844516261
 11
116.00888448769336
 21
428.17526594713979
  0
LINE
  8
_1-0_
  6
CONTINUOUS
 62
    7
 10
86.70888448769341
 20
425.40733286018087
 11
116.00888448769342
 21
426.17458036215805
  0
LINE
  8
_1-0_
  6
CONTINUOUS
 62
    7
 10
86.70888448769341
 20
423.40664727519924
 11
116.00888448769342
 21
424.17389477717642
  0
LINE
  8
_1-0_
  6
CONTINUOUS
 62
    7
 10
86.70888448769341
 20
421.40596169021739
 11
116.00888448769336
 21
422.17320919219457
  0
LINE
  8
_1-0_
  6
CONTINUOUS
 62
    7
 10
86.70888448769341
 20
419.40527610523565
 11
116.00888448769342
 21
420.17252360721283
  0
LINE
  8
_1-0_
  6
CONTINUOUS
 62
    7
 10
86.70888448769341
 20
417.40459052025397
 11
116.00888448769342
 21
418.17183802223115
  0
LINE
  8
_1-0_
  6
CONTINUOUS
 62
    7
 10
86.70888448769341
 20
415.40390493527218
 11
116.00888448769336
 21
416.17115243724936
  0
LINE
  8
_1-0_
  6
CONTINUOUS
 62
    7
 10
86.70888448769341
 20
413.40321935029044
 11
116.00888448769342
 21
414.17046685226762
  0
LINE
  8
_1-0_
  6
CONTINUOUS
 62
    7
 10
86.70888448769341
 20
411.40253376530881
 11
116.00888448769342
 21
412.16978126728599
  0
LINE
  8
_1-0_
  6
CONTINUOUS
 62
    7
 10
86.70888448769341
 20
409.40184818032702
 11
116.00888448769342
 21
410.1690956823042
  0
LINE
  8
_1-0_
  6
CONTINUOUS
 62
    7
 10
86.70888448769341
 20
407.40116259534522
 11
116.00888448769342
 21
408.1684100973224
  0
LINE
  8
_1-0_
  6
CONTINUOUS
 62
    7
 10
86.70888448769341
 20
405.4004770103636
 11
116.00888448769342
 21
406.16772451234072
  0
LINE
  8
_1-0_
  6
CONTINUOUS
 62
    7
 10
86.70888448769341
 20
403.3997914253818
 11
116.00888448769342
 21
404.16703892735904
  0
LINE
  8
_1-0_
  6
CONTINUOUS
 62
    7
 10
86.70888448769341
 20
401.39910584040012
 11
116.00888448769342
 21
402.16635334237724
  0
LINE
  8
_1-0_
  6
CONTINUOUS
 62
    7
 10
86.70888448769341
 20
399.39842025541838
 11
116.00888448769342
 21
400.16566775739556
  0
LINE
  8
_1-0_
  6
CONTINUOUS
 62
    7
 10
86.70888448769341
 20
397.39773467043664
 11
116.00888448769342
 21
398.16498217241382
  0
LINE
  8
_1-0_
  6
CONTINUOUS
 62
    7
 10
86.70888448769341
 20
395.3970490854549
 11
116.00888448769342
 21
396.16429658743197
  0
LINE
  8
_1-0_
  6
CONTINUOUS
 62
    7
 10
86.70888448769341
 20
393.39636350047317
 11
116.00888448769342
 21
394.16361100245035
  0
LINE
  8
_1-0_
  6
CONTINUOUS
 62
    7
 10
86.70888448769341
 20
391.39567791549143
 11
116.00888448769342
 21
392.16292541746861
  0
LINE
  8
_1-0_
  6
CONTINUOUS
 62
    7
 10
86.70888448769341
 20
389.39499233050969
 11
116.00888448769342
 21
390.16223983248687
  0
LINE
  8
_1-0_
  6
CONTINUOUS
 62
    7
 10
86.70888448769341
 20
387.39430674552784
 11
116.00888448769342
 21
388.16155424750502
  0
LINE
  8
_1-0_
  6
CONTINUOUS
 62
    7
 10
86.70888448769341
 20
385.39362116054621
 11
116.00888448769342
 21
386.16086866252339
  0
LINE
  8
_1-0_
  6
CONTINUOUS
 62
    4
 10
86.20888448769341
 20
435.10079511730884
 11
116.50888448769342
 21
435.10079511730884
  0
LINE
  8
_1-0_
  6
CONTINUOUS
 62
    7
 10
117.25888448769342
 20
435.21039789653741
 11
116.00888448769342
 21
434.177322702085
  0
LINE
  8
_1-0_
  6
CONTINUOUS
 62
    7
 10
116.89791191587329
 20
435.48982254548883
 11
117.25888448769342
 21
435.21039789653741
  0
LINE
  8
_1-0_
  6
CONTINUOUS
 62
    4
 10
85.45888448769341
 20
432.37700000565553
 11
117.25888448769342
 21
433.20971231155567
  0
LINE
  8
_1-0_
  6
CONTINUOUS
 62
    4
 10
85.45888448769341
 20
384.3605459660938
 11
117.25888448769308
 21
385.19325827199395
  0
LINE
  8
_1-0_
  6
CONTINUOUS
 62
    4
 10
85.45888448769341
 20
386.36123155107566
 11
117.25888448769308
 21
387.1939438569758
  0
LINE
  8
_1-0_
  6
CONTINUOUS
 62
    4
 10
85.45888448769341
 20
388.36191713605728
 11
117.25888448769308
 21
389.19462944195743
  0
LINE
  8
_1-0_
  6
CONTINUOUS
 62
    4
 10
85.45888448769341
 20
390.36260272103902
 11
117.25888448769308
 21
391.19531502693916
  0
LINE
  8
_1-0_
  6
CONTINUOUS
 62
    4
 10
85.45888448769341
 20
392.36328830602087
 11
117.25888448769313
 21
393.1960006119209
  0
LINE
  8
_1-0_
  6
CONTINUOUS
 62
    4
 10
85.45888448769341
 20
394.3639738910025
 11
117.25888448769313
 21
395.19668619690264
  0
LINE
  8
_1-0_
  6
CONTINUOUS
 62
    4
 10
85.45888448769341
 20
396.36465947598424
 11
117.25888448769313
 21
397.19737178188438
  0
LINE
  8
_1-0_
  6
CONTINUOUS
 62
    4
 10
85.45888448769341
 20
398.36534506096597
 11
117.25888448769313
 21
399.19805736686612
  0
LINE
  8
_1-0_
  6
CONTINUOUS
 62
    4
 10
85.45888448769341
 20
400.36603064594771
 11
117.25888448769319
 21
401.19874295184786
  0
LINE
  8
_1-0_
  6
CONTINUOUS
 62
    4
 10
85.45888448769341
 20
402.36671623092939
 11
117.25888448769319
 21
403.1994285368296
  0
LINE
  8
_1-0_
  6
CONTINUOUS
 62
    4
 10
85.45888448769341
 20
404.36740181591119
 11
117.25888448769319
 21
405.20011412181133
  0
LINE
  8
_1-0_
  6
CONTINUOUS
 62
    4
 10
85.45888448769341
 20
406.36808740089287
 11
117.25888448769319
 21
407.20079970679302
  0
LINE
  8
_1-0_
  6
CONTINUOUS
 62
    4
 10
85.45888448769341
 20
408.36877298587467
 11
117.25888448769325
 21
409.20148529177481
  0
LINE
  8
_1-0_
  6
CONTINUOUS
 62
    4
 10
85.45888448769341
 20
410.3694585708564
 11
117.25888448769325
 21
411.20217087675655
  0
LINE
  8
_1-0_
  6
CONTINUOUS
 62
    4
 10
85.45888448769341
 20
412.37014415583814
 11
117.25888448769325
 21
413.20285646173834
  0
LINE
  8
_1-0_
  6
CONTINUOUS
 62
    4
 10
85.45888448769341
 20
414.37082974081988
 11
117.25888448769325
 21
415.20354204672003
  0
LINE
  8
_1-0_
  6
CONTINUOUS
 62
    4
 10
85.45888448769341
 20
416.37151532580162
 11
117.25888448769325
 21
417.20422763170171
  0
LINE
  8
_1-0_
  6
CONTINUOUS
 62
    4
 10
85.45888448769341
 20
418.37220091078336
 11
117.25888448769325
 21
419.2049132166835
  0
LINE
  8
_1-0_
  6
CONTINUOUS
 62
    4
 10
85.45888448769341
 20
420.3728864957651
 11
117.25888448769325
 21
421.2055988016653
  0
LINE
  8
_1-0_
  6
CONTINUOUS
 62
    4
 10
85.45888448769341
 20
422.37357208074683
 11
117.25888448769325
 21
423.20628438664698
  0
LINE
  8
_1-0_
  6
CONTINUOUS
 62
    4
 10
85.45888448769341
 20
424.37425766572857
 11
117.25888448769336
 21
425.20696997162872
  0
LINE
  8
_1-0_
  6
CONTINUOUS
 62
    4
 10
85.45888448769341
 20
426.37494325071031
 11
117.25888448769336
 21
427.20765555661046
  0
LINE
  8
_1-0_
  6
CONTINUOUS
 62
    4
 10
85.45888448769341
 20
428.37562883569205
 11
117.25888448769336
 21
429.20834114159225
  0
LINE
  8
_1-0_
  6
CONTINUOUS
 62
    4
 10
85.45888448769341
 20
430.37631442067379
 11
117.25888448769336
 21
431.20902672657393
  0
LINE
  8
_1-0_
  6
CONTINUOUS
 62
    7
 10
86.84764462820226
 20
384.03521957550663
 11
87.369557680093691
 21
382.8502621913683
  0
LINE
  8
_1-0_
  6
CONTINUOUS
 62
    7
 10
115.8701243471844
 20
384.03521957550663
 11
115.34821129529308
 21
382.8502621913683
  0
LINE
  8
_1-0_
  6
CONTINUOUS
 62
    7
 10
115.34821129529308
 20
382.8502621913683
 11
87.369557680093691
 21
382.8502621913683
  0
LINE
  8
_1-0_
  6
CONTINUOUS
 62
    7
 10
117.25888448769313
 20
385.19325827199463
 11
115.85768118866576
 21
384.03521957550663
  0
LINE
  8
_1-0_
  6
CONTINUOUS
 62
    7
 10
85.45888448769341
 20
384.36054596609449
 11
85.879154869465764
 21
384.03521957550663
  0
LINE
  8
_1-0_
  6
CONTINUOUS
 62
    7
 10
85.879154869465764
 20
384.03521957550663
 11
115.85768118866576
 21
384.03521957550663
  0
LINE
  8
_1-0_
  6
CONTINUOUS
 62
    4
 10
136.70462805446584
 20
435.85079511730884
 11
136.70462805446584
 21
382.8502621913683
  0
LINE
  8
_1-0_
  6
CONTINUOUS
 62
    7
 10
136.70462805446584
 20
435.85079511730884
 11
137.4810851897734
 21
432.95301763844167
  0
LINE
  8
_1-0_
  6
CONTINUOUS
 62
    7
 10
136.70462805446584
 20
435.85079511730884
 11
135.92817091915827
 21
432.95301763844167
  0
LINE
  8
_1-0_
  6
CONTINUOUS
 62
    7
 10
136.70462805446584
 20
382.8502621913683
 11
135.92817091915827
 21
385.74803967023552
  0
LINE
  8
_1-0_
  6
CONTINUOUS
 62
    7
 10
136.70462805446584
 20
382.8502621913683
 11
137.4810851897734
 21
385.74803967023552
  0
LINE
  8
_1-0_
  6
CONTINUOUS
 62
    4
 10
136.70462805446584
 20
435.85079511730884
 11
126.31973101935278
 21
435.85079511730884
  0
LINE
  8
_1-0_
  6
CONTINUOUS
 62
    4
 10
136.70462805446584
 20
382.8502621913683
 11
126.31973101935278
 21
382.8502621913683
  0
TEXT
  8
_1-0_
 62
    7
 10
135.70462805446584
 20
406.85052865433851
 40
5
 41
1
 50
90
  1
53
  0
LINE
  8
_1-0_
  6
CONTINUOUS
 62
    4
 10
147.95493317583827
 20
452.85026148303387
 11
147.95493317583827
 21
382.8502621913683
  0
LINE
  8
_1-0_
  6
CONTINUOUS
 62
    7
 10
147.95493317583827
 20
452.85026148303387
 11
148.73139031114584
 21
449.95248400416664
  0
LINE
  8
_1-0_
  6
CONTINUOUS
 62
    7
 10
147.95493317583827
 20
452.85026148303387
 11
147.17847604053071
 21
449.95248400416664
  0
LINE
  8
_1-0_
  6
CONTINUOUS
 62
    7
 10
147.95493317583827
 20
382.8502621913683
 11
147.17847604053071
 21
385.74803967023552
  0
LINE
  8
_1-0_
  6
CONTINUOUS
 62
    7
 10
147.95493317583827
 20
382.8502621913683
 11
148.73139031114584
 21
385.74803967023552
  0
LINE
  8
_1-0_
  6
CONTINUOUS
 62
    4
 10
147.95493317583827
 20
452.85026148303387
 11
131.51217953690934
 21
452.85026148303387
  0
LINE
  8
_1-0_
  6
CONTINUOUS
 62
    4
 10
147.95493317583827
 20
382.8502621913683
 11
131.51217953690934
 21
382.8502621913683
  0
TEXT
  8
_1-0_
 62
    7
 10
146.95493317583827
 20
415.35026183720111
 40
5
 41
1
 50
90
  1
70
  0
LINE
  8
_1-0_
  6
CONTINUOUS
 62
    4
 10
88.158885980509751
 20
362.07416929792213
 11
114.55888369169139
 21
362.07416929792213
  0
LINE
  8
_1-0_
  6
CONTINUOUS
 62
    7
 10
88.158885980509751
 20
362.07416929792213
 11
91.056663459376977
 21
362.85062643322976
  0
LINE
  8
_1-0_
  6
CONTINUOUS
 62
    7
 10
88.158885980509751
 20
362.07416929792213
 11
91.056663459376977
 21
361.29771216261462
  0
LINE
  8
_1-0_
  6
CONTINUOUS
 62
    7
 10
114.55888369169139
 20
362.07416929792213
 11
111.66110621282427
 21
361.29771216261462
  0
LINE
  8
_1-0_
  6
CONTINUOUS
 62
    7
 10
114.55888369169139
 20
362.07416929792213
 11
111.66110621282427
 21
362.85062643322976
  0
LINE
  8
_1-0_
  6
CONTINUOUS
 62
    4
 10
88.158885980509751
 20
373.95185274769391
 11
88.158885980509751
 21
362.07416929792213
  0
LINE
  8
_1-0_
  6
CONTINUOUS
 62
    4
 10
114.55888369169139
 20
373.95185274769391
 11
114.55888369169139
 21
362.07416929792213
  0
LINE
  8
_1-0_
  6
CENTER1
 62
    4
 10
101.35888448769333
 20
527.45873332818882
 11
101.35888448769333
 21
371.53919829695905
  0
TEXT
  8
_1-0_
 62
    7
 10
78.35888448769333
 20
346.2627402064154
 40
4
 41
1.0000000000000013
 50
0
  1
排水栓（排水目皿）100mm
  0
LINE
  8
_1-0_
  6
CONTINUOUS
 62
    7
 10
128.85888448769338
 20
351.7627402064154
 11
73.85888448769333
 21
351.7627402064154
  0
LINE
  8
_1-0_
  6
CONTINUOUS
 62
    7
 10
128.85888448769338
 20
344.7627402064154
 11
128.85888448769338
 21
351.7627402064154
  0
LINE
  8
_1-0_
  6
CONTINUOUS
 62
    7
 10
73.85888448769333
 20
344.7627402064154
 11
128.85888448769338
 21
344.7627402064154
  0
LINE
  8
_1-0_
  6
CONTINUOUS
 62
    7
 10
73.85888448769333
 20
351.7627402064154
 11
73.85888448769333
 21
344.7627402064154
  0
TEXT
  8
_1-0_
 62
    7
 10
93.858884836100571
 20
363.07416929792213
 40
5
 41
1
 50
0
  1
φ26.4
  0
TEXT
  8
_1-0_
 62
    7
 10
130.85888448769338
 20
346.2627402064154
 40
4
 41
1
 50
0
  1
S=1/2
  0
TEXT
  8
_1-0_
 62
    7
 10
649.65919743791459
 20
98.954198795357342
 40
6
 41
1.0000000000000002
 50
0
  1
※1　（　）内寸法は参考寸法である。
  0
TEXT
  8
_1-0_
 62
    7
 10
649.65919743791459
 20
78.954198795357342
 40
6
 41
1.0000000000000002
 50
0
  1
※3　壁排水管の差込代は、40mm以上を確保すること。
  0
TEXT
  8
_1-0_
 62
    7
 10
649.65919743791459
 20
88.954198795357342
 40
6
 41
1.0000000000000002
 50
0
  1
※2　テール管の差込代は、15mm以上を確保すること。
  0
TEXT
  8
_1-0_
 62
    7
 10
18.641117101246891
 20
565.83435115941801
 40
12
 41
1.0000000000000002
 50
0
  1
Mimi用コンプリートセット（70mm：天板厚15～25㎜用）ボトルラップ
  0
LINE
  8
_1-0_
  6
CENTER1
 62
    4
 10
550.75282857599017
 20
369.90086140892344
 11
550.75282857599017
 21
130.31989826705489
  0
LINE
  8
_1-0_
  6
CONTINUOUS
 62
    7
 10
568.75282857599017
 20
355.19987963394089
 11
532.75282857599017
 21
355.19987963394089
  0
LINE
  8
_1-0_
  6
CONTINUOUS
 62
    7
 10
550.75282857599017
 20
365.79987867394089
 11
549.38448093597469
 21
365.72239822888769
  0
LINE
  8
_1-0_
  6
CONTINUOUS
 62
    7
 10
549.38448093597469
 20
365.72239822888769
 11
548.05770984658386
 21
365.49231109784409
  0
LINE
  8
_1-0_
  6
CONTINUOUS
 62
    7
 10
548.05770984658386
 20
365.49231109784409
 11
546.81282857599012
 21
365.11660836185711
  0
LINE
  8
_1-0_
  6
CONTINUOUS
 62
    7
 10
546.81282857599012
 20
365.11660836185711
 11
545.68766221166026
 21
364.60670555844501
  0
LINE
  8
_1-0_
  6
CONTINUOUS
 62
    7
 10
545.68766221166026
 20
364.60670555844501
 11
544.71639836421252
 21
363.97809582626609
  0
LINE
  8
_1-0_
  6
CONTINUOUS
 62
    7
 10
544.71639836421252
 20
363.97809582626609
 11
543.92854839416872
 21
363.24987915394086
  0
LINE
  8
_1-0_
  6
CONTINUOUS
 62
    7
 10
543.92854839416872
 20
363.24987915394086
 11
543.34805072419726
 21
362.44418203656243
  0
LINE
  8
_1-0_
  6
CONTINUOUS
 62
    7
 10
543.34805072419726
 20
362.44418203656243
 11
542.99254348225395
 21
361.58548517333997
  0
LINE
  8
_1-0_
  6
CONTINUOUS
 62
    7
 10
542.99254348225395
 20
361.58548517333997
 11
542.87282857599007
 21
360.69987963394089
  0
LINE
  8
_1-0_
  6
CONTINUOUS
 62
    7
 10
542.87282857599007
 20
360.69987963394089
 11
542.99254348225395
 21
359.81427409454175
  0
LINE
  8
_1-0_
  6
CONTINUOUS
 62
    7
 10
542.99254348225395
 20
359.81427409454175
 11
543.34805072419726
 21
358.95557723131929
  0
LINE
  8
_1-0_
  6
CONTINUOUS
 62
    7
 10
543.34805072419726
 20
358.95557723131929
 11
543.92854839416872
 21
358.14988011394086
  0
LINE
  8
_1-0_
  6
CONTINUOUS
 62
    7
 10
543.92854839416872
 20
358.14988011394086
 11
544.71639836421252
 21
357.42166344161563
  0
LINE
  8
_1-0_
  6
CONTINUOUS
 62
    7
 10
544.71639836421252
 20
357.42166344161563
 11
545.68766221166026
 21
356.79305370943677
  0
LINE
  8
_1-0_
  6
CONTINUOUS
 62
    7
 10
545.68766221166026
 20
356.79305370943677
 11
546.81282857599012
 21
356.28315090602461
  0
LINE
  8
_1-0_
  6
CONTINUOUS
 62
    7
 10
546.81282857599012
 20
356.28315090602461
 11
548.05770984658386
 21
355.90744817003763
  0
LINE
  8
_1-0_
  6
CONTINUOUS
 62
    7
 10
548.05770984658386
 20
355.90744817003763
 11
549.38448093597469
 21
355.67736103899403
  0
LINE
  8
_1-0_
  6
CONTINUOUS
 62
    7
 10
549.38448093597469
 20
355.67736103899403
 11
550.75282857599017
 21
355.59988059394083
  0
LINE
  8
_1-0_
  6
CONTINUOUS
 62
    7
 10
535.16437057599023
 20
355.59987963394087
 11
535.84854437863316
 21
355.67736009357861
  0
LINE
  8
_1-0_
  6
CONTINUOUS
 62
    7
 10
535.84854437863316
 20
355.67736009357861
 11
536.51192990649133
 21
355.90744726793275
  0
LINE
  8
_1-0_
  6
CONTINUOUS
 62
    7
 10
536.51192990649133
 20
355.90744726793275
 11
537.13437052599022
 21
356.28315007464027
  0
LINE
  8
_1-0_
  6
CONTINUOUS
 62
    7
 10
537.13437052599022
 20
356.28315007464027
 11
537.69695369387648
 21
356.79305297403408
  0
LINE
  8
_1-0_
  6
CONTINUOUS
 62
    7
 10
537.69695369387648
 20
356.79305297403408
 11
538.18258560527453
 21
357.42166282453956
  0
LINE
  8
_1-0_
  6
CONTINUOUS
 62
    7
 10
538.18258560527453
 20
357.42166282453956
 11
538.57651058029841
 21
358.14987963394088
  0
LINE
  8
_1-0_
  6
CONTINUOUS
 62
    7
 10
538.57651058029841
 20
358.14987963394088
 11
538.86675940791747
 21
358.95557690297994
  0
LINE
  8
_1-0_
  6
CONTINUOUS
 62
    7
 10
538.86675940791747
 20
358.95557690297994
 11
539.04451302437757
 21
359.8142739278395
  0
LINE
  8
_1-0_
  6
CONTINUOUS
 62
    7
 10
539.04451302437757
 20
359.8142739278395
 11
539.1043704759902
 21
360.69987963394089
  0
LINE
  8
_1-0_
  6
CONTINUOUS
 62
    7
 10
539.1043704759902
 20
360.69987963394089
 11
539.04451302437757
 21
361.58548534004222
  0
LINE
  8
_1-0_
  6
CONTINUOUS
 62
    7
 10
539.04451302437757
 20
361.58548534004222
 11
538.86675940791747
 21
362.44418236490179
  0
LINE
  8
_1-0_
  6
CONTINUOUS
 62
    7
 10
538.86675940791747
 20
362.44418236490179
 11
538.57651058029841
 21
363.24987963394084
  0
LINE
  8
_1-0_
  6
CONTINUOUS
 62
    7
 10
538.57651058029841
 20
363.24987963394084
 11
538.18258560527453
 21
363.97809644334222
  0
LINE
  8
_1-0_
  6
CONTINUOUS
 62
    7
 10
538.18258560527453
 20
363.97809644334222
 11
537.69695369387648
 21
364.60670629384765
  0
LINE
  8
_1-0_
  6
CONTINUOUS
 62
    7
 10
537.69695369387648
 20
364.60670629384765
 11
537.13437052599022
 21
365.11660919324151
  0
LINE
  8
_1-0_
  6
CONTINUOUS
 62
    7
 10
537.13437052599022
 20
365.11660919324151
 11
536.51192990649133
 21
365.49231199994903
  0
LINE
  8
_1-0_
  6
CONTINUOUS
 62
    7
 10
536.51192990649133
 20
365.49231199994903
 11
535.84854437863316
 21
365.72239917430317
  0
LINE
  8
_1-0_
  6
CONTINUOUS
 62
    7
 10
535.84854437863316
 20
365.72239917430317
 11
535.16437057599023
 21
365.79987963394086
  0
LINE
  8
_1-0_
  6
CONTINUOUS
 62
    7
 10
535.16437057599023
 20
365.79987963394086
 11
534.4801967733473
 21
365.72239917430317
  0
LINE
  8
_1-0_
  6
CONTINUOUS
 62
    7
 10
534.4801967733473
 20
365.72239917430317
 11
533.81681124548913
 21
365.49231199994903
  0
LINE
  8
_1-0_
  6
CONTINUOUS
 62
    7
 10
533.81681124548913
 20
365.49231199994903
 11
533.19437062599024
 21
365.11660919324151
  0
LINE
  8
_1-0_
  6
CONTINUOUS
 62
    7
 10
533.19437062599024
 20
365.11660919324151
 11
532.63178745810398
 21
364.60670629384765
  0
LINE
  8
_1-0_
  6
CONTINUOUS
 62
    7
 10
532.63178745810398
 20
364.60670629384765
 11
532.14615554670592
 21
363.97809644334222
  0
LINE
  8
_1-0_
  6
CONTINUOUS
 62
    7
 10
532.14615554670592
 20
363.97809644334222
 11
531.75223057168204
 21
363.24987963394084
  0
LINE
  8
_1-0_
  6
CONTINUOUS
 62
    7
 10
531.75223057168204
 20
363.24987963394084
 11
531.46198174406299
 21
362.44418236490179
  0
LINE
  8
_1-0_
  6
CONTINUOUS
 62
    7
 10
531.46198174406299
 20
362.44418236490179
 11
531.28422812760288
 21
361.58548534004222
  0
LINE
  8
_1-0_
  6
CONTINUOUS
 62
    7
 10
531.28422812760288
 20
361.58548534004222
 11
531.22437067599025
 21
360.69987963394089
  0
LINE
  8
_1-0_
  6
CONTINUOUS
 62
    7
 10
531.22437067599025
 20
360.69987963394089
 11
531.28422812760288
 21
359.8142739278395
  0
LINE
  8
_1-0_
  6
CONTINUOUS
 62
    7
 10
531.28422812760288
 20
359.8142739278395
 11
531.46198174406299
 21
358.95557690297994
  0
LINE
  8
_1-0_
  6
CONTINUOUS
 62
    7
 10
531.46198174406299
 20
358.95557690297994
 11
531.75223057168204
 21
358.14987963394088
  0
LINE
  8
_1-0_
  6
CONTINUOUS
 62
    7
 10
531.75223057168204
 20
358.14987963394088
 11
532.14615554670592
 21
357.42166282453956
  0
LINE
  8
_1-0_
  6
CONTINUOUS
 62
    7
 10
532.14615554670592
 20
357.42166282453956
 11
532.63178745810398
 21
356.79305297403413
  0
LINE
  8
_1-0_
  6
CONTINUOUS
 62
    7
 10
532.63178745810398
 20
356.79305297403413
 11
533.19437062599013
 21
356.28315007464027
  0
LINE
  8
_1-0_
  6
CONTINUOUS
 62
    7
 10
533.19437062599013
 20
356.28315007464027
 11
533.81681124548913
 21
355.90744726793275
  0
LINE
  8
_1-0_
  6
CONTINUOUS
 62
    7
 10
533.81681124548913
 20
355.90744726793275
 11
534.4801967733473
 21
355.67736009357861
  0
LINE
  8
_1-0_
  6
CONTINUOUS
 62
    7
 10
534.4801967733473
 20
355.67736009357861
 11
535.16437057599023
 21
355.59987963394087
  0
ARC
  8
_1-0_
  6
CONTINUOUS
 62
    7
 10
560.41116057599015
 20
360.69987963394089
 40
9.9916660000000021
 50
326.60151200000001
 51
33.398487999999986
  0
LINE
  8
_1-0_
  6
CONTINUOUS
 62
    7
 10
568.75282857599017
 20
366.19987963394089
 11
532.75282857599017
 21
366.19987963394089
  0
ARC
  8
_1-0_
  6
CONTINUOUS
 62
    7
 10
541.09449457599021
 20
360.69987963394089
 40
9.9916660000000021
 50
146.60151200000001
 51
213.39848799999998
  0
LINE
  8
_1-0_
  6
CONTINUOUS
 62
    7
 10
563.25282857599017
 20
294.39987963394082
 11
563.25282857599017
 21
355.19987963394089
  0
LINE
  8
_1-0_
  6
CONTINUOUS
 62
    7
 10
532.75282857599017
 20
283.39987963394082
 11
568.75282857599017
 21
283.39987963394082
  0
LINE
  8
_1-0_
  6
CONTINUOUS
 62
    7
 10
532.75282857599017
 20
294.39987963394082
 11
568.75282857599017
 21
294.39987963394082
  0
ARC
  8
_1-0_
  6
CONTINUOUS
 62
    7
 10
541.09449457599021
 20
288.89987963394082
 40
9.9916660000000021
 50
146.60151200000001
 51
213.39848799999998
  0
ARC
  8
_1-0_
  6
CONTINUOUS
 62
    7
 10
560.41116057599015
 20
288.89987963394082
 40
9.9916660000000021
 50
326.60151200000001
 51
33.398487999999986
  0
LINE
  8
_1-0_
  6
CONTINUOUS
 62
    7
 10
566.34128457599013
 20
293.99987963394084
 11
565.65711077334731
 21
293.9223991743031
  0
LINE
  8
_1-0_
  6
CONTINUOUS
 62
    7
 10
565.65711077334731
 20
293.9223991743031
 11
564.99372524548903
 21
293.69231199994896
  0
LINE
  8
_1-0_
  6
CONTINUOUS
 62
    7
 10
564.99372524548903
 20
293.69231199994896
 11
564.37128462599025
 21
293.31660919324144
  0
LINE
  8
_1-0_
  6
CONTINUOUS
 62
    7
 10
564.37128462599025
 20
293.31660919324144
 11
563.80870145810399
 21
292.80670629384763
  0
LINE
  8
_1-0_
  6
CONTINUOUS
 62
    7
 10
563.80870145810399
 20
292.80670629384763
 11
563.32306954670582
 21
292.17809644334215
  0
LINE
  8
_1-0_
  6
CONTINUOUS
 62
    7
 10
563.32306954670582
 20
292.17809644334215
 11
562.92914457168194
 21
291.44987963394083
  0
LINE
  8
_1-0_
  6
CONTINUOUS
 62
    7
 10
562.92914457168194
 20
291.44987963394083
 11
562.63889574406289
 21
290.64418236490172
  0
LINE
  8
_1-0_
  6
CONTINUOUS
 62
    7
 10
562.63889574406289
 20
290.64418236490172
 11
562.46114212760289
 21
289.78548534004215
  0
LINE
  8
_1-0_
  6
CONTINUOUS
 62
    7
 10
562.46114212760289
 20
289.78548534004215
 11
562.40128467599015
 21
288.89987963394082
  0
LINE
  8
_1-0_
  6
CONTINUOUS
 62
    7
 10
562.40128467599015
 20
288.89987963394082
 11
562.46114212760289
 21
288.01427392783949
  0
LINE
  8
_1-0_
  6
CONTINUOUS
 62
    7
 10
562.46114212760289
 20
288.01427392783949
 11
562.63889574406289
 21
287.15557690297993
  0
LINE
  8
_1-0_
  6
CONTINUOUS
 62
    7
 10
562.63889574406289
 20
287.15557690297993
 11
562.92914457168194
 21
286.34987963394081
  0
LINE
  8
_1-0_
  6
CONTINUOUS
 62
    7
 10
562.92914457168194
 20
286.34987963394081
 11
563.32306954670582
 21
285.62166282453949
  0
LINE
  8
_1-0_
  6
CONTINUOUS
 62
    7
 10
563.32306954670582
 20
285.62166282453949
 11
563.80870145810399
 21
284.99305297403401
  0
LINE
  8
_1-0_
  6
CONTINUOUS
 62
    7
 10
563.80870145810399
 20
284.99305297403401
 11
564.37128462599025
 21
284.4831500746402
  0
LINE
  8
_1-0_
  6
CONTINUOUS
 62
    7
 10
564.37128462599025
 20
284.4831500746402
 11
564.99372524548903
 21
284.10744726793268
  0
LINE
  8
_1-0_
  6
CONTINUOUS
 62
    7
 10
564.99372524548903
 20
284.10744726793268
 11
565.65711077334731
 21
283.87736009357854
  0
LINE
  8
_1-0_
  6
CONTINUOUS
 62
    7
 10
565.65711077334731
 20
283.87736009357854
 11
566.34128457599013
 21
283.7998796339408
  0
LINE
  8
_1-0_
  6
CONTINUOUS
 62
    7
 10
566.34128457599013
 20
283.7998796339408
 11
567.02545837863306
 21
283.87736009357854
  0
LINE
  8
_1-0_
  6
CONTINUOUS
 62
    7
 10
567.02545837863306
 20
283.87736009357854
 11
567.68884390649122
 21
284.10744726793268
  0
LINE
  8
_1-0_
  6
CONTINUOUS
 62
    7
 10
567.68884390649122
 20
284.10744726793268
 11
568.31128452599011
 21
284.4831500746402
  0
LINE
  8
_1-0_
  6
CONTINUOUS
 62
    7
 10
568.31128452599011
 20
284.4831500746402
 11
568.87386769387637
 21
284.99305297403401
  0
LINE
  8
_1-0_
  6
CONTINUOUS
 62
    7
 10
568.87386769387637
 20
284.99305297403401
 11
569.35949960527455
 21
285.62166282453944
  0
LINE
  8
_1-0_
  6
CONTINUOUS
 62
    7
 10
569.35949960527455
 20
285.62166282453944
 11
569.75342458029831
 21
286.34987963394081
  0
LINE
  8
_1-0_
  6
CONTINUOUS
 62
    7
 10
569.75342458029831
 20
286.34987963394081
 11
570.04367340791736
 21
287.15557690297993
  0
LINE
  8
_1-0_
  6
CONTINUOUS
 62
    7
 10
570.04367340791736
 20
287.15557690297993
 11
570.22142702437747
 21
288.01427392783949
  0
LINE
  8
_1-0_
  6
CONTINUOUS
 62
    7
 10
570.22142702437747
 20
288.01427392783949
 11
570.28128447599021
 21
288.89987963394082
  0
LINE
  8
_1-0_
  6
CONTINUOUS
 62
    7
 10
570.28128447599021
 20
288.89987963394082
 11
570.22142702437747
 21
289.78548534004215
  0
LINE
  8
_1-0_
  6
CONTINUOUS
 62
    7
 10
570.22142702437747
 20
289.78548534004215
 11
570.04367340791736
 21
290.64418236490172
  0
LINE
  8
_1-0_
  6
CONTINUOUS
 62
    7
 10
570.04367340791736
 20
290.64418236490172
 11
569.75342458029831
 21
291.44987963394083
  0
LINE
  8
_1-0_
  6
CONTINUOUS
 62
    7
 10
569.75342458029831
 20
291.44987963394083
 11
569.35949960527455
 21
292.17809644334215
  0
LINE
  8
_1-0_
  6
CONTINUOUS
 62
    7
 10
569.35949960527455
 20
292.17809644334215
 11
568.87386769387637
 21
292.80670629384758
  0
LINE
  8
_1-0_
  6
CONTINUOUS
 62
    7
 10
568.87386769387637
 20
292.80670629384758
 11
568.31128452599023
 21
293.31660919324144
  0
LINE
  8
_1-0_
  6
CONTINUOUS
 62
    7
 10
568.31128452599023
 20
293.31660919324144
 11
567.68884390649122
 21
293.69231199994896
  0
LINE
  8
_1-0_
  6
CONTINUOUS
 62
    7
 10
567.68884390649122
 20
293.69231199994896
 11
567.02545837863306
 21
293.92239917430305
  0
LINE
  8
_1-0_
  6
CONTINUOUS
 62
    7
 10
567.02545837863306
 20
293.92239917430305
 11
566.34128457599013
 21
293.99987963394084
  0
LINE
  8
_1-0_
  6
CONTINUOUS
 62
    7
 10
550.75282857599017
 20
283.79988059394082
 11
552.12117621600555
 21
283.87736103899402
  0
LINE
  8
_1-0_
  6
CONTINUOUS
 62
    7
 10
552.12117621600555
 20
283.87736103899402
 11
553.44794730539638
 21
284.10744817003762
  0
LINE
  8
_1-0_
  6
CONTINUOUS
 62
    7
 10
553.44794730539638
 20
284.10744817003762
 11
554.69282857599012
 21
284.4831509060246
  0
LINE
  8
_1-0_
  6
CONTINUOUS
 62
    7
 10
554.69282857599012
 20
284.4831509060246
 11
555.81799494031997
 21
284.9930537094367
  0
LINE
  8
_1-0_
  6
CONTINUOUS
 62
    7
 10
555.81799494031997
 20
284.9930537094367
 11
556.78925878776772
 21
285.62166344161562
  0
LINE
  8
_1-0_
  6
CONTINUOUS
 62
    7
 10
556.78925878776772
 20
285.62166344161562
 11
557.57710875781151
 21
286.34988011394085
  0
LINE
  8
_1-0_
  6
CONTINUOUS
 62
    7
 10
557.57710875781151
 20
286.34988011394085
 11
558.15760642778309
 21
287.15557723131922
  0
LINE
  8
_1-0_
  6
CONTINUOUS
 62
    7
 10
558.15760642778309
 20
287.15557723131922
 11
558.51311366972629
 21
288.01427409454174
  0
LINE
  8
_1-0_
  6
CONTINUOUS
 62
    7
 10
558.51311366972629
 20
288.01427409454174
 11
558.63282857599017
 21
288.89987963394082
  0
LINE
  8
_1-0_
  6
CONTINUOUS
 62
    7
 10
558.63282857599017
 20
288.89987963394082
 11
558.51311366972629
 21
289.7854851733399
  0
LINE
  8
_1-0_
  6
CONTINUOUS
 62
    7
 10
558.51311366972629
 20
289.7854851733399
 11
558.15760642778309
 21
290.64418203656242
  0
LINE
  8
_1-0_
  6
CONTINUOUS
 62
    7
 10
558.15760642778309
 20
290.64418203656242
 11
557.57710875781151
 21
291.44987915394079
  0
LINE
  8
_1-0_
  6
CONTINUOUS
 62
    7
 10
557.57710875781151
 20
291.44987915394079
 11
556.78925878776772
 21
292.17809582626603
  0
LINE
  8
_1-0_
  6
CONTINUOUS
 62
    7
 10
556.78925878776772
 20
292.17809582626603
 11
555.81799494031997
 21
292.80670555844494
  0
LINE
  8
_1-0_
  6
CONTINUOUS
 62
    7
 10
555.81799494031997
 20
292.80670555844494
 11
554.69282857599012
 21
293.31660836185704
  0
LINE
  8
_1-0_
  6
CONTINUOUS
 62
    7
 10
554.69282857599012
 20
293.31660836185704
 11
553.44794730539638
 21
293.69231109784402
  0
LINE
  8
_1-0_
  6
CONTINUOUS
 62
    7
 10
553.44794730539638
 20
293.69231109784402
 11
552.12117621600555
 21
293.92239822888763
  0
LINE
  8
_1-0_
  6
CONTINUOUS
 62
    7
 10
552.12117621600555
 20
293.92239822888763
 11
550.75282857599017
 21
293.99987867394082
  0
LINE
  8
_1-0_
  6
CONTINUOUS
 62
    7
 10
607.35282857599008
 20
219.79987963394077
 11
607.35282857599008
 21
255.79987963394077
  0
LINE
  8
_1-0_
  6
CONTINUOUS
 62
    7
 10
606.95282761599014
 20
237.79987963394077
 11
606.87534717093694
 21
236.43153199392537
  0
LINE
  8
_1-0_
  6
CONTINUOUS
 62
    7
 10
606.87534717093694
 20
236.43153199392537
 11
606.64526003989328
 21
235.10476090453454
  0
LINE
  8
_1-0_
  6
CONTINUOUS
 62
    7
 10
606.64526003989328
 20
235.10476090453454
 11
606.26955730390636
 21
233.85987963394077
  0
LINE
  8
_1-0_
  6
CONTINUOUS
 62
    7
 10
606.26955730390636
 20
233.85987963394077
 11
605.7596545004942
 21
232.73471326961083
  0
LINE
  8
_1-0_
  6
CONTINUOUS
 62
    7
 10
605.7596545004942
 20
232.73471326961083
 11
605.1310447683154
 21
231.76344942216323
  0
LINE
  8
_1-0_
  6
CONTINUOUS
 62
    7
 10
605.1310447683154
 20
231.76344942216323
 11
604.40282809599011
 21
230.97559945211941
  0
LINE
  8
_1-0_
  6
CONTINUOUS
 62
    7
 10
604.40282809599011
 20
230.97559945211941
 11
603.59713097861163
 21
230.39510178214783
  0
LINE
  8
_1-0_
  6
CONTINUOUS
 62
    7
 10
603.59713097861163
 20
230.39510178214783
 11
602.73843411538916
 21
230.03959454020457
  0
LINE
  8
_1-0_
  6
CONTINUOUS
 62
    7
 10
602.73843411538916
 20
230.03959454020457
 11
601.85282857599008
 21
229.91987963394075
  0
LINE
  8
_1-0_
  6
CONTINUOUS
 62
    7
 10
601.85282857599008
 20
229.91987963394075
 11
600.96722303659112
 21
230.03959454020457
  0
LINE
  8
_1-0_
  6
CONTINUOUS
 62
    7
 10
600.96722303659112
 20
230.03959454020457
 11
600.10852617336854
 21
230.39510178214783
  0
LINE
  8
_1-0_
  6
CONTINUOUS
 62
    7
 10
600.10852617336854
 20
230.39510178214783
 11
599.30282905599017
 21
230.97559945211941
  0
LINE
  8
_1-0_
  6
CONTINUOUS
 62
    7
 10
599.30282905599017
 20
230.97559945211941
 11
598.57461238366488
 21
231.76344942216323
  0
LINE
  8
_1-0_
  6
CONTINUOUS
 62
    7
 10
598.57461238366488
 20
231.76344942216323
 11
597.94600265148596
 21
232.73471326961083
  0
LINE
  8
_1-0_
  6
CONTINUOUS
 62
    7
 10
597.94600265148596
 20
232.73471326961083
 11
597.43609984807392
 21
233.85987963394077
  0
LINE
  8
_1-0_
  6
CONTINUOUS
 62
    7
 10
597.43609984807392
 20
233.85987963394077
 11
597.060397112087
 21
235.10476090453448
  0
LINE
  8
_1-0_
  6
CONTINUOUS
 62
    7
 10
597.060397112087
 20
235.10476090453448
 11
596.83030998104334
 21
236.43153199392537
  0
LINE
  8
_1-0_
  6
CONTINUOUS
 62
    7
 10
596.83030998104334
 20
236.43153199392537
 11
596.75282953599014
 21
237.79987963394077
  0
LINE
  8
_1-0_
  6
CONTINUOUS
 62
    7
 10
606.95282857599011
 20
253.38833763394086
 11
606.87534811635237
 21
254.07251143658376
  0
LINE
  8
_1-0_
  6
CONTINUOUS
 62
    7
 10
606.87534811635237
 20
254.07251143658376
 11
606.64526094199823
 21
254.73589696444196
  0
LINE
  8
_1-0_
  6
CONTINUOUS
 62
    7
 10
606.64526094199823
 20
254.73589696444196
 11
606.2695581352907
 21
255.35833758394088
  0
LINE
  8
_1-0_
  6
CONTINUOUS
 62
    7
 10
606.2695581352907
 20
255.35833758394088
 11
605.75965523589695
 21
255.92092075182708
  0
LINE
  8
_1-0_
  6
CONTINUOUS
 62
    7
 10
605.75965523589695
 20
255.92092075182708
 11
605.13104538539141
 21
256.40655266322517
  0
LINE
  8
_1-0_
  6
CONTINUOUS
 62
    7
 10
605.13104538539141
 20
256.40655266322517
 11
604.40282857599015
 21
256.80047763824899
  0
LINE
  8
_1-0_
  6
CONTINUOUS
 62
    7
 10
604.40282857599015
 20
256.80047763824899
 11
603.59713130695104
 21
257.0907264658681
  0
LINE
  8
_1-0_
  6
CONTINUOUS
 62
    7
 10
603.59713130695104
 20
257.0907264658681
 11
602.73843428209147
 21
257.26848008232821
  0
LINE
  8
_1-0_
  6
CONTINUOUS
 62
    7
 10
602.73843428209147
 20
257.26848008232821
 11
601.85282857599008
 21
257.32833753394089
  0
LINE
  8
_1-0_
  6
CONTINUOUS
 62
    7
 10
601.85282857599008
 20
257.32833753394089
 11
600.96722286988881
 21
257.26848008232821
  0
LINE
  8
_1-0_
  6
CONTINUOUS
 62
    7
 10
600.96722286988881
 20
257.26848008232821
 11
600.10852584502913
 21
257.0907264658681
  0
LINE
  8
_1-0_
  6
CONTINUOUS
 62
    7
 10
600.10852584502913
 20
257.0907264658681
 11
599.30282857599013
 21
256.80047763824899
  0
LINE
  8
_1-0_
  6
CONTINUOUS
 62
    7
 10
599.30282857599013
 20
256.80047763824899
 11
598.57461176658875
 21
256.40655266322517
  0
LINE
  8
_1-0_
  6
CONTINUOUS
 62
    7
 10
598.57461176658875
 20
256.40655266322517
 11
597.94600191608333
 21
255.92092075182708
  0
LINE
  8
_1-0_
  6
CONTINUOUS
 62
    7
 10
597.94600191608333
 20
255.92092075182708
 11
597.43609901668946
 21
255.35833758394088
  0
LINE
  8
_1-0_
  6
CONTINUOUS
 62
    7
 10
597.43609901668946
 20
255.35833758394088
 11
597.06039620998194
 21
254.73589696444201
  0
LINE
  8
_1-0_
  6
CONTINUOUS
 62
    7
 10
597.06039620998194
 20
254.73589696444201
 11
596.8303090356278
 21
254.07251143658376
  0
LINE
  8
_1-0_
  6
CONTINUOUS
 62
    7
 10
596.8303090356278
 20
254.07251143658376
 11
596.75282857599017
 21
253.38833763394086
  0
LINE
  8
_1-0_
  6
CONTINUOUS
 62
    7
 10
596.75282857599017
 20
253.38833763394086
 11
596.8303090356278
 21
252.70416383129798
  0
LINE
  8
_1-0_
  6
CONTINUOUS
 62
    7
 10
596.8303090356278
 20
252.70416383129798
 11
597.06039620998194
 21
252.04077830343976
  0
LINE
  8
_1-0_
  6
CONTINUOUS
 62
    7
 10
597.06039620998194
 20
252.04077830343976
 11
597.43609901668946
 21
251.41833768394084
  0
LINE
  8
_1-0_
  6
CONTINUOUS
 62
    7
 10
597.43609901668946
 20
251.41833768394084
 11
597.94600191608333
 21
250.85575451605467
  0
LINE
  8
_1-0_
  6
CONTINUOUS
 62
    7
 10
597.94600191608333
 20
250.85575451605467
 11
598.57461176658875
 21
250.37012260465652
  0
LINE
  8
_1-0_
  6
CONTINUOUS
 62
    7
 10
598.57461176658875
 20
250.37012260465652
 11
599.30282857599013
 21
249.97619762963273
  0
LINE
  8
_1-0_
  6
CONTINUOUS
 62
    7
 10
599.30282857599013
 20
249.97619762963273
 11
600.10852584502913
 21
249.68594880201368
  0
LINE
  8
_1-0_
  6
CONTINUOUS
 62
    7
 10
600.10852584502913
 20
249.68594880201368
 11
600.96722286988881
 21
249.50819518555354
  0
LINE
  8
_1-0_
  6
CONTINUOUS
 62
    7
 10
600.96722286988881
 20
249.50819518555354
 11
601.85282857599008
 21
249.44833773394083
  0
LINE
  8
_1-0_
  6
CONTINUOUS
 62
    7
 10
601.85282857599008
 20
249.44833773394083
 11
602.73843428209147
 21
249.50819518555354
  0
LINE
  8
_1-0_
  6
CONTINUOUS
 62
    7
 10
602.73843428209147
 20
249.50819518555354
 11
603.59713130695104
 21
249.68594880201362
  0
LINE
  8
_1-0_
  6
CONTINUOUS
 62
    7
 10
603.59713130695104
 20
249.68594880201362
 11
604.40282857599015
 21
249.97619762963273
  0
LINE
  8
_1-0_
  6
CONTINUOUS
 62
    7
 10
604.40282857599015
 20
249.97619762963273
 11
605.13104538539141
 21
250.37012260465652
  0
LINE
  8
_1-0_
  6
CONTINUOUS
 62
    7
 10
605.13104538539141
 20
250.37012260465652
 11
605.75965523589695
 21
250.85575451605464
  0
LINE
  8
_1-0_
  6
CONTINUOUS
 62
    7
 10
605.75965523589695
 20
250.85575451605464
 11
606.2695581352907
 21
251.41833768394084
  0
LINE
  8
_1-0_
  6
CONTINUOUS
 62
    7
 10
606.2695581352907
 20
251.41833768394084
 11
606.64526094199823
 21
252.0407783034397
  0
LINE
  8
_1-0_
  6
CONTINUOUS
 62
    7
 10
606.64526094199823
 20
252.0407783034397
 11
606.87534811635237
 21
252.70416383129796
  0
LINE
  8
_1-0_
  6
CONTINUOUS
 62
    7
 10
606.87534811635237
 20
252.70416383129796
 11
606.95282857599011
 21
253.38833763394086
  0
ARC
  8
_1-0_
  6
CONTINUOUS
 62
    7
 10
601.85282857599008
 20
228.1415476339408
 40
9.9916660000000021
 50
236.60151200000001
 51
303.39848799999998
  0
LINE
  8
_1-0_
  6
CONTINUOUS
 62
    7
 10
596.35282857599008
 20
219.79987963394077
 11
596.35282857599008
 21
255.79987963394077
  0
ARC
  8
_1-0_
  6
CONTINUOUS
 62
    7
 10
601.85282857599008
 20
247.4582136339408
 40
9.9916660000000021
 50
56.601511999999999
 51
123.39848800000001
  0
ARC
  8
_1-0_
  6
CONTINUOUS
 62
    7
 10
589.12944657599018
 20
241.75558763394087
 40
28
 50
192.69502799999997
 51
231.64050999999997
  0
ARC
  8
_1-0_
  6
CONTINUOUS
 62
    7
 10
571.56948057599015
 20
237.79987963394077
 40
10
 50
180
 51
192.695028
  0
ARC
  8
_1-0_
  6
CONTINUOUS
 62
    7
 10
589.12944657599018
 20
233.84417163394081
 40
28
 50
128.35948999999999
 51
167.30497199999999
  0
LINE
  8
_1-0_
  6
CONTINUOUS
 62
    7
 10
529.75282857599017
 20
277.7998796339408
 11
571.75282857599017
 21
277.7998796339408
  0
ARC
  8
_1-0_
  6
CONTINUOUS
 62
    7
 10
530.25282857599017
 20
280.2998796339408
 40
0.5
 50
90
 51
180
  0
ARC
  8
_1-0_
  6
CONTINUOUS
 62
    7
 10
571.25282857599017
 20
280.2998796339408
 40
0.5
 50
0
 51
90
  0
LINE
  8
_1-0_
  6
CONTINUOUS
 62
    7
 10
530.25282857599017
 20
280.7998796339408
 11
571.25282857599017
 21
280.7998796339408
  0
LINE
  8
_1-0_
  6
CONTINUOUS
 62
    7
 10
565.75282857599017
 20
280.7998796339408
 11
565.75282857599017
 21
283.39987963394082
  0
LINE
  8
_1-0_
  6
CONTINUOUS
 62
    7
 10
566.60282857599008
 20
280.7998796339408
 11
566.60282857599008
 21
283.39987963394082
  0
LINE
  8
_1-0_
  6
CONTINUOUS
 62
    7
 10
535.75282857599017
 20
280.7998796339408
 11
535.75282857599017
 21
283.39987963394082
  0
LINE
  8
_1-0_
  6
CONTINUOUS
 62
    7
 10
534.90282857599027
 20
280.7998796339408
 11
534.90282857599027
 21
283.39987963394082
  0
LINE
  8
_1-0_
  6
CONTINUOUS
 62
    7
 10
593.75282857599017
 20
222.79987963394077
 11
596.35282857599008
 21
222.79987963394077
  0
LINE
  8
_1-0_
  6
CONTINUOUS
 62
    7
 10
593.75282857599017
 20
221.94987963394078
 11
596.35282857599008
 21
221.94987963394078
  0
LINE
  8
_1-0_
  6
CONTINUOUS
 62
    7
 10
593.75282857599017
 20
252.79987963394077
 11
596.35282857599008
 21
252.79987963394077
  0
LINE
  8
_1-0_
  6
CONTINUOUS
 62
    7
 10
593.75282857599017
 20
253.64987963394082
 11
596.35282857599008
 21
253.64987963394082
  0
ARC
  8
_1-0_
  6
CONTINUOUS
 62
    7
 10
593.25282857599017
 20
220.29987963394077
 40
0.5
 50
270
 51
0
  0
ARC
  8
_1-0_
  6
CONTINUOUS
 62
    7
 10
593.25282857599017
 20
255.29987963394077
 40
0.5
 50
0
 51
90
  0
LINE
  8
_1-0_
  6
CONTINUOUS
 62
    7
 10
593.75282857599017
 20
255.29987963394077
 11
593.75282857599017
 21
220.29987963394077
  0
ARC
  8
_1-0_
  6
CONTINUOUS
 62
    7
 10
571.56948057599015
 20
237.79987963394077
 40
10
 50
167.30497199999999
 51
180
  0
LINE
  8
_1-0_
  6
CONTINUOUS
 62
    7
 10
571.75282857599017
 20
219.79987963394077
 11
593.25282857599017
 21
219.79987963394077
  0
LINE
  8
_1-0_
  6
CONTINUOUS
 62
    7
 10
571.75282857599017
 20
255.79987963394077
 11
593.25282857599017
 21
255.79987963394077
  0
LINE
  8
_1-0_
  6
CONTINUOUS
 62
    7
 10
571.75282857599017
 20
280.2998796339408
 11
571.75282857599017
 21
255.79987963394077
  0
LINE
  8
_1-0_
  6
CONTINUOUS
 62
    7
 10
782.35282857599031
 20
225.29987963394077
 11
782.35282857599031
 21
250.29987963394077
  0
LINE
  8
_1-0_
  6
CONTINUOUS
 62
    7
 10
607.35282857599008
 20
250.29987963394077
 11
662.64501457599021
 21
250.29987963394077
  0
LINE
  8
_1-0_
  6
CONTINUOUS
 62
    7
 10
596.75282953599014
 20
237.79987963394077
 11
596.83030998104334
 21
236.43153199392537
  0
LINE
  8
_1-0_
  6
CONTINUOUS
 62
    7
 10
596.83030998104334
 20
236.43153199392537
 11
597.060397112087
 21
235.10476090453454
  0
LINE
  8
_1-0_
  6
CONTINUOUS
 62
    7
 10
597.060397112087
 20
235.10476090453454
 11
597.43609984807392
 21
233.85987963394077
  0
LINE
  8
_1-0_
  6
CONTINUOUS
 62
    7
 10
597.43609984807392
 20
233.85987963394077
 11
597.94600265148596
 21
232.73471326961083
  0
LINE
  8
_1-0_
  6
CONTINUOUS
 62
    7
 10
597.94600265148596
 20
232.73471326961083
 11
598.57461238366488
 21
231.76344942216323
  0
LINE
  8
_1-0_
  6
CONTINUOUS
 62
    7
 10
598.57461238366488
 20
231.76344942216323
 11
599.30282905599017
 21
230.97559945211941
  0
LINE
  8
_1-0_
  6
CONTINUOUS
 62
    7
 10
599.30282905599017
 20
230.97559945211941
 11
600.10852617336854
 21
230.39510178214783
  0
LINE
  8
_1-0_
  6
CONTINUOUS
 62
    7
 10
600.10852617336854
 20
230.39510178214783
 11
600.96722303659112
 21
230.03959454020457
  0
LINE
  8
_1-0_
  6
CONTINUOUS
 62
    7
 10
600.96722303659112
 20
230.03959454020457
 11
601.85282857599008
 21
229.91987963394075
  0
LINE
  8
_1-0_
  6
CONTINUOUS
 62
    7
 10
601.85282857599008
 20
229.91987963394075
 11
602.73843411538916
 21
230.03959454020457
  0
LINE
  8
_1-0_
  6
CONTINUOUS
 62
    7
 10
602.73843411538916
 20
230.03959454020457
 11
603.59713097861163
 21
230.39510178214783
  0
LINE
  8
_1-0_
  6
CONTINUOUS
 62
    7
 10
603.59713097861163
 20
230.39510178214783
 11
604.40282809599011
 21
230.97559945211941
  0
LINE
  8
_1-0_
  6
CONTINUOUS
 62
    7
 10
604.40282809599011
 20
230.97559945211941
 11
605.1310447683154
 21
231.76344942216323
  0
LINE
  8
_1-0_
  6
CONTINUOUS
 62
    7
 10
605.1310447683154
 20
231.76344942216323
 11
605.7596545004942
 21
232.73471326961083
  0
LINE
  8
_1-0_
  6
CONTINUOUS
 62
    7
 10
605.7596545004942
 20
232.73471326961083
 11
606.26955730390636
 21
233.85987963394077
  0
LINE
  8
_1-0_
  6
CONTINUOUS
 62
    7
 10
606.26955730390636
 20
233.85987963394077
 11
606.64526003989328
 21
235.10476090453448
  0
LINE
  8
_1-0_
  6
CONTINUOUS
 62
    7
 10
606.64526003989328
 20
235.10476090453448
 11
606.87534717093694
 21
236.43153199392537
  0
LINE
  8
_1-0_
  6
CONTINUOUS
 62
    7
 10
606.87534717093694
 20
236.43153199392537
 11
606.95282761599014
 21
237.79987963394077
  0
LINE
  8
_1-0_
  6
CONTINUOUS
 62
    7
 10
606.95282857599011
 20
222.21142363394082
 11
606.87534811635237
 21
222.89559743658372
  0
LINE
  8
_1-0_
  6
CONTINUOUS
 62
    7
 10
606.87534811635237
 20
222.89559743658372
 11
606.64526094199823
 21
223.55898296444192
  0
LINE
  8
_1-0_
  6
CONTINUOUS
 62
    7
 10
606.64526094199823
 20
223.55898296444192
 11
606.2695581352907
 21
224.18142358394084
  0
LINE
  8
_1-0_
  6
CONTINUOUS
 62
    7
 10
606.2695581352907
 20
224.18142358394084
 11
605.75965523589695
 21
224.74400675182704
  0
LINE
  8
_1-0_
  6
CONTINUOUS
 62
    7
 10
605.75965523589695
 20
224.74400675182704
 11
605.13104538539141
 21
225.22963866322515
  0
LINE
  8
_1-0_
  6
CONTINUOUS
 62
    7
 10
605.13104538539141
 20
225.22963866322515
 11
604.40282857599015
 21
225.62356363824898
  0
LINE
  8
_1-0_
  6
CONTINUOUS
 62
    7
 10
604.40282857599015
 20
225.62356363824898
 11
603.59713130695104
 21
225.91381246586806
  0
LINE
  8
_1-0_
  6
CONTINUOUS
 62
    7
 10
603.59713130695104
 20
225.91381246586806
 11
602.73843428209147
 21
226.09156608232814
  0
LINE
  8
_1-0_
  6
CONTINUOUS
 62
    7
 10
602.73843428209147
 20
226.09156608232814
 11
601.85282857599008
 21
226.15142353394082
  0
LINE
  8
_1-0_
  6
CONTINUOUS
 62
    7
 10
601.85282857599008
 20
226.15142353394082
 11
600.96722286988881
 21
226.09156608232814
  0
LINE
  8
_1-0_
  6
CONTINUOUS
 62
    7
 10
600.96722286988881
 20
226.09156608232814
 11
600.10852584502913
 21
225.91381246586806
  0
LINE
  8
_1-0_
  6
CONTINUOUS
 62
    7
 10
600.10852584502913
 20
225.91381246586806
 11
599.30282857599013
 21
225.62356363824898
  0
LINE
  8
_1-0_
  6
CONTINUOUS
 62
    7
 10
599.30282857599013
 20
225.62356363824898
 11
598.57461176658875
 21
225.22963866322515
  0
LINE
  8
_1-0_
  6
CONTINUOUS
 62
    7
 10
598.57461176658875
 20
225.22963866322515
 11
597.94600191608333
 21
224.74400675182704
  0
LINE
  8
_1-0_
  6
CONTINUOUS
 62
    7
 10
597.94600191608333
 20
224.74400675182704
 11
597.43609901668946
 21
224.18142358394084
  0
LINE
  8
_1-0_
  6
CONTINUOUS
 62
    7
 10
597.43609901668946
 20
224.18142358394084
 11
597.06039620998194
 21
223.55898296444195
  0
LINE
  8
_1-0_
  6
CONTINUOUS
 62
    7
 10
597.06039620998194
 20
223.55898296444195
 11
596.8303090356278
 21
222.89559743658372
  0
LINE
  8
_1-0_
  6
CONTINUOUS
 62
    7
 10
596.8303090356278
 20
222.89559743658372
 11
596.75282857599017
 21
222.21142363394082
  0
LINE
  8
_1-0_
  6
CONTINUOUS
 62
    7
 10
596.75282857599017
 20
222.21142363394082
 11
596.8303090356278
 21
221.52724983129797
  0
LINE
  8
_1-0_
  6
CONTINUOUS
 62
    7
 10
596.8303090356278
 20
221.52724983129797
 11
597.06039620998194
 21
220.86386430343972
  0
LINE
  8
_1-0_
  6
CONTINUOUS
 62
    7
 10
597.06039620998194
 20
220.86386430343972
 11
597.43609901668946
 21
220.2414236839408
  0
LINE
  8
_1-0_
  6
CONTINUOUS
 62
    7
 10
597.43609901668946
 20
220.2414236839408
 11
597.94600191608333
 21
219.67884051605466
  0
LINE
  8
_1-0_
  6
CONTINUOUS
 62
    7
 10
597.94600191608333
 20
219.67884051605466
 11
598.57461176658875
 21
219.19320860465649
  0
LINE
  8
_1-0_
  6
CONTINUOUS
 62
    7
 10
598.57461176658875
 20
219.19320860465649
 11
599.30282857599013
 21
218.79928362963266
  0
LINE
  8
_1-0_
  6
CONTINUOUS
 62
    7
 10
599.30282857599013
 20
218.79928362963266
 11
600.10852584502913
 21
218.50903480201361
  0
LINE
  8
_1-0_
  6
CONTINUOUS
 62
    7
 10
600.10852584502913
 20
218.50903480201361
 11
600.96722286988881
 21
218.3312811855535
  0
LINE
  8
_1-0_
  6
CONTINUOUS
 62
    7
 10
600.96722286988881
 20
218.3312811855535
 11
601.85282857599008
 21
218.27142373394082
  0
LINE
  8
_1-0_
  6
CONTINUOUS
 62
    7
 10
601.85282857599008
 20
218.27142373394082
 11
602.73843428209147
 21
218.3312811855535
  0
LINE
  8
_1-0_
  6
CONTINUOUS
 62
    7
 10
602.73843428209147
 20
218.3312811855535
 11
603.59713130695104
 21
218.50903480201358
  0
LINE
  8
_1-0_
  6
CONTINUOUS
 62
    7
 10
603.59713130695104
 20
218.50903480201358
 11
604.40282857599015
 21
218.79928362963266
  0
LINE
  8
_1-0_
  6
CONTINUOUS
 62
    7
 10
604.40282857599015
 20
218.79928362963266
 11
605.13104538539141
 21
219.19320860465649
  0
LINE
  8
_1-0_
  6
CONTINUOUS
 62
    7
 10
605.13104538539141
 20
219.19320860465649
 11
605.75965523589695
 21
219.6788405160546
  0
LINE
  8
_1-0_
  6
CONTINUOUS
 62
    7
 10
605.75965523589695
 20
219.6788405160546
 11
606.2695581352907
 21
220.2414236839408
  0
LINE
  8
_1-0_
  6
CONTINUOUS
 62
    7
 10
606.2695581352907
 20
220.2414236839408
 11
606.64526094199823
 21
220.86386430343969
  0
LINE
  8
_1-0_
  6
CONTINUOUS
 62
    7
 10
606.64526094199823
 20
220.86386430343969
 11
606.87534811635237
 21
221.52724983129792
  0
LINE
  8
_1-0_
  6
CONTINUOUS
 62
    7
 10
606.87534811635237
 20
221.52724983129792
 11
606.95282857599011
 21
222.21142363394082
  0
LINE
  8
_1-0_
  6
CONTINUOUS
 62
    7
 10
757.35282857599031
 20
250.29987963394077
 11
782.35282857599031
 21
250.29987963394077
  0
LINE
  8
_1-0_
  6
CONTINUOUS
 62
    7
 10
757.35282857599031
 20
225.29987963394077
 11
782.35282857599031
 21
225.29987963394077
  0
LINE
  8
_1-0_
  6
CONTINUOUS
 62
    7
 10
535.16437057599023
 20
293.99987963394084
 11
534.4801967733473
 21
293.9223991743031
  0
LINE
  8
_1-0_
  6
CONTINUOUS
 62
    7
 10
534.4801967733473
 20
293.9223991743031
 11
533.81681124548913
 21
293.69231199994896
  0
LINE
  8
_1-0_
  6
CONTINUOUS
 62
    7
 10
533.81681124548913
 20
293.69231199994896
 11
533.19437062599024
 21
293.31660919324144
  0
LINE
  8
_1-0_
  6
CONTINUOUS
 62
    7
 10
533.19437062599024
 20
293.31660919324144
 11
532.63178745810398
 21
292.80670629384763
  0
LINE
  8
_1-0_
  6
CONTINUOUS
 62
    7
 10
532.63178745810398
 20
292.80670629384763
 11
532.14615554670592
 21
292.17809644334215
  0
LINE
  8
_1-0_
  6
CONTINUOUS
 62
    7
 10
532.14615554670592
 20
292.17809644334215
 11
531.75223057168204
 21
291.44987963394083
  0
LINE
  8
_1-0_
  6
CONTINUOUS
 62
    7
 10
531.75223057168204
 20
291.44987963394083
 11
531.46198174406299
 21
290.64418236490172
  0
LINE
  8
_1-0_
  6
CONTINUOUS
 62
    7
 10
531.46198174406299
 20
290.64418236490172
 11
531.28422812760288
 21
289.78548534004215
  0
LINE
  8
_1-0_
  6
CONTINUOUS
 62
    7
 10
531.28422812760288
 20
289.78548534004215
 11
531.22437067599025
 21
288.89987963394082
  0
LINE
  8
_1-0_
  6
CONTINUOUS
 62
    7
 10
531.22437067599025
 20
288.89987963394082
 11
531.28422812760288
 21
288.01427392783949
  0
LINE
  8
_1-0_
  6
CONTINUOUS
 62
    7
 10
531.28422812760288
 20
288.01427392783949
 11
531.46198174406299
 21
287.15557690297993
  0
LINE
  8
_1-0_
  6
CONTINUOUS
 62
    7
 10
531.46198174406299
 20
287.15557690297993
 11
531.75223057168204
 21
286.34987963394081
  0
LINE
  8
_1-0_
  6
CONTINUOUS
 62
    7
 10
531.75223057168204
 20
286.34987963394081
 11
532.14615554670592
 21
285.62166282453949
  0
LINE
  8
_1-0_
  6
CONTINUOUS
 62
    7
 10
532.14615554670592
 20
285.62166282453949
 11
532.63178745810398
 21
284.99305297403401
  0
LINE
  8
_1-0_
  6
CONTINUOUS
 62
    7
 10
532.63178745810398
 20
284.99305297403401
 11
533.19437062599024
 21
284.4831500746402
  0
LINE
  8
_1-0_
  6
CONTINUOUS
 62
    7
 10
533.19437062599024
 20
284.4831500746402
 11
533.81681124548913
 21
284.10744726793268
  0
LINE
  8
_1-0_
  6
CONTINUOUS
 62
    7
 10
533.81681124548913
 20
284.10744726793268
 11
534.4801967733473
 21
283.87736009357854
  0
LINE
  8
_1-0_
  6
CONTINUOUS
 62
    7
 10
534.4801967733473
 20
283.87736009357854
 11
535.16437057599023
 21
283.7998796339408
  0
LINE
  8
_1-0_
  6
CONTINUOUS
 62
    7
 10
535.16437057599023
 20
283.7998796339408
 11
535.84854437863316
 21
283.87736009357854
  0
LINE
  8
_1-0_
  6
CONTINUOUS
 62
    7
 10
535.84854437863316
 20
283.87736009357854
 11
536.51192990649133
 21
284.10744726793268
  0
LINE
  8
_1-0_
  6
CONTINUOUS
 62
    7
 10
536.51192990649133
 20
284.10744726793268
 11
537.13437052599022
 21
284.4831500746402
  0
LINE
  8
_1-0_
  6
CONTINUOUS
 62
    7
 10
537.13437052599022
 20
284.4831500746402
 11
537.69695369387648
 21
284.99305297403401
  0
LINE
  8
_1-0_
  6
CONTINUOUS
 62
    7
 10
537.69695369387648
 20
284.99305297403401
 11
538.18258560527453
 21
285.62166282453944
  0
LINE
  8
_1-0_
  6
CONTINUOUS
 62
    7
 10
538.18258560527453
 20
285.62166282453944
 11
538.57651058029841
 21
286.34987963394081
  0
LINE
  8
_1-0_
  6
CONTINUOUS
 62
    7
 10
538.57651058029841
 20
286.34987963394081
 11
538.86675940791747
 21
287.15557690297993
  0
LINE
  8
_1-0_
  6
CONTINUOUS
 62
    7
 10
538.86675940791747
 20
287.15557690297993
 11
539.04451302437757
 21
288.01427392783949
  0
LINE
  8
_1-0_
  6
CONTINUOUS
 62
    7
 10
539.04451302437757
 20
288.01427392783949
 11
539.1043704759902
 21
288.89987963394082
  0
LINE
  8
_1-0_
  6
CONTINUOUS
 62
    7
 10
539.1043704759902
 20
288.89987963394082
 11
539.04451302437757
 21
289.78548534004215
  0
LINE
  8
_1-0_
  6
CONTINUOUS
 62
    7
 10
539.04451302437757
 20
289.78548534004215
 11
538.86675940791747
 21
290.64418236490172
  0
LINE
  8
_1-0_
  6
CONTINUOUS
 62
    7
 10
538.86675940791747
 20
290.64418236490172
 11
538.57651058029841
 21
291.44987963394083
  0
LINE
  8
_1-0_
  6
CONTINUOUS
 62
    7
 10
538.57651058029841
 20
291.44987963394083
 11
538.18258560527453
 21
292.17809644334215
  0
LINE
  8
_1-0_
  6
CONTINUOUS
 62
    7
 10
538.18258560527453
 20
292.17809644334215
 11
537.69695369387648
 21
292.80670629384758
  0
LINE
  8
_1-0_
  6
CONTINUOUS
 62
    7
 10
537.69695369387648
 20
292.80670629384758
 11
537.13437052599033
 21
293.31660919324144
  0
LINE
  8
_1-0_
  6
CONTINUOUS
 62
    7
 10
537.13437052599033
 20
293.31660919324144
 11
536.51192990649133
 21
293.69231199994896
  0
LINE
  8
_1-0_
  6
CONTINUOUS
 62
    7
 10
536.51192990649133
 20
293.69231199994896
 11
535.84854437863316
 21
293.92239917430305
  0
LINE
  8
_1-0_
  6
CONTINUOUS
 62
    7
 10
535.84854437863316
 20
293.92239917430305
 11
535.16437057599023
 21
293.99987963394084
  0
LINE
  8
_1-0_
  6
CONTINUOUS
 62
    7
 10
550.75282857599017
 20
293.99987867394082
 11
552.12117621600555
 21
293.92239822888763
  0
LINE
  8
_1-0_
  6
CONTINUOUS
 62
    7
 10
552.12117621600555
 20
293.92239822888763
 11
553.44794730539638
 21
293.69231109784402
  0
LINE
  8
_1-0_
  6
CONTINUOUS
 62
    7
 10
553.44794730539638
 20
293.69231109784402
 11
554.69282857599012
 21
293.31660836185704
  0
LINE
  8
_1-0_
  6
CONTINUOUS
 62
    7
 10
554.69282857599012
 20
293.31660836185704
 11
555.81799494031997
 21
292.80670555844494
  0
LINE
  8
_1-0_
  6
CONTINUOUS
 62
    7
 10
555.81799494031997
 20
292.80670555844494
 11
556.78925878776772
 21
292.17809582626603
  0
LINE
  8
_1-0_
  6
CONTINUOUS
 62
    7
 10
556.78925878776772
 20
292.17809582626603
 11
557.57710875781151
 21
291.44987915394079
  0
LINE
  8
_1-0_
  6
CONTINUOUS
 62
    7
 10
557.57710875781151
 20
291.44987915394079
 11
558.15760642778309
 21
290.64418203656242
  0
LINE
  8
_1-0_
  6
CONTINUOUS
 62
    7
 10
558.15760642778309
 20
290.64418203656242
 11
558.51311366972629
 21
289.7854851733399
  0
LINE
  8
_1-0_
  6
CONTINUOUS
 62
    7
 10
558.51311366972629
 20
289.7854851733399
 11
558.63282857599017
 21
288.89987963394082
  0
LINE
  8
_1-0_
  6
CONTINUOUS
 62
    7
 10
558.63282857599017
 20
288.89987963394082
 11
558.51311366972629
 21
288.01427409454174
  0
LINE
  8
_1-0_
  6
CONTINUOUS
 62
    7
 10
558.51311366972629
 20
288.01427409454174
 11
558.15760642778309
 21
287.15557723131922
  0
LINE
  8
_1-0_
  6
CONTINUOUS
 62
    7
 10
558.15760642778309
 20
287.15557723131922
 11
557.57710875781151
 21
286.34988011394085
  0
LINE
  8
_1-0_
  6
CONTINUOUS
 62
    7
 10
557.57710875781151
 20
286.34988011394085
 11
556.78925878776772
 21
285.62166344161562
  0
LINE
  8
_1-0_
  6
CONTINUOUS
 62
    7
 10
556.78925878776772
 20
285.62166344161562
 11
555.81799494032009
 21
284.9930537094367
  0
LINE
  8
_1-0_
  6
CONTINUOUS
 62
    7
 10
555.81799494032009
 20
284.9930537094367
 11
554.69282857599012
 21
284.4831509060246
  0
LINE
  8
_1-0_
  6
CONTINUOUS
 62
    7
 10
554.69282857599012
 20
284.4831509060246
 11
553.44794730539638
 21
284.10744817003762
  0
LINE
  8
_1-0_
  6
CONTINUOUS
 62
    7
 10
553.44794730539638
 20
284.10744817003762
 11
552.12117621600555
 21
283.87736103899402
  0
LINE
  8
_1-0_
  6
CONTINUOUS
 62
    7
 10
552.12117621600555
 20
283.87736103899402
 11
550.75282857599017
 21
283.79988059394082
  0
LINE
  8
_1-0_
  6
CONTINUOUS
 62
    7
 10
550.75282857599017
 20
355.59988059394083
 11
549.38448093597469
 21
355.67736103899403
  0
LINE
  8
_1-0_
  6
CONTINUOUS
 62
    7
 10
549.38448093597469
 20
355.67736103899403
 11
548.05770984658386
 21
355.90744817003763
  0
LINE
  8
_1-0_
  6
CONTINUOUS
 62
    7
 10
548.05770984658386
 20
355.90744817003763
 11
546.81282857599012
 21
356.28315090602461
  0
LINE
  8
_1-0_
  6
CONTINUOUS
 62
    7
 10
546.81282857599012
 20
356.28315090602461
 11
545.68766221166026
 21
356.79305370943677
  0
LINE
  8
_1-0_
  6
CONTINUOUS
 62
    7
 10
545.68766221166026
 20
356.79305370943677
 11
544.71639836421252
 21
357.42166344161563
  0
LINE
  8
_1-0_
  6
CONTINUOUS
 62
    7
 10
544.71639836421252
 20
357.42166344161563
 11
543.92854839416872
 21
358.14988011394086
  0
LINE
  8
_1-0_
  6
CONTINUOUS
 62
    7
 10
543.92854839416872
 20
358.14988011394086
 11
543.34805072419726
 21
358.95557723131929
  0
LINE
  8
_1-0_
  6
CONTINUOUS
 62
    7
 10
543.34805072419726
 20
358.95557723131929
 11
542.99254348225395
 21
359.81427409454175
  0
LINE
  8
_1-0_
  6
CONTINUOUS
 62
    7
 10
542.99254348225395
 20
359.81427409454175
 11
542.87282857599007
 21
360.69987963394089
  0
LINE
  8
_1-0_
  6
CONTINUOUS
 62
    7
 10
542.87282857599007
 20
360.69987963394089
 11
542.99254348225395
 21
361.58548517333997
  0
LINE
  8
_1-0_
  6
CONTINUOUS
 62
    7
 10
542.99254348225395
 20
361.58548517333997
 11
543.34805072419726
 21
362.44418203656243
  0
LINE
  8
_1-0_
  6
CONTINUOUS
 62
    7
 10
543.34805072419726
 20
362.44418203656243
 11
543.92854839416872
 21
363.24987915394086
  0
LINE
  8
_1-0_
  6
CONTINUOUS
 62
    7
 10
543.92854839416872
 20
363.24987915394086
 11
544.71639836421252
 21
363.97809582626609
  0
LINE
  8
_1-0_
  6
CONTINUOUS
 62
    7
 10
544.71639836421252
 20
363.97809582626609
 11
545.68766221166015
 21
364.60670555844501
  0
LINE
  8
_1-0_
  6
CONTINUOUS
 62
    7
 10
545.68766221166015
 20
364.60670555844501
 11
546.81282857599012
 21
365.11660836185711
  0
LINE
  8
_1-0_
  6
CONTINUOUS
 62
    7
 10
546.81282857599012
 20
365.11660836185711
 11
548.05770984658386
 21
365.49231109784409
  0
LINE
  8
_1-0_
  6
CONTINUOUS
 62
    7
 10
548.05770984658386
 20
365.49231109784409
 11
549.38448093597469
 21
365.72239822888769
  0
LINE
  8
_1-0_
  6
CONTINUOUS
 62
    7
 10
549.38448093597469
 20
365.72239822888769
 11
550.75282857599017
 21
365.79987867394089
  0
LINE
  8
_1-0_
  6
CONTINUOUS
 62
    7
 10
566.34128457599013
 20
355.59987963394087
 11
567.02545837863306
 21
355.67736009357861
  0
LINE
  8
_1-0_
  6
CONTINUOUS
 62
    7
 10
567.02545837863306
 20
355.67736009357861
 11
567.68884390649122
 21
355.90744726793275
  0
LINE
  8
_1-0_
  6
CONTINUOUS
 62
    7
 10
567.68884390649122
 20
355.90744726793275
 11
568.31128452599011
 21
356.28315007464027
  0
LINE
  8
_1-0_
  6
CONTINUOUS
 62
    7
 10
568.31128452599011
 20
356.28315007464027
 11
568.87386769387637
 21
356.79305297403408
  0
LINE
  8
_1-0_
  6
CONTINUOUS
 62
    7
 10
568.87386769387637
 20
356.79305297403408
 11
569.35949960527455
 21
357.42166282453956
  0
LINE
  8
_1-0_
  6
CONTINUOUS
 62
    7
 10
569.35949960527455
 20
357.42166282453956
 11
569.75342458029831
 21
358.14987963394088
  0
LINE
  8
_1-0_
  6
CONTINUOUS
 62
    7
 10
569.75342458029831
 20
358.14987963394088
 11
570.04367340791736
 21
358.95557690297994
  0
LINE
  8
_1-0_
  6
CONTINUOUS
 62
    7
 10
570.04367340791736
 20
358.95557690297994
 11
570.22142702437747
 21
359.8142739278395
  0
LINE
  8
_1-0_
  6
CONTINUOUS
 62
    7
 10
570.22142702437747
 20
359.8142739278395
 11
570.28128447599021
 21
360.69987963394089
  0
LINE
  8
_1-0_
  6
CONTINUOUS
 62
    7
 10
570.28128447599021
 20
360.69987963394089
 11
570.22142702437747
 21
361.58548534004222
  0
LINE
  8
_1-0_
  6
CONTINUOUS
 62
    7
 10
570.22142702437747
 20
361.58548534004222
 11
570.04367340791736
 21
362.44418236490179
  0
LINE
  8
_1-0_
  6
CONTINUOUS
 62
    7
 10
570.04367340791736
 20
362.44418236490179
 11
569.75342458029831
 21
363.24987963394084
  0
LINE
  8
_1-0_
  6
CONTINUOUS
 62
    7
 10
569.75342458029831
 20
363.24987963394084
 11
569.35949960527455
 21
363.97809644334222
  0
LINE
  8
_1-0_
  6
CONTINUOUS
 62
    7
 10
569.35949960527455
 20
363.97809644334222
 11
568.87386769387637
 21
364.60670629384765
  0
LINE
  8
_1-0_
  6
CONTINUOUS
 62
    7
 10
568.87386769387637
 20
364.60670629384765
 11
568.31128452599011
 21
365.11660919324151
  0
LINE
  8
_1-0_
  6
CONTINUOUS
 62
    7
 10
568.31128452599011
 20
365.11660919324151
 11
567.68884390649122
 21
365.49231199994903
  0
LINE
  8
_1-0_
  6
CONTINUOUS
 62
    7
 10
567.68884390649122
 20
365.49231199994903
 11
567.02545837863306
 21
365.72239917430317
  0
LINE
  8
_1-0_
  6
CONTINUOUS
 62
    7
 10
567.02545837863306
 20
365.72239917430317
 11
566.34128457599013
 21
365.79987963394086
  0
LINE
  8
_1-0_
  6
CONTINUOUS
 62
    7
 10
566.34128457599013
 20
365.79987963394086
 11
565.65711077334731
 21
365.72239917430317
  0
LINE
  8
_1-0_
  6
CONTINUOUS
 62
    7
 10
565.65711077334731
 20
365.72239917430317
 11
564.99372524548903
 21
365.49231199994903
  0
LINE
  8
_1-0_
  6
CONTINUOUS
 62
    7
 10
564.99372524548903
 20
365.49231199994903
 11
564.37128462599025
 21
365.11660919324151
  0
LINE
  8
_1-0_
  6
CONTINUOUS
 62
    7
 10
564.37128462599025
 20
365.11660919324151
 11
563.80870145810399
 21
364.60670629384765
  0
LINE
  8
_1-0_
  6
CONTINUOUS
 62
    7
 10
563.80870145810399
 20
364.60670629384765
 11
563.32306954670582
 21
363.97809644334222
  0
LINE
  8
_1-0_
  6
CONTINUOUS
 62
    7
 10
563.32306954670582
 20
363.97809644334222
 11
562.92914457168194
 21
363.24987963394084
  0
LINE
  8
_1-0_
  6
CONTINUOUS
 62
    7
 10
562.92914457168194
 20
363.24987963394084
 11
562.63889574406289
 21
362.44418236490179
  0
LINE
  8
_1-0_
  6
CONTINUOUS
 62
    7
 10
562.63889574406289
 20
362.44418236490179
 11
562.46114212760289
 21
361.58548534004222
  0
LINE
  8
_1-0_
  6
CONTINUOUS
 62
    7
 10
562.46114212760289
 20
361.58548534004222
 11
562.40128467599015
 21
360.69987963394089
  0
LINE
  8
_1-0_
  6
CONTINUOUS
 62
    7
 10
562.40128467599015
 20
360.69987963394089
 11
562.46114212760289
 21
359.8142739278395
  0
LINE
  8
_1-0_
  6
CONTINUOUS
 62
    7
 10
562.46114212760289
 20
359.8142739278395
 11
562.63889574406289
 21
358.95557690297994
  0
LINE
  8
_1-0_
  6
CONTINUOUS
 62
    7
 10
562.63889574406289
 20
358.95557690297994
 11
562.92914457168194
 21
358.14987963394088
  0
LINE
  8
_1-0_
  6
CONTINUOUS
 62
    7
 10
562.92914457168194
 20
358.14987963394088
 11
563.32306954670582
 21
357.42166282453956
  0
LINE
  8
_1-0_
  6
CONTINUOUS
 62
    7
 10
563.32306954670582
 20
357.42166282453956
 11
563.80870145810399
 21
356.79305297403413
  0
LINE
  8
_1-0_
  6
CONTINUOUS
 62
    7
 10
563.80870145810399
 20
356.79305297403413
 11
564.37128462599014
 21
356.28315007464027
  0
LINE
  8
_1-0_
  6
CONTINUOUS
 62
    7
 10
564.37128462599014
 20
356.28315007464027
 11
564.99372524548903
 21
355.90744726793275
  0
LINE
  8
_1-0_
  6
CONTINUOUS
 62
    7
 10
564.99372524548903
 20
355.90744726793275
 11
565.65711077334731
 21
355.67736009357861
  0
LINE
  8
_1-0_
  6
CONTINUOUS
 62
    7
 10
565.65711077334731
 20
355.67736009357861
 11
566.34128457599013
 21
355.59987963394087
  0
LINE
  8
_1-0_
  6
CONTINUOUS
 62
    7
 10
538.25282857599017
 20
294.39987963394082
 11
538.25282857599017
 21
355.19987963394089
  0
ARC
  8
_1-0_
  6
CONTINUOUS
 62
    7
 10
742.35282857599031
 20
266.2998796339408
 40
1
 50
90
 51
180
  0
ARC
  8
_1-0_
  6
CONTINUOUS
 62
    7
 10
742.35282857599031
 20
209.29987963394077
 40
1
 50
180
 51
270
  0
LINE
  8
_1-0_
  6
CONTINUOUS
 62
    7
 10
757.35282857599031
 20
267.2998796339408
 11
742.35282857599031
 21
267.2998796339408
  0
LINE
  8
_1-0_
  6
CONTINUOUS
 62
    7
 10
757.35282857599031
 20
208.29987963394077
 11
742.35282857599031
 21
208.29987963394077
  0
LINE
  8
_1-0_
  6
CONTINUOUS
 62
    7
 10
757.35282857599031
 20
208.29987963394077
 11
757.35282857599031
 21
267.2998796339408
  0
LINE
  8
_1-0_
  6
CONTINUOUS
 62
    7
 10
741.35282857599031
 20
209.29987963394077
 11
741.35282857599031
 21
266.2998796339408
  0
ARC
  8
_1-0_
  6
CONTINUOUS
 62
    7
 10
643.61376459326402
 20
244.04987958134188
 40
20.03125
 50
341.81944600000002
 51
18.180553999999954
  0
LINE
  8
_1-0_
  6
CONTINUOUS
 62
    7
 10
607.35282857599008
 20
225.29987963394077
 11
662.64501457599021
 21
225.29987963394077
  0
ARC
  8
_1-0_
  6
CONTINUOUS
 62
    7
 10
681.67626459326402
 20
231.54987958134188
 40
20.03125
 50
161.81944599999999
 51
198.18055368328936
  0
LINE
  8
_1-0_
  6
CONTINUOUS
 62
    7
 10
666.64501457599021
 20
250.29987963394077
 11
741.35282857599031
 21
250.29987963394077
  0
ARC
  8
_1-0_
  6
CONTINUOUS
 62
    7
 10
647.61376459326402
 20
244.04987958134188
 40
20.03125
 50
341.81944600000002
 51
18.180553999999894
  0
ARC
  8
_1-0_
  6
CONTINUOUS
 62
    7
 10
685.67626459326402
 20
231.54987958134188
 40
20.03125
 50
161.81944599999999
 51
198.18055368328936
  0
LINE
  8
_1-0_
  6
CONTINUOUS
 62
    7
 10
666.64501457599021
 20
225.29987963394077
 11
741.35282857599031
 21
225.29987963394077
  0
LINE
  8
_1-0_
  6
CONTINUOUS
 62
    7
 10
550.75282857599017
 20
355.59988059394083
 11
552.12117621600555
 21
355.67736103899403
  0
LINE
  8
_1-0_
  6
CONTINUOUS
 62
    7
 10
552.12117621600555
 20
355.67736103899403
 11
553.44794730539638
 21
355.90744817003763
  0
LINE
  8
_1-0_
  6
CONTINUOUS
 62
    7
 10
553.44794730539638
 20
355.90744817003763
 11
554.69282857599012
 21
356.28315090602461
  0
LINE
  8
_1-0_
  6
CONTINUOUS
 62
    7
 10
554.69282857599012
 20
356.28315090602461
 11
555.81799494031997
 21
356.79305370943677
  0
LINE
  8
_1-0_
  6
CONTINUOUS
 62
    7
 10
555.81799494031997
 20
356.79305370943677
 11
556.78925878776772
 21
357.42166344161563
  0
LINE
  8
_1-0_
  6
CONTINUOUS
 62
    7
 10
556.78925878776772
 20
357.42166344161563
 11
557.57710875781151
 21
358.14988011394086
  0
LINE
  8
_1-0_
  6
CONTINUOUS
 62
    7
 10
557.57710875781151
 20
358.14988011394086
 11
558.15760642778309
 21
358.95557723131929
  0
LINE
  8
_1-0_
  6
CONTINUOUS
 62
    7
 10
558.15760642778309
 20
358.95557723131929
 11
558.51311366972629
 21
359.81427409454175
  0
LINE
  8
_1-0_
  6
CONTINUOUS
 62
    7
 10
558.51311366972629
 20
359.81427409454175
 11
558.63282857599017
 21
360.69987963394089
  0
LINE
  8
_1-0_
  6
CONTINUOUS
 62
    7
 10
558.63282857599017
 20
360.69987963394089
 11
558.51311366972629
 21
361.58548517333997
  0
LINE
  8
_1-0_
  6
CONTINUOUS
 62
    7
 10
558.51311366972629
 20
361.58548517333997
 11
558.15760642778309
 21
362.44418203656243
  0
LINE
  8
_1-0_
  6
CONTINUOUS
 62
    7
 10
558.15760642778309
 20
362.44418203656243
 11
557.57710875781151
 21
363.24987915394086
  0
LINE
  8
_1-0_
  6
CONTINUOUS
 62
    7
 10
557.57710875781151
 20
363.24987915394086
 11
556.78925878776772
 21
363.97809582626609
  0
LINE
  8
_1-0_
  6
CONTINUOUS
 62
    7
 10
556.78925878776772
 20
363.97809582626609
 11
555.81799494031997
 21
364.60670555844501
  0
LINE
  8
_1-0_
  6
CONTINUOUS
 62
    7
 10
555.81799494031997
 20
364.60670555844501
 11
554.69282857599012
 21
365.11660836185711
  0
LINE
  8
_1-0_
  6
CONTINUOUS
 62
    7
 10
554.69282857599012
 20
365.11660836185711
 11
553.44794730539638
 21
365.49231109784409
  0
LINE
  8
_1-0_
  6
CONTINUOUS
 62
    7
 10
553.44794730539638
 20
365.49231109784409
 11
552.12117621600555
 21
365.72239822888769
  0
LINE
  8
_1-0_
  6
CONTINUOUS
 62
    7
 10
552.12117621600555
 20
365.72239822888769
 11
550.75282857599017
 21
365.79987867394089
  0
LINE
  8
_1-0_
  6
CONTINUOUS
 62
    7
 10
550.75282857599017
 20
365.79987867394089
 11
552.12117621600555
 21
365.72239822888769
  0
LINE
  8
_1-0_
  6
CONTINUOUS
 62
    7
 10
552.12117621600555
 20
365.72239822888769
 11
553.44794730539638
 21
365.49231109784409
  0
LINE
  8
_1-0_
  6
CONTINUOUS
 62
    7
 10
553.44794730539638
 20
365.49231109784409
 11
554.69282857599012
 21
365.11660836185711
  0
LINE
  8
_1-0_
  6
CONTINUOUS
 62
    7
 10
554.69282857599012
 20
365.11660836185711
 11
555.81799494031997
 21
364.60670555844501
  0
LINE
  8
_1-0_
  6
CONTINUOUS
 62
    7
 10
555.81799494031997
 20
364.60670555844501
 11
556.78925878776772
 21
363.97809582626609
  0
LINE
  8
_1-0_
  6
CONTINUOUS
 62
    7
 10
556.78925878776772
 20
363.97809582626609
 11
557.57710875781151
 21
363.24987915394086
  0
LINE
  8
_1-0_
  6
CONTINUOUS
 62
    7
 10
557.57710875781151
 20
363.24987915394086
 11
558.15760642778309
 21
362.44418203656243
  0
LINE
  8
_1-0_
  6
CONTINUOUS
 62
    7
 10
558.15760642778309
 20
362.44418203656243
 11
558.51311366972629
 21
361.58548517333997
  0
LINE
  8
_1-0_
  6
CONTINUOUS
 62
    7
 10
558.51311366972629
 20
361.58548517333997
 11
558.63282857599017
 21
360.69987963394089
  0
LINE
  8
_1-0_
  6
CONTINUOUS
 62
    7
 10
558.63282857599017
 20
360.69987963394089
 11
558.51311366972629
 21
359.81427409454175
  0
LINE
  8
_1-0_
  6
CONTINUOUS
 62
    7
 10
558.51311366972629
 20
359.81427409454175
 11
558.15760642778309
 21
358.95557723131929
  0
LINE
  8
_1-0_
  6
CONTINUOUS
 62
    7
 10
558.15760642778309
 20
358.95557723131929
 11
557.57710875781151
 21
358.14988011394086
  0
LINE
  8
_1-0_
  6
CONTINUOUS
 62
    7
 10
557.57710875781151
 20
358.14988011394086
 11
556.78925878776772
 21
357.42166344161563
  0
LINE
  8
_1-0_
  6
CONTINUOUS
 62
    7
 10
556.78925878776772
 20
357.42166344161563
 11
555.81799494032009
 21
356.79305370943677
  0
LINE
  8
_1-0_
  6
CONTINUOUS
 62
    7
 10
555.81799494032009
 20
356.79305370943677
 11
554.69282857599012
 21
356.28315090602461
  0
LINE
  8
_1-0_
  6
CONTINUOUS
 62
    7
 10
554.69282857599012
 20
356.28315090602461
 11
553.44794730539638
 21
355.90744817003763
  0
LINE
  8
_1-0_
  6
CONTINUOUS
 62
    7
 10
553.44794730539638
 20
355.90744817003763
 11
552.12117621600555
 21
355.67736103899403
  0
LINE
  8
_1-0_
  6
CONTINUOUS
 62
    7
 10
552.12117621600555
 20
355.67736103899403
 11
550.75282857599017
 21
355.59988059394083
  0
LINE
  8
_1-0_
  6
CONTINUOUS
 62
    7
 10
550.75282857599017
 20
293.99987867394082
 11
549.38448093597469
 21
293.92239822888763
  0
LINE
  8
_1-0_
  6
CONTINUOUS
 62
    7
 10
549.38448093597469
 20
293.92239822888763
 11
548.05770984658386
 21
293.69231109784402
  0
LINE
  8
_1-0_
  6
CONTINUOUS
 62
    7
 10
548.05770984658386
 20
293.69231109784402
 11
546.81282857599012
 21
293.31660836185704
  0
LINE
  8
_1-0_
  6
CONTINUOUS
 62
    7
 10
546.81282857599012
 20
293.31660836185704
 11
545.68766221166026
 21
292.80670555844494
  0
LINE
  8
_1-0_
  6
CONTINUOUS
 62
    7
 10
545.68766221166026
 20
292.80670555844494
 11
544.71639836421252
 21
292.17809582626603
  0
LINE
  8
_1-0_
  6
CONTINUOUS
 62
    7
 10
544.71639836421252
 20
292.17809582626603
 11
543.92854839416872
 21
291.44987915394079
  0
LINE
  8
_1-0_
  6
CONTINUOUS
 62
    7
 10
543.92854839416872
 20
291.44987915394079
 11
543.34805072419726
 21
290.64418203656242
  0
LINE
  8
_1-0_
  6
CONTINUOUS
 62
    7
 10
543.34805072419726
 20
290.64418203656242
 11
542.99254348225395
 21
289.7854851733399
  0
LINE
  8
_1-0_
  6
CONTINUOUS
 62
    7
 10
542.99254348225395
 20
289.7854851733399
 11
542.87282857599007
 21
288.89987963394082
  0
LINE
  8
_1-0_
  6
CONTINUOUS
 62
    7
 10
542.87282857599007
 20
288.89987963394082
 11
542.99254348225395
 21
288.01427409454174
  0
LINE
  8
_1-0_
  6
CONTINUOUS
 62
    7
 10
542.99254348225395
 20
288.01427409454174
 11
543.34805072419726
 21
287.15557723131922
  0
LINE
  8
_1-0_
  6
CONTINUOUS
 62
    7
 10
543.34805072419726
 20
287.15557723131922
 11
543.92854839416872
 21
286.34988011394085
  0
LINE
  8
_1-0_
  6
CONTINUOUS
 62
    7
 10
543.92854839416872
 20
286.34988011394085
 11
544.71639836421252
 21
285.62166344161562
  0
LINE
  8
_1-0_
  6
CONTINUOUS
 62
    7
 10
544.71639836421252
 20
285.62166344161562
 11
545.68766221166026
 21
284.9930537094367
  0
LINE
  8
_1-0_
  6
CONTINUOUS
 62
    7
 10
545.68766221166026
 20
284.9930537094367
 11
546.81282857599012
 21
284.4831509060246
  0
LINE
  8
_1-0_
  6
CONTINUOUS
 62
    7
 10
546.81282857599012
 20
284.4831509060246
 11
548.05770984658386
 21
284.10744817003762
  0
LINE
  8
_1-0_
  6
CONTINUOUS
 62
    7
 10
548.05770984658386
 20
284.10744817003762
 11
549.38448093597469
 21
283.87736103899402
  0
LINE
  8
_1-0_
  6
CONTINUOUS
 62
    7
 10
549.38448093597469
 20
283.87736103899402
 11
550.75282857599017
 21
283.79988059394082
  0
LINE
  8
_1-0_
  6
CONTINUOUS
 62
    7
 10
550.75282857599017
 20
283.79988059394082
 11
549.38448093597469
 21
283.87736103899402
  0
LINE
  8
_1-0_
  6
CONTINUOUS
 62
    7
 10
549.38448093597469
 20
283.87736103899402
 11
548.05770984658386
 21
284.10744817003762
  0
LINE
  8
_1-0_
  6
CONTINUOUS
 62
    7
 10
548.05770984658386
 20
284.10744817003762
 11
546.81282857599012
 21
284.4831509060246
  0
LINE
  8
_1-0_
  6
CONTINUOUS
 62
    7
 10
546.81282857599012
 20
284.4831509060246
 11
545.68766221166026
 21
284.9930537094367
  0
LINE
  8
_1-0_
  6
CONTINUOUS
 62
    7
 10
545.68766221166026
 20
284.9930537094367
 11
544.71639836421252
 21
285.62166344161562
  0
LINE
  8
_1-0_
  6
CONTINUOUS
 62
    7
 10
544.71639836421252
 20
285.62166344161562
 11
543.92854839416872
 21
286.34988011394085
  0
LINE
  8
_1-0_
  6
CONTINUOUS
 62
    7
 10
543.92854839416872
 20
286.34988011394085
 11
543.34805072419726
 21
287.15557723131922
  0
LINE
  8
_1-0_
  6
CONTINUOUS
 62
    7
 10
543.34805072419726
 20
287.15557723131922
 11
542.99254348225395
 21
288.01427409454174
  0
LINE
  8
_1-0_
  6
CONTINUOUS
 62
    7
 10
542.99254348225395
 20
288.01427409454174
 11
542.87282857599007
 21
288.89987963394082
  0
LINE
  8
_1-0_
  6
CONTINUOUS
 62
    7
 10
542.87282857599007
 20
288.89987963394082
 11
542.99254348225395
 21
289.7854851733399
  0
LINE
  8
_1-0_
  6
CONTINUOUS
 62
    7
 10
542.99254348225395
 20
289.7854851733399
 11
543.34805072419726
 21
290.64418203656242
  0
LINE
  8
_1-0_
  6
CONTINUOUS
 62
    7
 10
543.34805072419726
 20
290.64418203656242
 11
543.92854839416872
 21
291.44987915394079
  0
LINE
  8
_1-0_
  6
CONTINUOUS
 62
    7
 10
543.92854839416872
 20
291.44987915394079
 11
544.71639836421252
 21
292.17809582626603
  0
LINE
  8
_1-0_
  6
CONTINUOUS
 62
    7
 10
544.71639836421252
 20
292.17809582626603
 11
545.68766221166015
 21
292.80670555844494
  0
LINE
  8
_1-0_
  6
CONTINUOUS
 62
    7
 10
545.68766221166015
 20
292.80670555844494
 11
546.81282857599012
 21
293.31660836185704
  0
LINE
  8
_1-0_
  6
CONTINUOUS
 62
    7
 10
546.81282857599012
 20
293.31660836185704
 11
548.05770984658386
 21
293.69231109784402
  0
LINE
  8
_1-0_
  6
CONTINUOUS
 62
    7
 10
548.05770984658386
 20
293.69231109784402
 11
549.38448093597469
 21
293.92239822888763
  0
LINE
  8
_1-0_
  6
CONTINUOUS
 62
    7
 10
549.38448093597469
 20
293.92239822888763
 11
550.75282857599017
 21
293.99987867394082
  0
LINE
  8
_1-0_
  6
CONTINUOUS
 62
    7
 10
596.75282953599014
 20
237.79987963394077
 11
596.83030998104334
 21
239.1682272739562
  0
LINE
  8
_1-0_
  6
CONTINUOUS
 62
    7
 10
596.83030998104334
 20
239.1682272739562
 11
597.060397112087
 21
240.49499836334703
  0
LINE
  8
_1-0_
  6
CONTINUOUS
 62
    7
 10
597.060397112087
 20
240.49499836334703
 11
597.43609984807392
 21
241.7398796339408
  0
LINE
  8
_1-0_
  6
CONTINUOUS
 62
    7
 10
597.43609984807392
 20
241.7398796339408
 11
597.94600265148596
 21
242.86504599827071
  0
LINE
  8
_1-0_
  6
CONTINUOUS
 62
    7
 10
597.94600265148596
 20
242.86504599827071
 11
598.57461238366488
 21
243.83630984571831
  0
LINE
  8
_1-0_
  6
CONTINUOUS
 62
    7
 10
598.57461238366488
 20
243.83630984571831
 11
599.30282905599017
 21
244.62415981576214
  0
LINE
  8
_1-0_
  6
CONTINUOUS
 62
    7
 10
599.30282905599017
 20
244.62415981576214
 11
600.10852617336854
 21
245.20465748573374
  0
LINE
  8
_1-0_
  6
CONTINUOUS
 62
    7
 10
600.10852617336854
 20
245.20465748573374
 11
600.96722303659112
 21
245.56016472767697
  0
LINE
  8
_1-0_
  6
CONTINUOUS
 62
    7
 10
600.96722303659112
 20
245.56016472767697
 11
601.85282857599008
 21
245.67987963394079
  0
LINE
  8
_1-0_
  6
CONTINUOUS
 62
    7
 10
601.85282857599008
 20
245.67987963394079
 11
602.73843411538916
 21
245.56016472767697
  0
LINE
  8
_1-0_
  6
CONTINUOUS
 62
    7
 10
602.73843411538916
 20
245.56016472767697
 11
603.59713097861163
 21
245.20465748573374
  0
LINE
  8
_1-0_
  6
CONTINUOUS
 62
    7
 10
603.59713097861163
 20
245.20465748573374
 11
604.40282809599011
 21
244.62415981576214
  0
LINE
  8
_1-0_
  6
CONTINUOUS
 62
    7
 10
604.40282809599011
 20
244.62415981576214
 11
605.1310447683154
 21
243.83630984571831
  0
LINE
  8
_1-0_
  6
CONTINUOUS
 62
    7
 10
605.1310447683154
 20
243.83630984571831
 11
605.7596545004942
 21
242.86504599827071
  0
LINE
  8
_1-0_
  6
CONTINUOUS
 62
    7
 10
605.7596545004942
 20
242.86504599827071
 11
606.26955730390636
 21
241.7398796339408
  0
LINE
  8
_1-0_
  6
CONTINUOUS
 62
    7
 10
606.26955730390636
 20
241.7398796339408
 11
606.64526003989328
 21
240.49499836334706
  0
LINE
  8
_1-0_
  6
CONTINUOUS
 62
    7
 10
606.64526003989328
 20
240.49499836334706
 11
606.87534717093694
 21
239.1682272739562
  0
LINE
  8
_1-0_
  6
CONTINUOUS
 62
    7
 10
606.87534717093694
 20
239.1682272739562
 11
606.95282761599014
 21
237.79987963394077
  0
LINE
  8
_1-0_
  6
CONTINUOUS
 62
    7
 10
606.95282761599014
 20
237.79987963394077
 11
606.87534717093694
 21
239.1682272739562
  0
LINE
  8
_1-0_
  6
CONTINUOUS
 62
    7
 10
606.87534717093694
 20
239.1682272739562
 11
606.64526003989328
 21
240.49499836334703
  0
LINE
  8
_1-0_
  6
CONTINUOUS
 62
    7
 10
606.64526003989328
 20
240.49499836334703
 11
606.26955730390636
 21
241.7398796339408
  0
LINE
  8
_1-0_
  6
CONTINUOUS
 62
    7
 10
606.26955730390636
 20
241.7398796339408
 11
605.7596545004942
 21
242.86504599827071
  0
LINE
  8
_1-0_
  6
CONTINUOUS
 62
    7
 10
605.7596545004942
 20
242.86504599827071
 11
605.1310447683154
 21
243.83630984571831
  0
LINE
  8
_1-0_
  6
CONTINUOUS
 62
    7
 10
605.1310447683154
 20
243.83630984571831
 11
604.40282809599011
 21
244.62415981576214
  0
LINE
  8
_1-0_
  6
CONTINUOUS
 62
    7
 10
604.40282809599011
 20
244.62415981576214
 11
603.59713097861163
 21
245.20465748573374
  0
LINE
  8
_1-0_
  6
CONTINUOUS
 62
    7
 10
603.59713097861163
 20
245.20465748573374
 11
602.73843411538916
 21
245.56016472767697
  0
LINE
  8
_1-0_
  6
CONTINUOUS
 62
    7
 10
602.73843411538916
 20
245.56016472767697
 11
601.85282857599008
 21
245.67987963394079
  0
LINE
  8
_1-0_
  6
CONTINUOUS
 62
    7
 10
601.85282857599008
 20
245.67987963394079
 11
600.96722303659112
 21
245.56016472767697
  0
LINE
  8
_1-0_
  6
CONTINUOUS
 62
    7
 10
600.96722303659112
 20
245.56016472767697
 11
600.10852617336854
 21
245.20465748573374
  0
LINE
  8
_1-0_
  6
CONTINUOUS
 62
    7
 10
600.10852617336854
 20
245.20465748573374
 11
599.30282905599017
 21
244.62415981576214
  0
LINE
  8
_1-0_
  6
CONTINUOUS
 62
    7
 10
599.30282905599017
 20
244.62415981576214
 11
598.57461238366488
 21
243.83630984571831
  0
LINE
  8
_1-0_
  6
CONTINUOUS
 62
    7
 10
598.57461238366488
 20
243.83630984571831
 11
597.94600265148596
 21
242.86504599827071
  0
LINE
  8
_1-0_
  6
CONTINUOUS
 62
    7
 10
597.94600265148596
 20
242.86504599827071
 11
597.43609984807392
 21
241.7398796339408
  0
LINE
  8
_1-0_
  6
CONTINUOUS
 62
    7
 10
597.43609984807392
 20
241.7398796339408
 11
597.060397112087
 21
240.49499836334706
  0
LINE
  8
_1-0_
  6
CONTINUOUS
 62
    7
 10
597.060397112087
 20
240.49499836334706
 11
596.83030998104334
 21
239.1682272739562
  0
LINE
  8
_1-0_
  6
CONTINUOUS
 62
    7
 10
596.83030998104334
 20
239.1682272739562
 11
596.75282953599014
 21
237.79987963394077
  0
LINE
  8
_1-0_
  6
CONTINUOUS
 62
    4
 10
619.83490251594912
 20
343.7866747761659
 11
521.00282857598995
 21
343.7866747761659
  0
LINE
  8
_1-0_
  6
CONTINUOUS
 62
    7
 10
531.00282857598995
 20
343.7866747761659
 11
525.20727361825561
 21
342.23376050555077
  0
LINE
  8
_1-0_
  6
CONTINUOUS
 62
    7
 10
531.00282857598995
 20
343.7866747761659
 11
525.20727361825561
 21
345.33958904678104
  0
LINE
  8
_1-0_
  6
CONTINUOUS
 62
    7
 10
570.50282857598995
 20
343.7866747761659
 11
576.29838353372451
 21
345.33958904678104
  0
LINE
  8
_1-0_
  6
CONTINUOUS
 62
    7
 10
570.50282857598995
 20
343.7866747761659
 11
576.29838353372451
 21
342.23376050555077
  0
LINE
  8
_1-0_
  6
CONTINUOUS
 62
    4
 10
570.50282857598995
 20
343.7866747761659
 11
570.50282857598995
 21
360.69987963394089
  0
LINE
  8
_1-0_
  6
CONTINUOUS
 62
    4
 10
531.00282857598995
 20
343.7866747761659
 11
531.00282857598995
 21
360.69987963394089
  0
LINE
  8
_1-0_
  6
CONTINUOUS
 62
    4
 10
479.19450125801449
 20
305.19810137728109
 11
580.50282857598995
 21
305.19810137728109
  0
LINE
  8
_1-0_
  6
CONTINUOUS
 62
    7
 10
531.00282857598995
 20
305.19810137728109
 11
525.20727361825561
 21
303.64518710666607
  0
LINE
  8
_1-0_
  6
CONTINUOUS
 62
    7
 10
531.00282857598995
 20
305.19810137728109
 11
525.20727361825561
 21
306.75101564789622
  0
LINE
  8
_1-0_
  6
CONTINUOUS
 62
    7
 10
570.50282857598995
 20
305.19810137728109
 11
576.29838353372451
 21
306.75101564789622
  0
LINE
  8
_1-0_
  6
CONTINUOUS
 62
    7
 10
570.50282857598995
 20
305.19810137728109
 11
576.29838353372451
 21
303.64518710666607
  0
LINE
  8
_1-0_
  6
CONTINUOUS
 62
    4
 10
570.50282857598995
 20
305.19810137728109
 11
570.50282857598995
 21
287.5153436339408
  0
LINE
  8
_1-0_
  6
CONTINUOUS
 62
    4
 10
531.00282857598995
 20
305.19810137728109
 11
531.00282857598995
 21
287.5153436339408
  0
LINE
  8
_1-0_
  6
CONTINUOUS
 62
    7
 10
624.41412945892261
 20
257.32833753394083
 11
622.86121518830736
 21
263.12389249167517
  0
LINE
  8
_1-0_
  6
CONTINUOUS
 62
    7
 10
624.41412945892261
 20
257.32833753394083
 11
625.96704372953763
 21
263.12389249167517
  0
LINE
  8
_1-0_
  6
CONTINUOUS
 62
    7
 10
624.41412945892261
 20
218.14988163394082
 11
625.96704372953763
 21
212.35432667620634
  0
LINE
  8
_1-0_
  6
CONTINUOUS
 62
    7
 10
624.41412945892261
 20
218.14988163394082
 11
622.86121518830736
 21
212.35432667620634
  0
LINE
  8
_1-0_
  6
CONTINUOUS
 62
    4
 10
624.41412945892261
 20
257.32833753394083
 11
601.85282857599008
 21
257.32833753394083
  0
LINE
  8
_1-0_
  6
CONTINUOUS
 62
    4
 10
624.41412945892261
 20
218.14988163394082
 11
601.85282857599008
 21
218.14988163394082
  0
LINE
  8
_1-0_
  6
CONTINUOUS
 62
    4
 10
624.41412945892261
 20
310.9989739386666
 11
624.41412945892261
 21
218.14988163394082
  0
ARC
  8
_1-0_
  6
CONTINUOUS
 62
    7
 10
571.25282857599017
 20
144.2998796339408
 40
0.5
 50
270
 51
0
  0
ARC
  8
_1-0_
  6
CONTINUOUS
 62
    7
 10
530.25282857599017
 20
144.2998796339408
 40
0.5
 50
180
 51
270
  0
LINE
  8
_1-0_
  6
CONTINUOUS
 62
    7
 10
529.75282857599017
 20
146.7998796339408
 11
571.75282857599017
 21
146.7998796339408
  0
LINE
  8
_1-0_
  6
CONTINUOUS
 62
    7
 10
530.25282857599017
 20
143.7998796339408
 11
571.25282857599017
 21
143.7998796339408
  0
LINE
  8
_1-0_
  6
CONTINUOUS
 62
    7
 10
571.75282857599017
 20
219.79987963394077
 11
571.75282857599017
 21
144.2998796339408
  0
LINE
  8
_1-0_
  6
CONTINUOUS
 62
    7
 10
529.75282857599017
 20
280.2998796339408
 11
529.75282857599017
 21
144.2998796339408
  0
LINE
  8
_1-0_
  6
CONTINUOUS
 62
    4
 10
571.75282661931828
 20
173.29796598434506
 11
529.75282661931828
 21
173.29796598434506
  0
LINE
  8
_1-0_
  6
CONTINUOUS
 62
    4
 10
581.75282661931828
 20
173.29796598434506
 11
571.75282661931828
 21
173.29796598434506
  0
LINE
  8
_1-0_
  6
CONTINUOUS
 62
    7
 10
571.75282661931828
 20
173.29796598434506
 11
577.54838157705262
 21
174.8508802549602
  0
LINE
  8
_1-0_
  6
CONTINUOUS
 62
    7
 10
571.75282661931828
 20
173.29796598434506
 11
577.54838157705262
 21
171.74505171373004
  0
LINE
  8
_1-0_
  6
CONTINUOUS
 62
    7
 10
529.75282661931828
 20
173.29796598434506
 11
523.95727166158371
 21
171.74505171373004
  0
LINE
  8
_1-0_
  6
CONTINUOUS
 62
    7
 10
529.75282661931828
 20
173.29796598434506
 11
523.95727166158371
 21
174.8508802549602
  0
LINE
  8
_1-0_
  6
CONTINUOUS
 62
    4
 10
529.75282661931828
 20
173.29796598434506
 11
505.35600520479158
 21
173.29796598434506
  0
LINE
  8
_1-0_
  6
CENTER1
 62
    4
 10
500.90446020655116
 20
237.79987963394077
 11
809.12276514022096
 21
237.79987963394077
  0
LINE
  8
_1-0_
  6
CONTINUOUS
 62
    4
 10
794.65573145882353
 20
250.29988138835679
 11
794.65573145882353
 21
225.29988138835676
  0
LINE
  8
_1-0_
  6
CONTINUOUS
 62
    7
 10
794.65573145882353
 20
250.29988138835679
 11
796.20864572943855
 21
244.50432643062231
  0
LINE
  8
_1-0_
  6
CONTINUOUS
 62
    7
 10
794.65573145882353
 20
250.29988138835679
 11
793.10281718820829
 21
244.50432643062231
  0
LINE
  8
_1-0_
  6
CONTINUOUS
 62
    7
 10
794.65573145882353
 20
225.29988138835676
 11
793.10281718820829
 21
231.09543634609107
  0
LINE
  8
_1-0_
  6
CONTINUOUS
 62
    7
 10
794.65573145882353
 20
225.29988138835676
 11
796.20864572943855
 21
231.09543634609107
  0
LINE
  8
_1-0_
  6
CONTINUOUS
 62
    4
 10
784.78266522056946
 20
250.29988138835679
 11
794.65573145882353
 21
250.29988138835679
  0
LINE
  8
_1-0_
  6
CONTINUOUS
 62
    4
 10
784.78266522056946
 20
225.29988138835676
 11
794.65573145882353
 21
225.29988138835676
  0
LINE
  8
_1-0_
  6
CONTINUOUS
 62
    4
 10
820.74883508849461
 20
208.29988138835676
 11
820.74883508849461
 21
267.29988138835676
  0
LINE
  8
_1-0_
  6
CONTINUOUS
 62
    7
 10
820.74883508849461
 20
208.29988138835676
 11
819.19592081787959
 21
214.09543634609107
  0
LINE
  8
_1-0_
  6
CONTINUOUS
 62
    7
 10
820.74883508849461
 20
208.29988138835676
 11
822.30174935910986
 21
214.09543634609107
  0
LINE
  8
_1-0_
  6
CONTINUOUS
 62
    7
 10
820.74883508849461
 20
267.29988138835676
 11
822.30174935910986
 21
261.50432643062231
  0
LINE
  8
_1-0_
  6
CONTINUOUS
 62
    7
 10
820.74883508849461
 20
267.29988138835676
 11
819.19592081787959
 21
261.50432643062231
  0
LINE
  8
_1-0_
  6
CONTINUOUS
 62
    4
 10
760.09999962493452
 20
208.29988138835676
 11
820.74883508849461
 21
208.29988138835676
  0
LINE
  8
_1-0_
  6
CONTINUOUS
 62
    4
 10
760.09999962493452
 20
267.29988138835676
 11
820.74883508849461
 21
267.29988138835676
  0
LINE
  8
_1-0_
  6
CONTINUOUS
 62
    4
 10
469.34497745796659
 20
366.19987963394089
 11
469.34497745796659
 21
237.79987963394077
  0
LINE
  8
_1-0_
  6
CONTINUOUS
 62
    7
 10
469.34497745796659
 20
366.19987963394089
 11
470.89789172858183
 21
360.40432467620644
  0
LINE
  8
_1-0_
  6
CONTINUOUS
 62
    7
 10
469.34497745796659
 20
366.19987963394089
 11
467.79206318735151
 21
360.40432467620644
  0
LINE
  8
_1-0_
  6
CONTINUOUS
 62
    7
 10
469.34497745796659
 20
237.79987963394077
 11
467.79206318735151
 21
243.59543459167525
  0
LINE
  8
_1-0_
  6
CONTINUOUS
 62
    7
 10
469.34497745796659
 20
237.79987963394077
 11
470.89789172858183
 21
243.59543459167525
  0
LINE
  8
_1-0_
  6
CONTINUOUS
 62
    4
 10
469.34497745796659
 20
366.19987963394089
 11
511.75642928520744
 21
366.19987963394089
  0
LINE
  8
_1-0_
  6
CONTINUOUS
 62
    4
 10
469.34497745796659
 20
237.79987963394077
 11
511.75642928520744
 21
237.79987963394077
  0
LINE
  8
_1-0_
  6
CONTINUOUS
 62
    7
 10
469.34497745796659
 20
237.79987963394077
 11
470.89789172858183
 21
232.00432467620635
  0
LINE
  8
_1-0_
  6
CONTINUOUS
 62
    7
 10
469.34497745796659
 20
237.79987963394077
 11
467.79206318735151
 21
232.00432467620635
  0
LINE
  8
_1-0_
  6
CONTINUOUS
 62
    4
 10
469.34497745796659
 20
237.79988138835679
 11
469.34497745796659
 21
143.7998796339408
  0
LINE
  8
_1-0_
  6
CONTINUOUS
 62
    7
 10
469.34497745796659
 20
237.79988138835679
 11
470.89789172858183
 21
232.00432643062231
  0
LINE
  8
_1-0_
  6
CONTINUOUS
 62
    7
 10
469.34497745796659
 20
237.79988138835679
 11
467.79206318735151
 21
232.00432643062231
  0
LINE
  8
_1-0_
  6
CONTINUOUS
 62
    7
 10
469.34497745796659
 20
143.7998796339408
 11
467.79206318735151
 21
149.59543459167525
  0
LINE
  8
_1-0_
  6
CONTINUOUS
 62
    7
 10
469.34497745796659
 20
143.7998796339408
 11
470.89789172858183
 21
149.59543459167525
  0
LINE
  8
_1-0_
  6
CONTINUOUS
 62
    4
 10
469.34497745796659
 20
237.79988138835679
 11
511.75642928520744
 21
237.79988138835679
  0
LINE
  8
_1-0_
  6
CONTINUOUS
 62
    4
 10
469.34497745796659
 20
143.7998796339408
 11
511.75642928520744
 21
143.7998796339408
  0
LINE
  8
_1-0_
  6
CONTINUOUS
 62
    4
 10
550.75282857599017
 20
122.45570554173968
 11
782.35282857599031
 21
122.45570554173968
  0
LINE
  8
_1-0_
  6
CONTINUOUS
 62
    7
 10
550.75282857599017
 20
122.45570554173968
 11
556.54838353372451
 21
124.00861981235482
  0
LINE
  8
_1-0_
  6
CONTINUOUS
 62
    7
 10
550.75282857599017
 20
122.45570554173968
 11
556.54838353372451
 21
120.90279127112455
  0
LINE
  8
_1-0_
  6
CONTINUOUS
 62
    7
 10
782.35282857599031
 20
122.45570554173968
 11
776.55727361825574
 21
120.90279127112455
  0
LINE
  8
_1-0_
  6
CONTINUOUS
 62
    7
 10
782.35282857599031
 20
122.45570554173968
 11
776.55727361825574
 21
124.00861981235482
  0
LINE
  8
_1-0_
  6
CONTINUOUS
 62
    4
 10
550.75282857599017
 20
122.45570554173968
 11
550.75282857599017
 21
130.31989826705489
  0
LINE
  8
_1-0_
  6
CONTINUOUS
 62
    4
 10
782.35282857599031
 20
122.45570554173968
 11
782.35282857599031
 21
221.43905477434327
  0
TEXT
  8
_1-0_
 62
    7
 10
584.1054584556532
 20
344.7866747761659
 40
5
 41
1
 50
0
  1
六角対辺36.0
  0
TEXT
  8
_1-0_
 62
    7
 10
486.9887942463207
 20
306.28478273367829
 40
5
 41
1
 50
0
  1
六角対辺36.0
  0
TEXT
  8
_1-0_
 62
    7
 10
622.7754390949658
 20
272.3112329575598
 40
5
 41
1
 50
90
  1
六角対辺36.0
  0
TEXT
  8
_1-0_
 62
    7
 10
793.65573145882353
 20
232.79988138835676
 40
5
 41
1.0000000000000006
 50
90
  1
φ25
  0
TEXT
  8
_1-0_
 62
    7
 10
819.74883508849461
 20
232.79988138835676
 40
5
 41
1.0000000000000006
 50
90
  1
φ59
  0
TEXT
  8
_1-0_
 62
    7
 10
508.65649366964282
 20
174.29796598434506
 40
5
 41
1
 50
0
  1
φ42.0
  0
TEXT
  8
_1-0_
 62
    7
 10
468.34497745796659
 20
180.79988051114878
 40
5
 41
1
 50
90
  1
（94.0）
  0
TEXT
  8
_1-0_
 62
    7
 10
468.34497745796659
 20
283.24987963394084
 40
5
 41
1
 50
90
  1
（63.0～138.0）
  0
TEXT
  8
_1-0_
 62
    7
 10
646.55282857599013
 20
123.45570554173968
 40
5
 41
1
 50
0
  1
（362.0～372.0）
  0
LINE
  8
_1-0_
  6
CONTINUOUS
 62
    7
 10
527.28035883583356
 20
98.84143997446506
 11
527.28035883583356
 21
91.84143997446506
  0
LINE
  8
_1-0_
  6
CONTINUOUS
 62
    7
 10
527.28035883583356
 20
91.84143997446506
 11
572.28035883583356
 21
91.84143997446506
  0
LINE
  8
_1-0_
  6
CONTINUOUS
 62
    7
 10
572.28035883583356
 20
91.84143997446506
 11
572.28035883583356
 21
98.84143997446506
  0
TEXT
  8
_1-0_
 62
    7
 10
574.28035883583356
 20
93.34143997446506
 40
4
 41
1
 50
0
  1
S=1/2
  0
LINE
  8
_1-0_
  6
CONTINUOUS
 62
    7
 10
572.28035883583356
 20
98.84143997446506
 11
527.28035883583356
 21
98.84143997446506
  0
TEXT
  8
_1-0_
 62
    7
 10
540.78035883583356
 20
93.34143997446506
 40
4
 41
1
 50
0
  1
ボトルラップ
  0
LINE
  8
_1-0_
  6
CONTINUOUS
 62
    7
 10
67.699145075661704
 20
142.31543283694168
 11
129.6991450756617
 21
142.31543283694168
  0
CIRCLE
  8
_1-0_
  6
CONTINUOUS
 62
    7
 10
98.699145075661704
 20
238.37346696808231
 40
50
  0
CIRCLE
  8
_1-0_
  6
CONTINUOUS
 62
    7
 10
98.699145075661704
 20
238.37346696808231
 40
18
  0
CIRCLE
  8
_1-0_
  6
CONTINUOUS
 62
    4
 10
98.699145075661704
 20
238.37346696808231
 40
31
  0
CIRCLE
  8
_1-0_
  6
CONTINUOUS
 62
    4
 10
98.699145075661704
 20
238.37346696808231
 40
22.700000000000002
  0
CIRCLE
  8
_1-0_
  6
CONTINUOUS
 62
    4
 10
98.699145075661704
 20
238.37346696808231
 40
27
  0
CIRCLE
  8
_1-0_
  6
DASHED1
 62
    4
 10
98.699145075661704
 20
238.37346696808231
 40
41
  0
CIRCLE
  8
_1-0_
  6
DASHED1
 62
    4
 10
98.699145075661704
 20
238.37346696808231
 40
39
  0
LINE
  8
_1-0_
  6
CENTER1
 62
    4
 10
98.699145075661704
 20
297.07029188988315
 11
98.699145075661704
 21
166.73165817771507
  0
ARC
  8
_1-0_
  6
DASHED1
 62
    4
 10
137.6991450756617
 20
133.31543283694168
 40
0.5
 50
90
 51
180
  0
LINE
  8
_1-0_
  6
CONTINUOUS
 62
    7
 10
67.699145075661704
 20
142.31543283694168
 11
67.699145075661704
 21
137.31543283694168
  0
LINE
  8
_1-0_
  6
CONTINUOUS
 62
    7
 10
129.6991450756617
 20
142.31543283694168
 11
129.6991450756617
 21
137.31543283694168
  0
LINE
  8
_1-0_
  6
CONTINUOUS
 62
    7
 10
53.699145075661704
 20
137.31543283694168
 11
67.699145075661704
 21
137.31543283694168
  0
LINE
  8
_1-0_
  6
CONTINUOUS
 62
    7
 10
143.6991450756617
 20
137.31543283694168
 11
129.6991450756617
 21
137.31543283694168
  0
LINE
  8
_1-0_
  6
DASHED1
 62
    4
 10
123.4491450756617
 20
141.31543283694168
 11
123.4491450756617
 21
142.31543283694168
  0
ARC
  8
_1-0_
  6
DASHED1
 62
    4
 10
123.9491450756617
 20
141.31543283694168
 40
0.5
 50
180
 51
270
  0
LINE
  8
_1-0_
  6
DASHED1
 62
    4
 10
124.9491450756617
 20
140.81543283694168
 11
123.9491450756617
 21
140.81543283694168
  0
LINE
  8
_1-0_
  6
DASHED1
 62
    4
 10
125.4491450756617
 20
141.31543283694168
 11
125.4491450756617
 21
142.31543283694168
  0
ARC
  8
_1-0_
  6
DASHED1
 62
    4
 10
124.9491450756617
 20
141.31543283694168
 40
0.5
 50
270
 51
0
  0
LINE
  8
_1-0_
  6
DASHED1
 62
    4
 10
137.1991450756617
 20
133.31543283694168
 11
137.1991450756617
 21
132.31543283694168
  0
LINE
  8
_1-0_
  6
DASHED1
 62
    4
 10
138.6991450756617
 20
133.81543283694168
 11
137.6991450756617
 21
133.81543283694168
  0
LINE
  8
_1-0_
  6
DASHED1
 62
    4
 10
139.1991450756617
 20
133.31543283694168
 11
139.1991450756617
 21
132.31543283694168
  0
ARC
  8
_1-0_
  6
DASHED1
 62
    4
 10
138.6991450756617
 20
133.31543283694168
 40
0.5
 50
0
 51
90
  0
ARC
  8
_1-0_
  6
DASHED1
 62
    4
 10
59.699145075661704
 20
133.31543283694168
 40
0.5
 50
0
 51
90
  0
LINE
  8
_1-0_
  6
DASHED1
 62
    4
 10
73.949145075661704
 20
141.31543283694168
 11
73.949145075661704
 21
142.31543283694168
  0
ARC
  8
_1-0_
  6
DASHED1
 62
    4
 10
73.449145075661704
 20
141.31543283694168
 40
0.5
 50
270
 51
0
  0
LINE
  8
_1-0_
  6
DASHED1
 62
    4
 10
72.449145075661704
 20
140.81543283694168
 11
73.449145075661704
 21
140.81543283694168
  0
LINE
  8
_1-0_
  6
DASHED1
 62
    4
 10
71.949145075661704
 20
141.31543283694168
 11
71.949145075661704
 21
142.31543283694168
  0
ARC
  8
_1-0_
  6
DASHED1
 62
    4
 10
72.449145075661704
 20
141.31543283694168
 40
0.5
 50
180
 51
270
  0
LINE
  8
_1-0_
  6
DASHED1
 62
    4
 10
60.199145075661704
 20
133.31543283694168
 11
60.199145075661704
 21
132.31543283694168
  0
LINE
  8
_1-0_
  6
DASHED1
 62
    4
 10
58.699145075661704
 20
133.81543283694168
 11
59.699145075661704
 21
133.81543283694168
  0
LINE
  8
_1-0_
  6
DASHED1
 62
    4
 10
58.199145075661704
 20
133.31543283694168
 11
58.199145075661704
 21
132.31543283694168
  0
ARC
  8
_1-0_
  6
DASHED1
 62
    4
 10
58.699145075661704
 20
133.31543283694168
 40
0.5
 50
90
 51
180
  0
LINE
  8
_1-0_
  6
DASHED1
 62
    4
 10
80.435144198575244
 20
138.12153925526365
 11
75.999145075661601
 21
142.31543283694168
  0
LINE
  8
_1-0_
  6
DASHED1
 62
    4
 10
80.314563977037551
 20
136.64272855890715
 11
74.170865983051271
 21
132.31543283694168
  0
ARC
  8
_1-0_
  6
DASHED1
 62
    4
 10
79.706516529673137
 20
137.43662924649584
 40
1
 50
307.44845420909501
 51
43.228530259965914
  0
LINE
  8
_1-0_
  6
DASHED1
 62
    4
 10
116.96314595274816
 20
138.12153925526365
 11
121.39914507566169
 21
142.31543283694168
  0
LINE
  8
_1-0_
  6
DASHED1
 62
    4
 10
117.08372617428585
 20
136.64272855890715
 11
123.22742416827219
 21
132.31543283694168
  0
ARC
  8
_1-0_
  6
DASHED1
 62
    4
 10
117.69177362165015
 20
137.43662924649584
 40
1
 50
136.77146974003412
 51
232.55154579090498
  0
ARC
  8
_1-0_
  6
CONTINUOUS
 62
    7
 10
53.699145075661704
 20
132.31543283694168
 40
5
 50
90
 51
180
  0
LINE
  8
_1-0_
  6
CONTINUOUS
 62
    7
 10
48.699145075661704
 20
132.31543283694168
 11
148.69914507566176
 21
132.31543283694168
  0
ARC
  8
_1-0_
  6
CONTINUOUS
 62
    7
 10
143.6991450756617
 20
132.31543283694168
 40
5
 50
0
 51
90
  0
LINE
  8
_1-0_
  6
CONTINUOUS
 62
    4
 10
48.699145075661704
 20
170.45599124818625
 11
148.69914507566176
 21
170.45599124818625
  0
LINE
  8
_1-0_
  6
CONTINUOUS
 62
    7
 10
48.699145075661704
 20
170.45599124818625
 11
51.596922554528873
 21
171.23244838349387
  0
LINE
  8
_1-0_
  6
CONTINUOUS
 62
    7
 10
48.699145075661704
 20
170.45599124818625
 11
51.596922554528873
 21
169.67953411287874
  0
LINE
  8
_1-0_
  6
CONTINUOUS
 62
    7
 10
148.69914507566176
 20
170.45599124818625
 11
145.80136759679453
 21
169.67953411287874
  0
LINE
  8
_1-0_
  6
CONTINUOUS
 62
    7
 10
148.69914507566176
 20
170.45599124818625
 11
145.80136759679453
 21
171.23244838349387
  0
LINE
  8
_1-0_
  6
CONTINUOUS
 62
    4
 10
75.999145075661601
 20
156.18113871699006
 11
121.39914507566169
 21
156.18113871699006
  0
LINE
  8
_1-0_
  6
CONTINUOUS
 62
    7
 10
75.999145075661601
 20
156.18113871699006
 11
78.896922554528885
 21
156.95759585229757
  0
LINE
  8
_1-0_
  6
CONTINUOUS
 62
    7
 10
75.999145075661601
 20
156.18113871699006
 11
78.896922554528885
 21
155.40468158168243
  0
LINE
  8
_1-0_
  6
CONTINUOUS
 62
    7
 10
121.39914507566169
 20
156.18113871699006
 11
118.5013675967944
 21
155.40468158168243
  0
LINE
  8
_1-0_
  6
CONTINUOUS
 62
    7
 10
121.39914507566169
 20
156.18113871699006
 11
118.5013675967944
 21
156.95759585229757
  0
LINE
  8
_1-0_
  6
CONTINUOUS
 62
    4
 10
75.999145075661601
 20
156.18113871699006
 11
75.999145075661601
 21
146.57563047169912
  0
LINE
  8
_1-0_
  6
CONTINUOUS
 62
    4
 10
121.39914507566169
 20
156.18113871699006
 11
121.39914507566169
 21
146.57563047169912
  0
LINE
  8
_1-0_
  6
CONTINUOUS
 62
    4
 10
34.013259097151944
 20
132.31543283694168
 11
34.013259097151944
 21
142.31543283694168
  0
LINE
  8
_1-0_
  6
CONTINUOUS
 62
    7
 10
34.013259097151944
 20
132.31543283694168
 11
33.236801961844321
 21
135.21321031580885
  0
LINE
  8
_1-0_
  6
CONTINUOUS
 62
    7
 10
34.013259097151944
 20
132.31543283694168
 11
34.789716232459397
 21
135.21321031580885
  0
LINE
  8
_1-0_
  6
CONTINUOUS
 62
    7
 10
34.013259097151944
 20
142.31543283694168
 11
34.789716232459397
 21
139.41765535807439
  0
LINE
  8
_1-0_
  6
CONTINUOUS
 62
    7
 10
34.013259097151944
 20
142.31543283694168
 11
33.236801961844321
 21
139.41765535807439
  0
LINE
  8
_1-0_
  6
CONTINUOUS
 62
    4
 10
34.013259097151944
 20
132.31543283694168
 11
44.284604891431968
 21
132.31543283694168
  0
LINE
  8
_1-0_
  6
CONTINUOUS
 62
    4
 10
34.013259097151944
 20
142.31543283694168
 11
65.424467747101118
 21
142.31543283694168
  0
LINE
  8
_1-0_
  6
CONTINUOUS
 62
    4
 10
48.699145075661704
 20
170.45599124818625
 11
48.699145075661704
 21
140.21779469292437
  0
LINE
  8
_1-0_
  6
CONTINUOUS
 62
    4
 10
148.69914507566176
 20
170.45599124818625
 11
148.69914507566176
 21
140.21779469292437
  0
TEXT
  8
_1-0_
 62
    7
 10
33.013259097151944
 20
134.81543283694168
 40
5
 41
1
 50
90
  1
10
  0
LINE
  8
_1-0_
  6
CONTINUOUS
 62
    4
 10
48.699142241828553
 20
170.45599124818625
 11
148.69914224182855
 21
170.45599124818625
  0
TEXT
  8
_1-0_
 62
    7
 10
92.449142241828553
 20
171.45599124818625
 40
5
 41
1
 50
0
  1
φ100
  0
LINE
  8
_1-0_
  6
CONTINUOUS
 62
    7
 10
48.699142241828553
 20
170.45599124818625
 11
51.596919720695723
 21
171.23244838349387
  0
LINE
  8
_1-0_
  6
CONTINUOUS
 62
    7
 10
48.699142241828553
 20
170.45599124818625
 11
51.596919720695723
 21
169.67953411287874
  0
LINE
  8
_1-0_
  6
CONTINUOUS
 62
    7
 10
148.69914224182855
 20
170.45599124818625
 11
145.80136476296138
 21
169.67953411287874
  0
LINE
  8
_1-0_
  6
CONTINUOUS
 62
    7
 10
148.69914224182855
 20
170.45599124818625
 11
145.80136476296138
 21
171.23244838349387
  0
LINE
  8
_1-0_
  6
CONTINUOUS
 62
    4
 10
48.699142241828553
 20
140.21779469292437
 11
48.699142241828553
 21
170.45599124818625
  0
LINE
  8
_1-0_
  6
CONTINUOUS
 62
    4
 10
148.69914224182855
 20
140.21779469292437
 11
148.69914224182855
 21
170.45599124818625
  0
LINE
  8
_1-0_
  6
CONTINUOUS
 62
    4
 10
121.39914681946527
 20
156.18113871699006
 11
75.999145293586366
 21
156.18113871699006
  0
TEXT
  8
_1-0_
 62
    7
 10
91.199146056525819
 20
157.18113871699006
 40
5
 41
1
 50
0
  1
φ45.4
  0
LINE
  8
_1-0_
  6
CONTINUOUS
 62
    7
 10
121.39914681946527
 20
156.18113871699006
 11
118.5013693405981
 21
155.40468158168243
  0
LINE
  8
_1-0_
  6
CONTINUOUS
 62
    7
 10
121.39914681946527
 20
156.18113871699006
 11
118.5013693405981
 21
156.95759585229757
  0
LINE
  8
_1-0_
  6
CONTINUOUS
 62
    7
 10
75.999145293586366
 20
156.18113871699006
 11
78.896922772453535
 21
156.95759585229757
  0
LINE
  8
_1-0_
  6
CONTINUOUS
 62
    7
 10
75.999145293586366
 20
156.18113871699006
 11
78.896922772453535
 21
155.40468158168243
  0
LINE
  8
_1-0_
  6
CONTINUOUS
 62
    4
 10
121.39914681946527
 20
146.57563047169912
 11
121.39914681946527
 21
156.18113871699006
  0
LINE
  8
_1-0_
  6
CONTINUOUS
 62
    4
 10
75.999145293586366
 20
146.57563047169912
 11
75.999145293586366
 21
156.18113871699006
  0
TEXT
  8
_1-0_
 62
    7
 10
70.699145075661704
 20
109.15641716079835
 40
4
 41
1
 50
0
  1
Mimi用マウンティングディスク
  0
LINE
  8
_1-0_
  6
CENTER1
 62
    4
 10
98.699145075661704
 20
147.83595381417524
 11
98.699145075661704
 21
117.33060308281437
  0
LINE
  8
_1-0_
  6
CONTINUOUS
 62
    7
 10
66.199145075661704
 20
114.65641716079835
 11
66.199145075661704
 21
107.65641716079835
  0
LINE
  8
_1-0_
  6
CONTINUOUS
 62
    7
 10
66.199145075661704
 20
107.65641716079835
 11
131.1991450756617
 21
107.65641716079835
  0
LINE
  8
_1-0_
  6
CONTINUOUS
 62
    7
 10
131.1991450756617
 20
107.65641716079835
 11
131.1991450756617
 21
114.65641716079835
  0
LINE
  8
_1-0_
  6
CONTINUOUS
 62
    7
 10
131.1991450756617
 20
114.65641716079835
 11
66.199145075661704
 21
114.65641716079835
  0
TEXT
  8
_1-0_
 62
    7
 10
133.1991450756617
 20
109.15641716079835
 40
4
 41
1
 50
0
  1
S=1/2
  0
LINE
  8
_1-0_
  6
CONTINUOUS
 62
    7
 10
212.63940453450285
 20
114.65641716079835
 11
212.63940453450285
 21
107.65641716079835
  0
LINE
  8
_1-0_
  6
CONTINUOUS
 62
    7
 10
287.63940453450277
 20
107.65641716079835
 11
287.63940453450277
 21
114.65641716079835
  0
LINE
  8
_1-0_
  6
CONTINUOUS
 62
    7
 10
212.63940453450285
 20
107.65641716079835
 11
287.63940453450277
 21
107.65641716079835
  0
TEXT
  8
_1-0_
 62
    7
 10
214.13940453450285
 20
109.15641716079835
 40
4
 41
1
 50
0
  1
排水口パイプ止め板（バックプレート）
  0
LINE
  8
_1-0_
  6
CENTER1
 62
    4
 10
250.13940453450285
 20
298.68085316632902
 11
250.13940453450285
 21
117.33060308281437
  0
TEXT
  8
_1-0_
 62
    7
 10
289.63940453450277
 20
109.15641716079835
 40
4
 41
1
 50
0
  1
S=1/2
  0
CIRCLE
  8
_1-0_
  6
CONTINUOUS
 62
    7
 10
250.13940453450285
 20
238.37346696808231
 40
16.5
  0
LINE
  8
_1-0_
  6
CONTINUOUS
 62
    7
 10
290.13940453450277
 20
275.87346696808231
 11
290.13940453450277
 21
200.87346696808231
  0
LINE
  8
_1-0_
  6
CONTINUOUS
 62
    7
 10
210.13940453450285
 20
275.87346696808231
 11
210.13940453450285
 21
200.87346696808231
  0
LINE
  8
_1-0_
  6
CONTINUOUS
 62
    7
 10
212.63940453450285
 20
278.37346696808231
 11
287.63940453450277
 21
278.37346696808231
  0
LINE
  8
_1-0_
  6
CONTINUOUS
 62
    7
 10
212.63940453450285
 20
198.37346696808231
 11
287.63940453450277
 21
198.37346696808231
  0
ARC
  8
_1-0_
  6
CONTINUOUS
 62
    7
 10
287.63940453450277
 20
200.87346696808231
 40
2.5
 50
270
 51
0
  0
ARC
  8
_1-0_
  6
CONTINUOUS
 62
    7
 10
287.63940453450277
 20
275.87346696808231
 40
2.5
 50
0
 51
90
  0
ARC
  8
_1-0_
  6
CONTINUOUS
 62
    7
 10
212.63940453450285
 20
275.87346696808231
 40
2.5
 50
90
 51
180
  0
ARC
  8
_1-0_
  6
CONTINUOUS
 62
    7
 10
212.63940453450285
 20
200.87346696808231
 40
2.5
 50
180
 51
270
  0
LINE
  8
_1-0_
  6
CONTINUOUS
 62
    4
 10
238.47214264492481
 20
226.70620507850424
 11
267.64029736886982
 21
255.87435980244936
  0
LINE
  8
_1-0_
  6
CONTINUOUS
 62
    7
 10
238.47214264492481
 20
226.70620507850424
 11
239.97214264492481
 21
229.30428128985758
  0
LINE
  8
_1-0_
  6
CONTINUOUS
 62
    7
 10
238.47214264492481
 20
226.70620507850424
 11
241.07021885627807
 21
228.20620507850424
  0
LINE
  8
_1-0_
  6
CONTINUOUS
 62
    7
 10
261.80666642408084
 20
250.04072885766035
 11
260.30666642408084
 21
247.44265264630703
  0
LINE
  8
_1-0_
  6
CONTINUOUS
 62
    7
 10
261.80666642408084
 20
250.04072885766035
 11
259.20859021272758
 21
248.54072885766035
  0
LINE
  8
_1-0_
  6
CONTINUOUS
 62
    4
 10
210.13940453450285
 20
300.7808163901933
 11
290.13940453450277
 21
300.7808163901933
  0
LINE
  8
_1-0_
  6
CONTINUOUS
 62
    7
 10
210.13940453450285
 20
300.7808163901933
 11
213.03718201337005
 21
301.55727352550081
  0
LINE
  8
_1-0_
  6
CONTINUOUS
 62
    7
 10
210.13940453450285
 20
300.7808163901933
 11
213.03718201337005
 21
300.00435925488568
  0
LINE
  8
_1-0_
  6
CONTINUOUS
 62
    7
 10
290.13940453450277
 20
300.7808163901933
 11
287.2416270556356
 21
300.00435925488568
  0
LINE
  8
_1-0_
  6
CONTINUOUS
 62
    7
 10
290.13940453450277
 20
300.7808163901933
 11
287.2416270556356
 21
301.55727352550081
  0
LINE
  8
_1-0_
  6
CONTINUOUS
 62
    4
 10
210.13940453450285
 20
300.7808163901933
 11
210.13940453450285
 21
282.56551429776152
  0
LINE
  8
_1-0_
  6
CONTINUOUS
 62
    4
 10
290.13940453450277
 20
300.7808163901933
 11
290.13940453450277
 21
282.56551429776152
  0
TEXT
  8
_1-0_
 62
    7
 10
247.63940453450285
 20
301.7808163901933
 40
5.0000000000000008
 41
0.9999999999999996
 50
0
  1
80
  0
TEXT
  8
_1-0_
 62
    7
 10
260.41300167568198
 20
250.7518914899073
 40
5.0000000000000053
 41
0.9999999999999976
 50
45.000000000000376
  1
φ33
  0
LINE
  8
_1-0_
  6
CONTINUOUS
 62
    7
 10
210.13940453450285
 20
142.31543283694168
 11
210.13940453450285
 21
139.31543283694168
  0
LINE
  8
_1-0_
  6
CONTINUOUS
 62
    7
 10
210.13940453450285
 20
142.31543283694168
 11
290.13940453450277
 21
142.31543283694168
  0
LINE
  8
_1-0_
  6
CONTINUOUS
 62
    7
 10
290.13940453450277
 20
142.31543283694168
 11
290.13940453450277
 21
139.31543283694168
  0
LINE
  8
_1-0_
  6
CONTINUOUS
 62
    7
 10
210.13940453450285
 20
139.31543283694168
 11
290.13940453450277
 21
139.31543283694168
  0
LINE
  8
_1-0_
  6
DASHED1
 62
    4
 10
233.63940453450285
 20
142.31543283694168
 11
233.63940453450285
 21
139.31543283694168
  0
LINE
  8
_1-0_
  6
DASHED1
 62
    4
 10
266.63940453450288
 20
142.31543283694168
 11
266.63940453450288
 21
139.31543283694168
  0
LINE
  8
_1-0_
  6
CONTINUOUS
 62
    4
 10
193.83848779931221
 20
147.31543283694168
 11
193.83848779931221
 21
134.31543283694168
  0
LINE
  8
_1-0_
  6
CONTINUOUS
 62
    7
 10
193.83848779931221
 20
139.31543283694168
 11
194.61494493461975
 21
136.41765535807451
  0
LINE
  8
_1-0_
  6
CONTINUOUS
 62
    7
 10
193.83848779931221
 20
139.31543283694168
 11
193.06203066400462
 21
136.41765535807451
  0
LINE
  8
_1-0_
  6
CONTINUOUS
 62
    7
 10
193.83848779931221
 20
142.31543283694168
 11
193.06203066400462
 21
145.21321031580896
  0
LINE
  8
_1-0_
  6
CONTINUOUS
 62
    7
 10
193.83848779931221
 20
142.31543283694168
 11
194.61494493461975
 21
145.21321031580896
  0
LINE
  8
_1-0_
  6
CONTINUOUS
 62
    4
 10
193.83848779931221
 20
139.31543283694168
 11
206.73084865541727
 21
139.31543283694168
  0
LINE
  8
_1-0_
  6
CONTINUOUS
 62
    4
 10
193.83848779931221
 20
142.31543283694168
 11
206.73084865541727
 21
142.31543283694168
  0
TEXT
  8
_1-0_
 62
    7
 10
192.83848779931221
 20
139.56543283694168
 40
5
 41
1
 50
90
  1
3
  0
LINE
  8
_1-0_
  6
CENTER1
 62
    4
 10
352.64869522263899
 20
239.33177485390214
 11
455.91493069632196
 21
239.33177485390214
  0
LINE
  8
_1-0_
  6
CONTINUOUS
 62
    4
 10
325.33078785243372
 20
278.37346696808231
 11
325.33078785243372
 21
198.37346696808231
  0
LINE
  8
_1-0_
  6
CONTINUOUS
 62
    7
 10
325.33078785243372
 20
278.37346696808231
 11
326.10724498774123
 21
275.47568948921514
  0
LINE
  8
_1-0_
  6
CONTINUOUS
 62
    7
 10
325.33078785243372
 20
278.37346696808231
 11
324.5543307171261
 21
275.47568948921514
  0
LINE
  8
_1-0_
  6
CONTINUOUS
 62
    7
 10
325.33078785243372
 20
198.37346696808231
 11
324.5543307171261
 21
201.27124444694948
  0
LINE
  8
_1-0_
  6
CONTINUOUS
 62
    7
 10
325.33078785243372
 20
198.37346696808231
 11
326.10724498774123
 21
201.27124444694948
  0
LINE
  8
_1-0_
  6
CONTINUOUS
 62
    4
 10
325.33078785243372
 20
278.37346696808231
 11
309.07183895703315
 21
278.37346696808231
  0
LINE
  8
_1-0_
  6
CONTINUOUS
 62
    4
 10
325.33078785243372
 20
198.37346696808231
 11
309.07183895703315
 21
198.37346696808231
  0
TEXT
  8
_1-0_
 62
    7
 10
324.33078785243372
 20
235.87346696808231
 40
5
 41
1
 50
90
  1
80
  0
LINE
  8
_1-0_
  6
CENTER1
 62
    4
 10
399.51614983227477
 20
281.16659543353296
 11
399.51614983227477
 21
135.23266710473853
  0
CIRCLE
  8
_1-0_
  6
CONTINUOUS
 62
    7
 10
399.51614983227477
 20
238.37346696808231
 40
27
  0
LINE
  8
_1-0_
  6
CENTER1
 62
    4
 10
188.89813054312526
 20
238.37346696808231
 11
308.46902275320957
 21
238.37346696808231
  0
LINE
  8
_1-0_
  6
CENTER1
 62
    4
 10
26.326105403660221
 20
238.37346696808231
 11
163.6523041136179
 21
238.37346696808231
  0
LINE
  8
_1-0_
  6
CONTINUOUS
 62
    4
 10
426.51615061259889
 20
300.7808163901933
 11
372.51615061259894
 21
300.7808163901933
  0
LINE
  8
_1-0_
  6
CONTINUOUS
 62
    7
 10
426.51615061259889
 20
300.7808163901933
 11
423.61837313373172
 21
300.00435925488568
  0
LINE
  8
_1-0_
  6
CONTINUOUS
 62
    7
 10
426.51615061259889
 20
300.7808163901933
 11
423.61837313373172
 21
301.55727352550081
  0
LINE
  8
_1-0_
  6
CONTINUOUS
 62
    7
 10
372.51615061259894
 20
300.7808163901933
 11
375.41392809146617
 21
301.55727352550081
  0
LINE
  8
_1-0_
  6
CONTINUOUS
 62
    7
 10
372.51615061259894
 20
300.7808163901933
 11
375.41392809146617
 21
300.00435925488568
  0
LINE
  8
_1-0_
  6
CONTINUOUS
 62
    4
 10
372.51615061259894
 20
261.27860340784786
 11
372.51615061259894
 21
300.7808163901933
  0
LINE
  8
_1-0_
  6
CONTINUOUS
 62
    4
 10
426.51615061259889
 20
261.27860340784786
 11
426.51615061259889
 21
300.7808163901933
  0
TEXT
  8
_1-0_
 62
    7
 10
394.51615061259894
 20
301.7808163901933
 40
5.0000000000000008
 41
0.9999999999999996
 50
0
  1
φ54
  0
LINE
  8
_1-0_
  6
CONTINUOUS
 62
    7
 10
382.51614983227477
 20
178.28433513355298
 11
394.01614983227477
 21
178.28433513355298
  0
LINE
  8
_1-0_
  6
CONTINUOUS
 62
    7
 10
382.51614983227477
 20
168.28433513355298
 11
394.01614983227477
 21
168.28433513355298
  0
LINE
  8
_1-0_
  6
CONTINUOUS
 62
    7
 10
394.01614983227477
 20
178.28433513355298
 11
394.01614983227477
 21
168.28433513355298
  0
LINE
  8
_1-0_
  6
CONTINUOUS
 62
    7
 10
405.01614983227477
 20
178.28433513355298
 11
416.51614983227483
 21
178.28433513355298
  0
LINE
  8
_1-0_
  6
CONTINUOUS
 62
    7
 10
405.01614983227477
 20
178.28433513355298
 11
405.01614983227477
 21
168.28433513355298
  0
LINE
  8
_1-0_
  6
CONTINUOUS
 62
    7
 10
405.01614983227477
 20
168.28433513355298
 11
416.51614983227483
 21
168.28433513355298
  0
LINE
  8
_1-0_
  6
CONTINUOUS
 62
    7
 10
384.51614983227477
 20
158.78433513355298
 11
414.51614983227483
 21
158.78433513355298
  0
LINE
  8
_1-0_
  6
CONTINUOUS
 62
    7
 10
382.51614983227477
 20
178.28433513355298
 11
382.51614983227477
 21
168.28433513355298
  0
LINE
  8
_1-0_
  6
CONTINUOUS
 62
    7
 10
416.51614983227483
 20
178.28433513355298
 11
416.51614983227483
 21
168.28433513355298
  0
LINE
  8
_1-0_
  6
CONTINUOUS
 62
    7
 10
372.51614983227477
 20
178.28433513355298
 11
426.51614983227483
 21
178.28433513355298
  0
LINE
  8
_1-0_
  6
CONTINUOUS
 62
    7
 10
372.51614983227477
 20
180.28433513355298
 11
426.51614983227483
 21
180.28433513355298
  0
LINE
  8
_1-0_
  6
CONTINUOUS
 62
    7
 10
382.51614983227477
 20
168.28433513355298
 11
394.01614983227477
 21
168.28433513355298
  0
LINE
  8
_1-0_
  6
CONTINUOUS
 62
    7
 10
405.01614983227477
 20
168.28433513355298
 11
416.51614983227483
 21
168.28433513355298
  0
LINE
  8
_1-0_
  6
CONTINUOUS
 62
    7
 10
384.26614983227477
 20
158.78433513355298
 11
414.76614983227483
 21
158.78433513355298
  0
LINE
  8
_1-0_
  6
CONTINUOUS
 62
    7
 10
382.51614983227477
 20
168.28433513355298
 11
384.26614983227477
 21
158.78433513355298
  0
LINE
  8
_1-0_
  6
CONTINUOUS
 62
    7
 10
416.51614983227483
 20
168.28433513355298
 11
414.76614983227483
 21
158.78433513355298
  0
LINE
  8
_1-0_
  6
CONTINUOUS
 62
    4
 10
384.26614983227477
 20
140.16893403675692
 11
414.76614983227483
 21
140.16893403675692
  0
LINE
  8
_1-0_
  6
CONTINUOUS
 62
    7
 10
384.26614983227477
 20
140.16893403675692
 11
387.163927311142
 21
140.94539117206443
  0
LINE
  8
_1-0_
  6
CONTINUOUS
 62
    7
 10
384.26614983227477
 20
140.16893403675692
 11
387.163927311142
 21
139.39247690144929
  0
LINE
  8
_1-0_
  6
CONTINUOUS
 62
    7
 10
414.76614983227483
 20
140.16893403675692
 11
411.86837235340755
 21
139.39247690144929
  0
LINE
  8
_1-0_
  6
CONTINUOUS
 62
    7
 10
414.76614983227483
 20
140.16893403675692
 11
411.86837235340755
 21
140.94539117206443
  0
LINE
  8
_1-0_
  6
CONTINUOUS
 62
    4
 10
382.51614983227477
 20
127.18782593984178
 11
416.51614983227483
 21
127.18782593984178
  0
LINE
  8
_1-0_
  6
CONTINUOUS
 62
    7
 10
382.51614983227477
 20
127.18782593984178
 11
385.413927311142
 21
127.96428307514941
  0
LINE
  8
_1-0_
  6
CONTINUOUS
 62
    7
 10
382.51614983227477
 20
127.18782593984178
 11
385.413927311142
 21
126.41136880453427
  0
LINE
  8
_1-0_
  6
CONTINUOUS
 62
    7
 10
416.51614983227483
 20
127.18782593984178
 11
413.61837235340755
 21
126.41136880453427
  0
LINE
  8
_1-0_
  6
CONTINUOUS
 62
    7
 10
416.51614983227483
 20
127.18782593984178
 11
413.61837235340755
 21
127.96428307514941
  0
LINE
  8
_1-0_
  6
CONTINUOUS
 62
    4
 10
382.51614983227477
 20
127.18782593984178
 11
382.51614983227477
 21
165.00553955296516
  0
LINE
  8
_1-0_
  6
CONTINUOUS
 62
    4
 10
416.51614983227483
 20
127.18782593984178
 11
416.51614983227483
 21
165.00553955296516
  0
LINE
  8
_1-0_
  6
CONTINUOUS
 62
    4
 10
384.26614983227477
 20
140.16893403675692
 11
384.26614983227477
 21
156.64921947964319
  0
LINE
  8
_1-0_
  6
CONTINUOUS
 62
    4
 10
414.76614983227483
 20
140.16893403675692
 11
414.76614983227483
 21
156.64921947964319
  0
LINE
  8
_1-0_
  6
CONTINUOUS
 62
    7
 10
372.51614983227477
 20
180.5667803086211
 11
372.51614983227477
 21
178.28433513355298
  0
ARC
  8
_1-0_
  6
CONTINUOUS
 62
    7
 10
373.51614983227477
 20
180.5667803086211
 40
1
 50
108.42780160788487
 51
180
  0
LINE
  8
_1-0_
  6
CONTINUOUS
 62
    7
 10
426.51614983227483
 20
180.5667803086211
 11
426.51614983227483
 21
178.28433513355298
  0
ARC
  8
_1-0_
  6
CONTINUOUS
 62
    7
 10
399.51614983227477
 20
102.53433513355309
 40
83.25
 50
71.572198392114117
 51
108.42780160788588
  0
ARC
  8
_1-0_
  6
CONTINUOUS
 62
    7
 10
425.51614983227483
 20
180.5667803086211
 40
1
 50
0
 51
71.572198392115112
  0
LINE
  8
_1-0_
  6
CONTINUOUS
 62
    4
 10
372.81964780556069
 20
181.28433513355298
 11
426.21265185898892
 21
181.28433513355298
  0
TEXT
  8
_1-0_
 62
    7
 10
394.51614983227477
 20
141.16893403675692
 40
5
 41
1
 50
0
  1
30.5
  0
TEXT
  8
_1-0_
 62
    7
 10
397.01614983227477
 20
128.18782593984178
 40
5
 41
1
 50
0
  1
34
  0
LINE
  8
_1-0_
  6
CONTINUOUS
 62
    7
 10
287.63940453450277
 20
114.65641716079835
 11
212.63940453450285
 21
114.65641716079835
  0
LINE
  8
_1-0_
  6
CONTINUOUS
 62
    7
 10
364.01614983227477
 20
114.65641716079835
 11
364.01614983227477
 21
107.65641716079835
  0
LINE
  8
_1-0_
  6
CONTINUOUS
 62
    7
 10
364.01614983227477
 20
107.65641716079835
 11
435.01614983227483
 21
107.65641716079835
  0
LINE
  8
_1-0_
  6
CONTINUOUS
 62
    7
 10
435.01614983227483
 20
107.65641716079835
 11
435.01614983227483
 21
114.65641716079835
  0
LINE
  8
_1-0_
  6
CONTINUOUS
 62
    7
 10
435.01614983227483
 20
114.65641716079835
 11
364.01614983227477
 21
114.65641716079835
  0
TEXT
  8
_1-0_
 62
    7
 10
437.01614983227483
 20
109.15641716079835
 40
4
 41
1
 50
0
  1
S=1/2
  0
LINE
  8
_1-0_
  6
CONTINUOUS
 62
    4
 10
353.50076075382207
 20
185.78433513355309
 11
353.50076075382207
 21
158.78433513355298
  0
LINE
  8
_1-0_
  6
CONTINUOUS
 62
    4
 10
353.50076075382207
 20
185.78433513355309
 11
369.67442373073674
 21
185.78433513355309
  0
LINE
  8
_1-0_
  6
CONTINUOUS
 62
    4
 10
353.50076075382207
 20
158.78433513355298
 11
369.67442373073674
 21
158.78433513355298
  0
TEXT
  8
_1-0_
 62
    7
 10
352.00076075382207
 20
169.03433513355298
 40
5
 41
1
 50
90
  1
27
  0
LINE
  8
_1-0_
  6
CONTINUOUS
 62
    7
 10
353.50076075382207
 20
185.78433513355309
 11
352.72430361851451
 21
182.88655765468581
  0
LINE
  8
_1-0_
  6
CONTINUOUS
 62
    7
 10
353.50076075382207
 20
185.78433513355309
 11
354.27721788912964
 21
182.88655765468581
  0
LINE
  8
_1-0_
  6
CONTINUOUS
 62
    7
 10
353.50076075382207
 20
158.78433513355298
 11
354.27721788912964
 21
161.68211261242026
  0
LINE
  8
_1-0_
  6
CONTINUOUS
 62
    7
 10
353.50076075382207
 20
158.78433513355298
 11
352.72430361851451
 21
161.68211261242026
  0
TEXT
  8
_1-0_
 62
    7
 10
366.51614983227477
 20
109.15641716079835
 40
4
 41
1
 50
0
  1
化粧キャップ ラウンド型（クロム）
  0
ENDSEC
  0
EOF
