  0
SECTION
  2
HEADER
  9
$ACADVER
  1
AC1009
  9
$INSBASE
 10
0
 20
0
 30
0
  9
$EXTMIN
 10
0
 20
0
  9
$EXTMAX
 10
841
 20
594
  9
$LIMMIN
 10
0
 20
0
  9
$LIMMAX
 10
841
 20
594
  9
$LTSCALE
 40
1
  0
ENDSEC
  0
SECTION
  2
TABLES
  0
TABLE
  2
LTYPE
 70
     9
  0
LTYPE
  2
CONTINUOUS
 70
    64
  3
実線
 72
    65
 73
     0
 40
0.0
  0
LTYPE
  2
DASHED1
 70
    64
  3
--  --  --  --  --  --  --  --  
 72
    65
 73
     2
 40
2.5
 49
1.25
 49
-1.25
  0
LTYPE
  2
DASHED2
 70
    64
  3
----    ----    ----    ----    
 72
    65
 73
     2
 40
5.0
 49
2.5
 49
-2.5
  0
LTYPE
  2
DASHED3
 70
    64
  3
------  ------  ------  ------  
 72
    65
 73
     2
 40
5.0
 49
3.75
 49
-1.25
  0
LTYPE
  2
CENTER1
 70
    64
  3
----- - ----- - ----- - ----- - 
 72
    65
 73
     4
 40
10.0
 49
6.25
 49
-1.25
 49
1.25
 49
-1.25
  0
LTYPE
  2
CENTER2
 70
    64
  3
----------  --  ----------  --  
 72
    65
 73
     4
 40
20.0
 49
12.5
 49
-2.5
 49
2.5
 49
-2.5
  0
LTYPE
  2
PHANTOM1
 70
    64
  3
--- - - --- - - --- - - --- - - 
 72
    65
 73
     6
 40
10.0
 49
3.25
 49
-1.25
 49
1.25
 49
-1.25
 49
1.25
 49
-1.25
  0
LTYPE
  2
PHANTOM2
 70
    64
  3
--------  -  -  --------  -  -  
 72
    65
 73
     6
 40
20.0
 49
10.0
 49
-2.5
 49
1.25
 49
-2.5
 49
1.25
 49
-2.5
  0
LTYPE
  2
DOT
 70
    64
  3
-   -   -   -   -   -   -   -   
 72
    65
 73
     2
 40
2.5
 49
0.625
 49
-1.875
  0
LTYPE
  2
DUMMY
 70
    64
  3
ダミー
 72
    65
 73
     0
 40
0.0
  0
LTYPE
  2
RAND1
 70
    64
  3
ランダム線1
 72
    65
 73
     4
 40
10.0
 49
1.0
 49
-2.0
 49
3.0
 49
-4.0
  0
LTYPE
  2
RAND2
 70
    64
  3
ランダム線2
 72
    65
 73
     4
 40
14.0
 49
2.0
 49
-3.0
 49
4.0
 49
-5.0
  0
LTYPE
  2
RAND3
 70
    64
  3
ランダム線3
 72
    65
 73
     4
 40
18.0
 49
3.0
 49
-4.0
 49
5.0
 49
-6.0
  0
LTYPE
  2
RAND4
 70
    64
  3
ランダム線4
 72
    65
 73
     4
 40
22.0
 49
4.0
 49
-5.0
 49
6.0
 49
-7.0
  0
LTYPE
  2
RAND5
 70
    64
  3
ランダム線5
 72
    65
 73
     4
 40
26.0
 49
5.0
 49
-6.0
 49
7.0
 49
-8.0
  0
LTYPE
  2
LONG1
 70
    64
  3
----------  --  ----------  --  
 72
    65
 73
     4
 40
40.0
 49
32.5
 49
-2.5
 49
2.5
 49
-2.5
  0
LTYPE
  2
LONG2
 70
    64
  3
--------  -  -  --------  -  -  
 72
    65
 73
     6
 40
40.0
 49
30.0
 49
-2.5
 49
1.25
 49
-2.5
 49
1.25
 49
-2.5
  0
LTYPE
  2
LONG3
 70
    64
  3
+++++++++++++++..+++++++++++++++
 72
    65
 73
     2
 40
40.0
 49
37.5
 49
-2.5
  0
LTYPE
  2
LONG4
 70
    64
  3
+++++++++++++++..+++++++++++++++
 72
    65
 73
     2
 40
80.0
 49
75.0
 49
-5.0
  0
LTYPE
  2
LONG5
 70
    64
  3
----------  --  ----------  --  
 72
    65
 73
     4
 40
60.0
 49
37.5
 49
-7.5
 49
7.5
 49
-7.5
  0
LTYPE
  2
dashed
 70
   64
  3
-------   -------------   ------
 72
   65
 73
    2
 40
7.5
 49
6
 49
-1.5
  0
LTYPE
  2
dashed_spaced
 70
   64
  3
----        --------        ----
 72
   65
 73
    2
 40
12
 49
6
 49
-6
  0
LTYPE
  2
long_dashed_dotted
 70
   64
  3
------------- --- --------------
 72
   65
 73
    4
 40
15.25
 49
12
 49
-1.5
 49
0.25
 49
-1.5
  0
LTYPE
  2
long_dashed_double-dotted
 70
   64
  3
----------- --- --- ------------
 72
   65
 73
    6
 40
17
 49
12
 49
-1.5
 49
0.25
 49
-1.5
 49
0.25
 49
-1.5
  0
LTYPE
  2
long_dashed_triplicate-dotted
 70
   64
  3
--------- --- --- --- ----------
 72
   65
 73
    8
 40
18.75
 49
12
 49
-1.5
 49
0.25
 49
-1.5
 49
0.25
 49
-1.5
 49
0.25
 49
-1.5
  0
LTYPE
  2
dotted
 70
   64
  3
   -       -       -       -    
 72
   65
 73
    2
 40
1.75
 49
0.25
 49
-1.5
  0
LTYPE
  2
chain
 70
   64
  3
-------------- -- --------------
 72
   65
 73
    4
 40
18.5
 49
12
 49
-1.5
 49
3.5
 49
-1.5
  0
LTYPE
  2
chain_double_dash
 70
   64
  3
------------ -- -- -------------
 72
   65
 73
    6
 40
23.5
 49
12
 49
-1.5
 49
3.5
 49
-1.5
 49
3.5
 49
-1.5
  0
LTYPE
  2
dashed_dotted
 70
   64
  3
-----------     -     ----------
 72
   65
 73
    4
 40
9.25
 49
6
 49
-1.5
 49
0.25
 49
-1.5
  0
LTYPE
  2
double-dashed_dotted
 70
   64
  3
------   -----------   -   -----
 72
   65
 73
    6
 40
16.75
 49
6
 49
-1.5
 49
6
 49
-1.5
 49
0.25
 49
-1.5
  0
LTYPE
  2
dashed_double-dotted
 70
   64
  3
---------    -    -    ---------
 72
   65
 73
    6
 40
11
 49
6
 49
-1.5
 49
0.25
 49
-1.5
 49
0.25
 49
-1.5
  0
LTYPE
  2
double-dashed_double-dotted
 70
   64
  3
-----   ---------   -   -   ----
 72
   65
 73
    8
 40
18.5
 49
6
 49
-1.5
 49
6
 49
-1.5
 49
0.25
 49
-1.5
 49
0.25
 49
-1.5
  0
LTYPE
  2
dashed_triplicate-dotted
 70
   64
  3
-------    -    -    -    ------
 72
   65
 73
    8
 40
12.75
 49
6
 49
-1.5
 49
0.25
 49
-1.5
 49
0.25
 49
-1.5
 49
0.25
 49
-1.5
  0
LTYPE
  2
double-dashed_triplicate-dotted
 70
   64
  3
-----  ---------  -  -  -  -----
 72
   65
 73
   10
 40
20.25
 49
6
 49
-1.5
 49
6
 49
-1.5
 49
0.25
 49
-1.5
 49
0.25
 49
-1.5
 49
0.25
 49
-1.5
  0
LTYPE
  2
undefined
 70
   64
  3
--------------------------------
 72
   65
 73
    0
 40
0
  0
LTYPE
  2
_
 70
   64
  3
                                
 72
   65
 73
    0
 40
0
  0
LTYPE
  2
__18
 70
   64
  3
                                
 72
   65
 73
    0
 40
0
  0
LTYPE
  2
__19
 70
   64
  3
                                
 72
   65
 73
    0
 40
0
  0
LTYPE
  2
__20
 70
   64
  3
                                
 72
   65
 73
    0
 40
0
  0
LTYPE
  2
__21
 70
   64
  3
                                
 72
   65
 73
    0
 40
0
  0
LTYPE
  2
__22
 70
   64
  3
                                
 72
   65
 73
    0
 40
0
  0
LTYPE
  2
__23
 70
   64
  3
                                
 72
   65
 73
    0
 40
0
  0
LTYPE
  2
__24
 70
   64
  3
                                
 72
   65
 73
    0
 40
0
  0
LTYPE
  2
__25
 70
   64
  3
                                
 72
   65
 73
    0
 40
0
  0
LTYPE
  2
__26
 70
   64
  3
                                
 72
   65
 73
    0
 40
0
  0
LTYPE
  2
__27
 70
   64
  3
                                
 72
   65
 73
    0
 40
0
  0
LTYPE
  2
__28
 70
   64
  3
                                
 72
   65
 73
    0
 40
0
  0
LTYPE
  2
__29
 70
   64
  3
                                
 72
   65
 73
    0
 40
0
  0
LTYPE
  2
__30
 70
   64
  3
                                
 72
   65
 73
    0
 40
0
  0
LTYPE
  2
__31
 70
   64
  3
                                
 72
   65
 73
    0
 40
0
  0
LTYPE
  2
__32
 70
   64
  3
                                
 72
   65
 73
    0
 40
0
  0
ENDTAB
  0
TABLE
  2
STYLE
  5
3
100
AcDbSymbolTable
 70
     1
  0
STYLE
  5
10
100
AcDbSymbolTableRecord
100
AcDbTextStyleTableRecord
  2
STANDARD
 70
     0
 40
0.0
 41
1.0
 50
0.0
 71
     0
 42
0.2
  3
txt
  4
bigfont.shx
  0
STYLE
  5
26
100
AcDbSymbolTableRecord
100
AcDbTextStyleTableRecord
  2
TATEGAKI
 70
    68
 40
0.0
 41
1.0
 50
0.0
 71
     0
 42
1.0
  3
txt
  4
bigfont.shx
  0
ENDTAB
  0
TABLE
  2
LAYER
 70
    2
  0
LAYER
  2
_1-0_
 70
   64
 62
    7
  6
CONTINUOUS
  0
LAYER
  2
ADD_LINE
 70
   64
 62
    7
  6
CONTINUOUS
  0
ENDTAB
  0
ENDSEC
  0
SECTION
  2
BLOCKS
  0
BLOCK
  2
-000-_None
 70
   64
 10
0
 20
0
 30
0
  0
ENDBLK
  0
ENDSEC
  0
SECTION
  2
ENTITIES
  0
LINE
  8
_1-0_
  6
CONTINUOUS
 62
    4
 10
88.158885980509751
 20
336.31888392656594
 11
114.55888369169139
 21
336.31888392656594
  0
CIRCLE
  8
_1-0_
  6
CONTINUOUS
 62
    7
 10
101.35888448769333
 20
495.61453256272238
 40
26.850000000000001
  0
CIRCLE
  8
_1-0_
  6
CONTINUOUS
 62
    7
 10
101.35888448769333
 20
495.61453256272238
 40
4.9999999999994999
  0
CIRCLE
  8
_1-0_
  6
CONTINUOUS
 62
    7
 10
95.895189805357858
 20
502.12591032923444
 40
2.5000000000005004
  0
CIRCLE
  8
_1-0_
  6
CONTINUOUS
 62
    7
 10
92.988018587089925
 20
497.09054207289193
 40
2.5000000000005004
  0
CIRCLE
  8
_1-0_
  6
CONTINUOUS
 62
    7
 10
93.997668555525422
 20
491.36453256272289
 40
2.5000000000005004
  0
CIRCLE
  8
_1-0_
  6
CONTINUOUS
 62
    7
 10
98.451713269425397
 20
487.62714528604249
 40
2.5000000000005004
  0
CIRCLE
  8
_1-0_
  6
CONTINUOUS
 62
    7
 10
104.26605570596143
 20
487.62714528604249
 40
2.5000000000005004
  0
CIRCLE
  8
_1-0_
  6
CONTINUOUS
 62
    7
 10
108.72010041986141
 20
491.36453256272289
 40
2.5000000000005004
  0
CIRCLE
  8
_1-0_
  6
CONTINUOUS
 62
    7
 10
109.7297503882969
 20
497.09054207289193
 40
2.5000000000005004
  0
CIRCLE
  8
_1-0_
  6
CONTINUOUS
 62
    7
 10
106.82257917002885
 20
502.12591032923444
 40
2.5000000000005004
  0
CIRCLE
  8
_1-0_
  6
CONTINUOUS
 62
    7
 10
101.35888448769333
 20
504.11453256272295
 40
2.5000000000005004
  0
INSERT
  2
-000-_None
  8
_1-0_
 10
88.891918314028941
 20
488.21015855645589
 41
0.1499999999999999
 42
0.1499999999999999
 50
210.70690126177498
  0
INSERT
  2
-000-_None
  8
_1-0_
 10
106.60991301382688
 20
501.43969279354843
 41
0.1499999999999999
 42
0.1499999999999999
 50
47.967257976598993
  0
INSERT
  2
-000-_None
  8
_1-0_
 10
104.94029247716741
 20
495.13029550872198
 41
0.1499999999999999
 42
0.1499999999999999
 50
135.10664774295298
  0
CIRCLE
  8
_1-0_
  6
CONTINUOUS
 62
    4
 10
101.35888448769333
 20
495.61453256272238
 40
19.133442981194999
  0
CIRCLE
  8
_1-0_
  6
CONTINUOUS
 62
    4
 10
101.35888448769333
 20
495.61453256272238
 40
14.260146210643501
  0
CIRCLE
  8
_1-0_
  6
CONTINUOUS
 62
    4
 10
101.35888448769333
 20
495.61453256272238
 40
12.1000000000005
  0
CIRCLE
  8
_1-0_
  6
CONTINUOUS
 62
    4
 10
101.35888448769333
 20
495.61453256272238
 40
26.237524472827502
  0
LINE
  8
_1-0_
  6
CONTINUOUS
 62
    7
 10
116.00888448769342
 20
434.177322702085
 11
117.25888448769342
 21
433.20971231155567
  0
LINE
  8
_1-0_
  6
CONTINUOUS
 62
    7
 10
117.25888448769342
 20
433.20971231155567
 11
116.00888448769342
 21
432.17663711710326
  0
INSERT
  2
-000-_None
  8
_1-0_
 10
73.532706924877857
 20
458.43144757819436
 41
0.1499999999999999
 42
0.1499999999999999
 50
227.96725797660207
  0
LINE
  8
_1-0_
  6
CONTINUOUS
 62
    7
 10
86.20888448769341
 20
435.10079511730884
 11
85.45888448769341
 21
435.85079511730884
  0
LINE
  8
_1-0_
  6
CONTINUOUS
 62
    7
 10
116.50888448769342
 20
435.10079511730884
 11
117.25888448769342
 21
435.85079511730884
  0
ARC
  8
_1-0_
  6
CONTINUOUS
 62
    7
 10
75.008884487694444
 20
452.36307715897584
 40
0.4999999999995
 50
77.00000000000098
 51
179.99999999998402
  0
ARC
  8
_1-0_
  6
CONTINUOUS
 62
    7
 10
75.008884487694444
 20
452.15781633741681
 40
0.4999999999995
 50
179.99999999998701
 51
256.99999999999698
  0
LINE
  8
_1-0_
  6
CONTINUOUS
 62
    7
 10
74.508884487693421
 20
452.15781633741681
 11
74.508884487693421
 21
452.36307715897584
  0
LINE
  8
_1-0_
  6
CONTINUOUS
 62
    7
 10
74.896408960521398
 20
451.6706313050243
 11
79.774514671005363
 21
450.01441375230535
  0
ARC
  8
_1-0_
  6
CONTINUOUS
 62
    7
 10
78.16703555266838
 20
445.27985876961531
 40
4.9999999999994999
 50
12.250000000000001
 51
71.246589897256001
  0
LINE
  8
_1-0_
  6
CONTINUOUS
 62
    7
 10
75.121360014865842
 20
452.85026219136835
 11
127.59640896052241
 21
452.85026219136835
  0
ARC
  8
_1-0_
  6
CONTINUOUS
 62
    7
 10
127.70888448769392
 20
452.36307715897584
 40
0.4999999999995
 50
0.0000000000160045
 51
102.99999999999697
  0
ARC
  8
_1-0_
  6
CONTINUOUS
 62
    7
 10
127.70888448769392
 20
452.15781633741681
 40
0.4999999999995
 50
283.00000000000397
 51
0.0000000000130148
  0
LINE
  8
_1-0_
  6
CONTINUOUS
 62
    7
 10
128.20888448769341
 20
452.15781633741681
 11
128.20888448769341
 21
452.36307715897584
  0
LINE
  8
_1-0_
  6
CONTINUOUS
 62
    7
 10
127.82136001486537
 20
451.6706313050243
 11
122.94325430438289
 21
450.01441375230535
  0
ARC
  8
_1-0_
  6
CONTINUOUS
 62
    7
 10
124.55073342271987
 20
445.27985876961531
 40
4.9999999999994999
 50
108.75341010274401
 51
167.75000000000005
  0
LINE
  8
_1-0_
  6
CONTINUOUS
 62
    7
 10
85.45888448769341
 20
435.85079511730884
 11
83.053191084981335
 21
446.34074713039728
  0
LINE
  8
_1-0_
  6
CONTINUOUS
 62
    7
 10
117.25888448769342
 20
435.85079511730884
 11
119.66457789040538
 21
446.34074713039728
  0
LINE
  8
_1-0_
  6
CONTINUOUS
 62
    4
 10
79.774514671005363
 20
450.01441375230535
 11
122.94325430438289
 21
450.01441375230535
  0
LINE
  8
_1-0_
  6
CONTINUOUS
 62
    4
 10
74.896408960521398
 20
451.6706313050243
 11
127.82136001486537
 21
451.6706313050243
  0
LINE
  8
_1-0_
  6
CONTINUOUS
 62
    4
 10
117.25888448769342
 20
435.85079511730884
 11
85.45888448769341
 21
435.85079511730884
  0
LINE
  8
_1-0_
  6
CONTINUOUS
 62
    4
 10
85.45888448769341
 20
354.35026219136778
 11
117.25888448769342
 21
355.18297449726793
  0
LINE
  8
_1-0_
  6
CONTINUOUS
 62
    4
 10
85.45888448769341
 20
434.37768559063727
 11
113.07332321428435
 21
435.10079511730884
  0
LINE
  8
_1-0_
  6
CONTINUOUS
 62
    7
 10
85.45888448769341
 20
434.37768559063727
 11
86.70888448769341
 21
433.41007520010782
  0
LINE
  8
_1-0_
  6
CONTINUOUS
 62
    7
 10
86.70888448769341
 20
433.41007520010782
 11
85.45888448769341
 21
432.37700000565547
  0
LINE
  8
_1-0_
  6
CONTINUOUS
 62
    7
 10
85.45888448769341
 20
432.37700000565547
 11
86.70888448769341
 21
431.40938961512608
  0
LINE
  8
_1-0_
  6
CONTINUOUS
 62
    7
 10
86.70888448769341
 20
431.40938961512608
 11
85.45888448769341
 21
430.37631442067379
  0
LINE
  8
_1-0_
  6
CONTINUOUS
 62
    7
 10
85.45888448769341
 20
430.37631442067379
 11
86.70888448769341
 21
429.40870403014446
  0
LINE
  8
_1-0_
  6
CONTINUOUS
 62
    7
 10
86.70888448769341
 20
429.40870403014446
 11
85.45888448769341
 21
428.37562883569205
  0
LINE
  8
_1-0_
  6
CONTINUOUS
 62
    7
 10
85.45888448769341
 20
428.37562883569205
 11
86.70888448769341
 21
427.40801844516272
  0
LINE
  8
_1-0_
  6
CONTINUOUS
 62
    7
 10
86.70888448769341
 20
427.40801844516272
 11
85.45888448769341
 21
426.37494325071043
  0
LINE
  8
_1-0_
  6
CONTINUOUS
 62
    7
 10
85.45888448769341
 20
426.37494325071043
 11
86.70888448769341
 21
425.40733286018098
  0
LINE
  8
_1-0_
  6
CONTINUOUS
 62
    7
 10
86.70888448769341
 20
425.40733286018098
 11
85.45888448769341
 21
424.37425766572857
  0
LINE
  8
_1-0_
  6
CONTINUOUS
 62
    7
 10
85.45888448769341
 20
424.37425766572857
 11
86.70888448769341
 21
423.40664727519936
  0
LINE
  8
_1-0_
  6
CONTINUOUS
 62
    7
 10
86.70888448769341
 20
423.40664727519936
 11
85.45888448769341
 21
422.37357208074701
  0
LINE
  8
_1-0_
  6
CONTINUOUS
 62
    7
 10
85.45888448769341
 20
422.37357208074701
 11
86.70888448769341
 21
421.40596169021756
  0
LINE
  8
_1-0_
  6
CONTINUOUS
 62
    7
 10
86.70888448769341
 20
421.40596169021756
 11
85.45888448769341
 21
420.37288649576521
  0
LINE
  8
_1-0_
  6
CONTINUOUS
 62
    7
 10
85.45888448769341
 20
420.37288649576521
 11
86.70888448769341
 21
419.40527610523588
  0
LINE
  8
_1-0_
  6
CONTINUOUS
 62
    7
 10
86.70888448769341
 20
419.40527610523588
 11
85.45888448769341
 21
418.37220091078353
  0
LINE
  8
_1-0_
  6
CONTINUOUS
 62
    7
 10
85.45888448769341
 20
418.37220091078353
 11
86.70888448769341
 21
417.40459052025414
  0
LINE
  8
_1-0_
  6
CONTINUOUS
 62
    7
 10
86.70888448769341
 20
417.40459052025414
 11
85.45888448769341
 21
416.37151532580185
  0
LINE
  8
_1-0_
  6
CONTINUOUS
 62
    7
 10
85.45888448769341
 20
416.37151532580185
 11
86.70888448769341
 21
415.40390493527246
  0
LINE
  8
_1-0_
  6
CONTINUOUS
 62
    7
 10
86.70888448769341
 20
415.40390493527246
 11
85.45888448769341
 21
414.37082974082011
  0
LINE
  8
_1-0_
  6
CONTINUOUS
 62
    7
 10
85.45888448769341
 20
414.37082974082011
 11
86.70888448769341
 21
413.40321935029066
  0
LINE
  8
_1-0_
  6
CONTINUOUS
 62
    7
 10
86.70888448769341
 20
413.40321935029066
 11
85.45888448769341
 21
412.37014415583837
  0
LINE
  8
_1-0_
  6
CONTINUOUS
 62
    7
 10
85.45888448769341
 20
412.37014415583837
 11
86.70888448769341
 21
411.4025337653091
  0
LINE
  8
_1-0_
  6
CONTINUOUS
 62
    7
 10
86.70888448769341
 20
411.4025337653091
 11
85.45888448769341
 21
410.36945857085663
  0
LINE
  8
_1-0_
  6
CONTINUOUS
 62
    7
 10
85.45888448769341
 20
410.36945857085663
 11
86.70888448769341
 21
409.40184818032724
  0
LINE
  8
_1-0_
  6
CONTINUOUS
 62
    7
 10
86.70888448769341
 20
409.40184818032724
 11
85.45888448769341
 21
408.36877298587495
  0
LINE
  8
_1-0_
  6
CONTINUOUS
 62
    7
 10
85.45888448769341
 20
408.36877298587495
 11
86.70888448769341
 21
407.40116259534562
  0
LINE
  8
_1-0_
  6
CONTINUOUS
 62
    7
 10
86.70888448769341
 20
407.40116259534562
 11
85.45888448769341
 21
406.36808740089321
  0
LINE
  8
_1-0_
  6
CONTINUOUS
 62
    7
 10
85.45888448769341
 20
406.36808740089321
 11
86.70888448769341
 21
405.40047701036382
  0
LINE
  8
_1-0_
  6
CONTINUOUS
 62
    7
 10
86.70888448769341
 20
405.40047701036382
 11
85.45888448769341
 21
404.36740181591153
  0
LINE
  8
_1-0_
  6
CONTINUOUS
 62
    7
 10
85.45888448769341
 20
404.36740181591153
 11
86.70888448769341
 21
403.3997914253822
  0
LINE
  8
_1-0_
  6
CONTINUOUS
 62
    7
 10
86.70888448769341
 20
403.3997914253822
 11
85.45888448769341
 21
402.36671623092985
  0
LINE
  8
_1-0_
  6
CONTINUOUS
 62
    7
 10
85.45888448769341
 20
402.36671623092985
 11
86.70888448769341
 21
401.39910584040046
  0
LINE
  8
_1-0_
  6
CONTINUOUS
 62
    7
 10
86.70888448769341
 20
401.39910584040046
 11
85.45888448769341
 21
400.36603064594805
  0
LINE
  8
_1-0_
  6
CONTINUOUS
 62
    7
 10
85.45888448769341
 20
400.36603064594805
 11
86.70888448769341
 21
399.39842025541878
  0
LINE
  8
_1-0_
  6
CONTINUOUS
 62
    7
 10
86.70888448769341
 20
399.39842025541878
 11
85.45888448769341
 21
398.36534506096643
  0
LINE
  8
_1-0_
  6
CONTINUOUS
 62
    7
 10
85.45888448769341
 20
398.36534506096643
 11
86.70888448769341
 21
397.39773467043704
  0
LINE
  8
_1-0_
  6
CONTINUOUS
 62
    7
 10
86.70888448769341
 20
397.39773467043704
 11
85.45888448769341
 21
396.36465947598469
  0
LINE
  8
_1-0_
  6
CONTINUOUS
 62
    7
 10
85.45888448769341
 20
396.36465947598469
 11
86.70888448769341
 21
395.39704908545536
  0
LINE
  8
_1-0_
  6
CONTINUOUS
 62
    7
 10
86.70888448769341
 20
395.39704908545536
 11
85.45888448769341
 21
394.36397389100301
  0
LINE
  8
_1-0_
  6
CONTINUOUS
 62
    7
 10
85.45888448769341
 20
394.36397389100301
 11
86.70888448769341
 21
393.39636350047362
  0
LINE
  8
_1-0_
  6
CONTINUOUS
 62
    7
 10
86.70888448769341
 20
393.39636350047362
 11
85.45888448769341
 21
392.36328830602127
  0
LINE
  8
_1-0_
  6
CONTINUOUS
 62
    7
 10
85.45888448769341
 20
392.36328830602127
 11
86.70888448769341
 21
391.39567791549194
  0
LINE
  8
_1-0_
  6
CONTINUOUS
 62
    7
 10
86.70888448769341
 20
391.39567791549194
 11
85.45888448769341
 21
390.36260272103959
  0
LINE
  8
_1-0_
  6
CONTINUOUS
 62
    7
 10
85.45888448769341
 20
390.36260272103959
 11
86.70888448769341
 21
389.3949923305102
  0
LINE
  8
_1-0_
  6
CONTINUOUS
 62
    7
 10
86.70888448769341
 20
389.3949923305102
 11
85.45888448769341
 21
388.36191713605785
  0
LINE
  8
_1-0_
  6
CONTINUOUS
 62
    7
 10
85.45888448769341
 20
388.36191713605785
 11
86.70888448769341
 21
387.39430674552852
  0
LINE
  8
_1-0_
  6
CONTINUOUS
 62
    7
 10
86.70888448769341
 20
387.39430674552852
 11
85.45888448769341
 21
386.36123155107617
  0
LINE
  8
_1-0_
  6
CONTINUOUS
 62
    7
 10
85.45888448769341
 20
386.36123155107617
 11
86.70888448769341
 21
385.39362116054678
  0
LINE
  8
_1-0_
  6
CONTINUOUS
 62
    7
 10
86.70888448769341
 20
385.39362116054678
 11
85.45888448769341
 21
384.36054596609443
  0
LINE
  8
_1-0_
  6
CONTINUOUS
 62
    7
 10
85.45888448769341
 20
384.36054596609443
 11
86.70888448769341
 21
383.3929355755651
  0
LINE
  8
_1-0_
  6
CONTINUOUS
 62
    7
 10
86.70888448769341
 20
383.3929355755651
 11
85.45888448769341
 21
382.35986038111275
  0
LINE
  8
_1-0_
  6
CONTINUOUS
 62
    7
 10
85.45888448769341
 20
382.35986038111275
 11
86.70888448769341
 21
381.39224999058336
  0
LINE
  8
_1-0_
  6
CONTINUOUS
 62
    7
 10
86.70888448769341
 20
381.39224999058336
 11
85.45888448769341
 21
380.35917479613101
  0
LINE
  8
_1-0_
  6
CONTINUOUS
 62
    7
 10
85.45888448769341
 20
380.35917479613101
 11
86.70888448769341
 21
379.39156440560168
  0
LINE
  8
_1-0_
  6
CONTINUOUS
 62
    7
 10
86.70888448769341
 20
379.39156440560168
 11
85.45888448769341
 21
378.35848921114933
  0
LINE
  8
_1-0_
  6
CONTINUOUS
 62
    7
 10
85.45888448769341
 20
378.35848921114933
 11
86.70888448769341
 21
377.39087882061994
  0
LINE
  8
_1-0_
  6
CONTINUOUS
 62
    7
 10
86.70888448769341
 20
377.39087882061994
 11
85.45888448769341
 21
376.35780362616759
  0
LINE
  8
_1-0_
  6
CONTINUOUS
 62
    7
 10
85.45888448769341
 20
376.35780362616759
 11
86.70888448769341
 21
375.39019323563826
  0
LINE
  8
_1-0_
  6
CONTINUOUS
 62
    7
 10
86.70888448769341
 20
375.39019323563826
 11
85.45888448769341
 21
374.35711804118591
  0
LINE
  8
_1-0_
  6
CONTINUOUS
 62
    7
 10
85.45888448769341
 20
374.35711804118591
 11
86.70888448769341
 21
373.38950765065652
  0
LINE
  8
_1-0_
  6
CONTINUOUS
 62
    7
 10
86.70888448769341
 20
373.38950765065652
 11
85.45888448769341
 21
372.35643245620417
  0
LINE
  8
_1-0_
  6
CONTINUOUS
 62
    7
 10
85.45888448769341
 20
372.35643245620417
 11
86.70888448769341
 21
371.38882206567484
  0
LINE
  8
_1-0_
  6
CONTINUOUS
 62
    7
 10
86.70888448769341
 20
371.38882206567484
 11
85.45888448769341
 21
370.35574687122249
  0
LINE
  8
_1-0_
  6
CONTINUOUS
 62
    7
 10
85.45888448769341
 20
370.35574687122249
 11
86.70888448769341
 21
369.3881364806931
  0
LINE
  8
_1-0_
  6
CONTINUOUS
 62
    7
 10
86.70888448769341
 20
369.3881364806931
 11
85.45888448769341
 21
368.35506128624075
  0
LINE
  8
_1-0_
  6
CONTINUOUS
 62
    7
 10
85.45888448769341
 20
368.35506128624075
 11
86.70888448769341
 21
367.38745089571142
  0
LINE
  8
_1-0_
  6
CONTINUOUS
 62
    7
 10
86.70888448769341
 20
367.38745089571142
 11
85.45888448769341
 21
366.35437570125907
  0
LINE
  8
_1-0_
  6
CONTINUOUS
 62
    7
 10
85.45888448769341
 20
366.35437570125907
 11
86.70888448769341
 21
365.38676531072968
  0
LINE
  8
_1-0_
  6
CONTINUOUS
 62
    7
 10
86.70888448769341
 20
365.38676531072968
 11
85.45888448769341
 21
364.35369011627733
  0
LINE
  8
_1-0_
  6
CONTINUOUS
 62
    7
 10
85.45888448769341
 20
364.35369011627733
 11
86.70888448769341
 21
363.386079725748
  0
LINE
  8
_1-0_
  6
CONTINUOUS
 62
    7
 10
86.70888448769341
 20
363.386079725748
 11
85.45888448769341
 21
362.35300453129565
  0
LINE
  8
_1-0_
  6
CONTINUOUS
 62
    7
 10
85.45888448769341
 20
362.35300453129565
 11
86.70888448769341
 21
361.38539414076626
  0
LINE
  8
_1-0_
  6
CONTINUOUS
 62
    7
 10
86.70888448769341
 20
361.38539414076626
 11
85.45888448769341
 21
360.35231894631391
  0
LINE
  8
_1-0_
  6
CONTINUOUS
 62
    7
 10
85.45888448769341
 20
360.35231894631391
 11
86.70888448769341
 21
359.38470855578458
  0
LINE
  8
_1-0_
  6
CONTINUOUS
 62
    7
 10
86.70888448769341
 20
359.38470855578458
 11
85.45888448769341
 21
358.35163336133223
  0
LINE
  8
_1-0_
  6
CONTINUOUS
 62
    7
 10
85.45888448769341
 20
358.35163336133223
 11
86.70888448769341
 21
357.38402297080284
  0
LINE
  8
_1-0_
  6
CONTINUOUS
 62
    7
 10
86.70888448769341
 20
357.38402297080284
 11
85.45888448769341
 21
356.35094777635049
  0
LINE
  8
_1-0_
  6
CONTINUOUS
 62
    7
 10
85.45888448769341
 20
356.35094777635049
 11
86.70888448769341
 21
355.38333738582116
  0
LINE
  8
_1-0_
  6
CONTINUOUS
 62
    7
 10
116.00888448769342
 20
432.17663711710326
 11
117.25888448769342
 21
431.20902672657393
  0
LINE
  8
_1-0_
  6
CONTINUOUS
 62
    7
 10
117.25888448769342
 20
431.20902672657393
 11
116.00888448769342
 21
430.17595153212164
  0
LINE
  8
_1-0_
  6
CONTINUOUS
 62
    7
 10
116.00888448769342
 20
430.17595153212164
 11
117.25888448769342
 21
429.20834114159225
  0
LINE
  8
_1-0_
  6
CONTINUOUS
 62
    7
 10
117.25888448769342
 20
429.20834114159225
 11
116.00888448769342
 21
428.1752659471399
  0
LINE
  8
_1-0_
  6
CONTINUOUS
 62
    7
 10
116.00888448769342
 20
428.1752659471399
 11
117.25888448769342
 21
427.20765555661057
  0
LINE
  8
_1-0_
  6
CONTINUOUS
 62
    7
 10
117.25888448769342
 20
427.20765555661057
 11
116.00888448769336
 21
426.17458036215816
  0
LINE
  8
_1-0_
  6
CONTINUOUS
 62
    7
 10
116.00888448769336
 20
426.17458036215816
 11
117.25888448769336
 21
425.20696997162878
  0
LINE
  8
_1-0_
  6
CONTINUOUS
 62
    7
 10
117.25888448769336
 20
425.20696997162878
 11
116.00888448769336
 21
424.17389477717654
  0
LINE
  8
_1-0_
  6
CONTINUOUS
 62
    7
 10
116.00888448769336
 20
424.17389477717654
 11
117.25888448769336
 21
423.20628438664709
  0
LINE
  8
_1-0_
  6
CONTINUOUS
 62
    7
 10
117.25888448769336
 20
423.20628438664709
 11
116.00888448769336
 21
422.17320919219474
  0
LINE
  8
_1-0_
  6
CONTINUOUS
 62
    7
 10
116.00888448769325
 20
422.17320919219474
 11
117.25888448769336
 21
421.20559880166536
  0
LINE
  8
_1-0_
  6
CONTINUOUS
 62
    7
 10
117.25888448769336
 20
421.20559880166536
 11
116.00888448769325
 21
420.17252360721306
  0
LINE
  8
_1-0_
  6
CONTINUOUS
 62
    7
 10
116.00888448769325
 20
420.17252360721306
 11
117.25888448769325
 21
419.20491321668367
  0
LINE
  8
_1-0_
  6
CONTINUOUS
 62
    7
 10
117.25888448769325
 20
419.20491321668367
 11
116.00888448769325
 21
418.17183802223132
  0
LINE
  8
_1-0_
  6
CONTINUOUS
 62
    7
 10
116.00888448769325
 20
418.17183802223132
 11
117.25888448769325
 21
417.20422763170188
  0
LINE
  8
_1-0_
  6
CONTINUOUS
 62
    7
 10
117.25888448769325
 20
417.20422763170188
 11
116.00888448769325
 21
416.17115243724964
  0
LINE
  8
_1-0_
  6
CONTINUOUS
 62
    7
 10
116.00888448769325
 20
416.17115243724964
 11
117.25888448769325
 21
415.2035420467202
  0
LINE
  8
_1-0_
  6
CONTINUOUS
 62
    7
 10
117.25888448769325
 20
415.2035420467202
 11
116.00888448769325
 21
414.17046685226785
  0
LINE
  8
_1-0_
  6
CONTINUOUS
 62
    7
 10
116.00888448769325
 20
414.17046685226785
 11
117.25888448769325
 21
413.20285646173852
  0
LINE
  8
_1-0_
  6
CONTINUOUS
 62
    7
 10
117.25888448769325
 20
413.20285646173852
 11
116.00888448769325
 21
412.16978126728628
  0
LINE
  8
_1-0_
  6
CONTINUOUS
 62
    7
 10
116.00888448769325
 20
412.16978126728628
 11
117.25888448769325
 21
411.20217087675683
  0
LINE
  8
_1-0_
  6
CONTINUOUS
 62
    7
 10
117.25888448769325
 20
411.20217087675683
 11
116.00888448769325
 21
410.16909568230448
  0
LINE
  8
_1-0_
  6
CONTINUOUS
 62
    7
 10
116.00888448769325
 20
410.16909568230448
 11
117.25888448769325
 21
409.20148529177509
  0
LINE
  8
_1-0_
  6
CONTINUOUS
 62
    7
 10
117.25888448769325
 20
409.20148529177509
 11
116.00888448769325
 21
408.16841009732274
  0
LINE
  8
_1-0_
  6
CONTINUOUS
 62
    7
 10
116.00888448769325
 20
408.16841009732274
 11
117.25888448769325
 21
407.20079970679341
  0
LINE
  8
_1-0_
  6
CONTINUOUS
 62
    7
 10
117.25888448769325
 20
407.20079970679341
 11
116.00888448769325
 21
406.16772451234106
  0
LINE
  8
_1-0_
  6
CONTINUOUS
 62
    7
 10
116.00888448769325
 20
406.16772451234106
 11
117.25888448769325
 21
405.20011412181167
  0
LINE
  8
_1-0_
  6
CONTINUOUS
 62
    7
 10
117.25888448769325
 20
405.20011412181167
 11
116.00888448769325
 21
404.16703892735938
  0
LINE
  8
_1-0_
  6
CONTINUOUS
 62
    7
 10
116.00888448769325
 20
404.16703892735938
 11
117.25888448769325
 21
403.19942853682999
  0
LINE
  8
_1-0_
  6
CONTINUOUS
 62
    7
 10
117.25888448769325
 20
403.19942853682999
 11
116.00888448769325
 21
402.16635334237759
  0
LINE
  8
_1-0_
  6
CONTINUOUS
 62
    7
 10
116.00888448769325
 20
402.16635334237759
 11
117.25888448769325
 21
401.1987429518482
  0
LINE
  8
_1-0_
  6
CONTINUOUS
 62
    7
 10
117.25888448769325
 20
401.1987429518482
 11
116.00888448769325
 21
400.16566775739596
  0
LINE
  8
_1-0_
  6
CONTINUOUS
 62
    7
 10
116.00888448769319
 20
400.16566775739596
 11
117.25888448769319
 21
399.19805736686657
  0
LINE
  8
_1-0_
  6
CONTINUOUS
 62
    7
 10
117.25888448769319
 20
399.19805736686657
 11
116.00888448769319
 21
398.16498217241422
  0
LINE
  8
_1-0_
  6
CONTINUOUS
 62
    7
 10
116.00888448769319
 20
398.16498217241422
 11
117.25888448769319
 21
397.19737178188483
  0
LINE
  8
_1-0_
  6
CONTINUOUS
 62
    7
 10
117.25888448769319
 20
397.19737178188483
 11
116.00888448769319
 21
396.16429658743254
  0
LINE
  8
_1-0_
  6
CONTINUOUS
 62
    7
 10
116.00888448769319
 20
396.16429658743254
 11
117.25888448769319
 21
395.19668619690315
  0
LINE
  8
_1-0_
  6
CONTINUOUS
 62
    7
 10
117.25888448769319
 20
395.19668619690315
 11
116.00888448769319
 21
394.1636110024508
  0
LINE
  8
_1-0_
  6
CONTINUOUS
 62
    7
 10
116.00888448769319
 20
394.1636110024508
 11
117.25888448769319
 21
393.19600061192141
  0
LINE
  8
_1-0_
  6
CONTINUOUS
 62
    7
 10
117.25888448769319
 20
393.19600061192141
 11
116.00888448769319
 21
392.16292541746912
  0
LINE
  8
_1-0_
  6
CONTINUOUS
 62
    7
 10
116.00888448769319
 20
392.16292541746912
 11
117.25888448769319
 21
391.19531502693973
  0
LINE
  8
_1-0_
  6
CONTINUOUS
 62
    7
 10
117.25888448769319
 20
391.19531502693973
 11
116.00888448769319
 21
390.16223983248738
  0
LINE
  8
_1-0_
  6
CONTINUOUS
 62
    7
 10
116.00888448769319
 20
390.16223983248738
 11
117.25888448769319
 21
389.19462944195799
  0
LINE
  8
_1-0_
  6
CONTINUOUS
 62
    7
 10
117.25888448769319
 20
389.19462944195799
 11
116.00888448769319
 21
388.1615542475057
  0
LINE
  8
_1-0_
  6
CONTINUOUS
 62
    7
 10
116.00888448769319
 20
388.1615542475057
 11
117.25888448769319
 21
387.19394385697631
  0
LINE
  8
_1-0_
  6
CONTINUOUS
 62
    7
 10
117.25888448769319
 20
387.19394385697631
 11
116.00888448769319
 21
386.16086866252396
  0
LINE
  8
_1-0_
  6
CONTINUOUS
 62
    7
 10
116.00888448769319
 20
386.16086866252396
 11
117.25888448769319
 21
385.19325827199457
  0
LINE
  8
_1-0_
  6
CONTINUOUS
 62
    7
 10
117.25888448769319
 20
385.19325827199457
 11
116.00888448769319
 21
384.16018307754228
  0
LINE
  8
_1-0_
  6
CONTINUOUS
 62
    7
 10
116.00888448769313
 20
384.16018307754228
 11
117.25888448769313
 21
383.19257268701289
  0
LINE
  8
_1-0_
  6
CONTINUOUS
 62
    7
 10
117.25888448769313
 20
383.19257268701289
 11
116.00888448769313
 21
382.15949749256054
  0
LINE
  8
_1-0_
  6
CONTINUOUS
 62
    7
 10
116.00888448769313
 20
382.15949749256054
 11
117.25888448769313
 21
381.19188710203115
  0
LINE
  8
_1-0_
  6
CONTINUOUS
 62
    7
 10
117.25888448769313
 20
381.19188710203115
 11
116.00888448769313
 21
380.15881190757886
  0
LINE
  8
_1-0_
  6
CONTINUOUS
 62
    7
 10
116.00888448769313
 20
380.15881190757886
 11
117.25888448769313
 21
379.19120151704947
  0
LINE
  8
_1-0_
  6
CONTINUOUS
 62
    7
 10
117.25888448769313
 20
379.19120151704947
 11
116.00888448769308
 21
378.15812632259712
  0
LINE
  8
_1-0_
  6
CONTINUOUS
 62
    7
 10
116.00888448769308
 20
378.15812632259712
 11
117.25888448769308
 21
377.19051593206773
  0
LINE
  8
_1-0_
  6
CONTINUOUS
 62
    7
 10
117.25888448769308
 20
377.19051593206773
 11
116.00888448769308
 21
376.15744073761544
  0
LINE
  8
_1-0_
  6
CONTINUOUS
 62
    7
 10
116.00888448769308
 20
376.15744073761544
 11
117.25888448769308
 21
375.18983034708605
  0
LINE
  8
_1-0_
  6
CONTINUOUS
 62
    7
 10
117.25888448769308
 20
375.18983034708605
 11
116.00888448769308
 21
374.1567551526337
  0
LINE
  8
_1-0_
  6
CONTINUOUS
 62
    7
 10
116.00888448769308
 20
374.1567551526337
 11
117.25888448769308
 21
373.18914476210431
  0
LINE
  8
_1-0_
  6
CONTINUOUS
 62
    7
 10
117.25888448769308
 20
373.18914476210431
 11
116.00888448769308
 21
372.15606956765202
  0
LINE
  8
_1-0_
  6
CONTINUOUS
 62
    7
 10
116.00888448769308
 20
372.15606956765202
 11
117.25888448769308
 21
371.18845917712263
  0
LINE
  8
_1-0_
  6
CONTINUOUS
 62
    7
 10
117.25888448769308
 20
371.18845917712263
 11
116.00888448769308
 21
370.15538398267028
  0
LINE
  8
_1-0_
  6
CONTINUOUS
 62
    7
 10
116.00888448769308
 20
370.15538398267028
 11
117.25888448769308
 21
369.18777359214089
  0
LINE
  8
_1-0_
  6
CONTINUOUS
 62
    7
 10
117.25888448769308
 20
369.18777359214089
 11
116.00888448769308
 21
368.1546983976886
  0
LINE
  8
_1-0_
  6
CONTINUOUS
 62
    7
 10
116.00888448769308
 20
368.1546983976886
 11
117.25888448769308
 21
367.18708800715921
  0
LINE
  8
_1-0_
  6
CONTINUOUS
 62
    7
 10
117.25888448769308
 20
367.18708800715921
 11
116.00888448769308
 21
366.15401281270686
  0
LINE
  8
_1-0_
  6
CONTINUOUS
 62
    7
 10
116.00888448769308
 20
366.15401281270686
 11
117.25888448769308
 21
365.18640242217747
  0
LINE
  8
_1-0_
  6
CONTINUOUS
 62
    7
 10
117.25888448769308
 20
365.18640242217747
 11
116.00888448769308
 21
364.15332722772518
  0
LINE
  8
_1-0_
  6
CONTINUOUS
 62
    7
 10
116.00888448769308
 20
364.15332722772518
 11
117.25888448769308
 21
363.18571683719579
  0
LINE
  8
_1-0_
  6
CONTINUOUS
 62
    7
 10
117.25888448769308
 20
363.18571683719579
 11
116.00888448769302
 21
362.15264164274344
  0
LINE
  8
_1-0_
  6
CONTINUOUS
 62
    7
 10
116.00888448769302
 20
362.15264164274344
 11
117.25888448769302
 21
361.18503125221405
  0
LINE
  8
_1-0_
  6
CONTINUOUS
 62
    7
 10
117.25888448769302
 20
361.18503125221405
 11
116.00888448769302
 21
360.15195605776176
  0
LINE
  8
_1-0_
  6
CONTINUOUS
 62
    7
 10
116.00888448769302
 20
360.15195605776176
 11
117.25888448769302
 21
359.18434566723237
  0
LINE
  8
_1-0_
  6
CONTINUOUS
 62
    7
 10
117.25888448769302
 20
359.18434566723237
 11
116.00888448769302
 21
358.15127047278002
  0
LINE
  8
_1-0_
  6
CONTINUOUS
 62
    7
 10
116.00888448769296
 20
358.15127047278002
 11
117.25888448769302
 21
357.18366008225063
  0
LINE
  8
_1-0_
  6
CONTINUOUS
 62
    7
 10
117.25888448769302
 20
357.18366008225063
 11
116.00888448769296
 21
356.15058488779834
  0
LINE
  8
_1-0_
  6
CONTINUOUS
 62
    7
 10
116.00888448769296
 20
356.15058488779834
 11
117.25888448769296
 21
355.18297449726895
  0
LINE
  8
_1-0_
  6
CONTINUOUS
 62
    7
 10
85.45888448769341
 20
434.37768559063727
 11
86.20888448769341
 21
434.99753070729718
  0
LINE
  8
_1-0_
  6
CONTINUOUS
 62
    7
 10
86.70888448769341
 20
433.41007520010782
 11
116.00888448769342
 21
434.177322702085
  0
LINE
  8
_1-0_
  6
CONTINUOUS
 62
    7
 10
86.70888448769341
 20
431.40938961512608
 11
116.00888448769342
 21
432.17663711710326
  0
LINE
  8
_1-0_
  6
CONTINUOUS
 62
    7
 10
86.70888448769341
 20
429.40870403014434
 11
116.00888448769342
 21
430.17595153212153
  0
LINE
  8
_1-0_
  6
CONTINUOUS
 62
    7
 10
86.70888448769341
 20
427.40801844516261
 11
116.00888448769342
 21
428.17526594713979
  0
LINE
  8
_1-0_
  6
CONTINUOUS
 62
    7
 10
86.70888448769341
 20
425.40733286018087
 11
116.00888448769342
 21
426.17458036215805
  0
LINE
  8
_1-0_
  6
CONTINUOUS
 62
    7
 10
86.70888448769341
 20
423.40664727519913
 11
116.00888448769342
 21
424.17389477717631
  0
LINE
  8
_1-0_
  6
CONTINUOUS
 62
    7
 10
86.70888448769341
 20
421.40596169021739
 11
116.00888448769342
 21
422.17320919219457
  0
LINE
  8
_1-0_
  6
CONTINUOUS
 62
    7
 10
86.70888448769341
 20
419.40527610523565
 11
116.00888448769342
 21
420.17252360721283
  0
LINE
  8
_1-0_
  6
CONTINUOUS
 62
    7
 10
86.70888448769341
 20
417.40459052025397
 11
116.00888448769342
 21
418.17183802223115
  0
LINE
  8
_1-0_
  6
CONTINUOUS
 62
    7
 10
86.70888448769341
 20
415.40390493527218
 11
116.00888448769342
 21
416.17115243724936
  0
LINE
  8
_1-0_
  6
CONTINUOUS
 62
    7
 10
86.70888448769341
 20
413.40321935029044
 11
116.00888448769342
 21
414.17046685226762
  0
LINE
  8
_1-0_
  6
CONTINUOUS
 62
    7
 10
86.70888448769341
 20
411.4025337653087
 11
116.00888448769342
 21
412.16978126728588
  0
LINE
  8
_1-0_
  6
CONTINUOUS
 62
    7
 10
86.70888448769341
 20
409.40184818032696
 11
116.00888448769342
 21
410.1690956823042
  0
LINE
  8
_1-0_
  6
CONTINUOUS
 62
    7
 10
86.70888448769341
 20
407.40116259534522
 11
116.00888448769342
 21
408.1684100973224
  0
LINE
  8
_1-0_
  6
CONTINUOUS
 62
    7
 10
86.70888448769341
 20
405.40047701036348
 11
116.00888448769342
 21
406.16772451234072
  0
LINE
  8
_1-0_
  6
CONTINUOUS
 62
    7
 10
86.70888448769341
 20
403.3997914253818
 11
116.00888448769342
 21
404.16703892735893
  0
LINE
  8
_1-0_
  6
CONTINUOUS
 62
    7
 10
86.70888448769341
 20
401.39910584040001
 11
116.00888448769342
 21
402.16635334237724
  0
LINE
  8
_1-0_
  6
CONTINUOUS
 62
    7
 10
86.70888448769341
 20
399.39842025541832
 11
116.00888448769342
 21
400.16566775739551
  0
LINE
  8
_1-0_
  6
CONTINUOUS
 62
    7
 10
86.70888448769341
 20
397.39773467043659
 11
116.00888448769342
 21
398.16498217241377
  0
LINE
  8
_1-0_
  6
CONTINUOUS
 62
    7
 10
86.70888448769341
 20
395.39704908545485
 11
116.00888448769342
 21
396.16429658743197
  0
LINE
  8
_1-0_
  6
CONTINUOUS
 62
    7
 10
86.70888448769341
 20
393.39636350047311
 11
116.00888448769342
 21
394.16361100245029
  0
LINE
  8
_1-0_
  6
CONTINUOUS
 62
    7
 10
86.70888448769341
 20
391.39567791549143
 11
116.00888448769342
 21
392.16292541746861
  0
LINE
  8
_1-0_
  6
CONTINUOUS
 62
    7
 10
86.70888448769341
 20
389.39499233050963
 11
116.00888448769342
 21
390.16223983248681
  0
LINE
  8
_1-0_
  6
CONTINUOUS
 62
    7
 10
86.70888448769341
 20
387.39430674552784
 11
116.00888448769342
 21
388.16155424750502
  0
LINE
  8
_1-0_
  6
CONTINUOUS
 62
    7
 10
86.70888448769341
 20
385.39362116054616
 11
116.00888448769342
 21
386.16086866252334
  0
LINE
  8
_1-0_
  6
CONTINUOUS
 62
    7
 10
86.70888448769341
 20
383.39293557556447
 11
116.00888448769342
 21
384.16018307754166
  0
LINE
  8
_1-0_
  6
CONTINUOUS
 62
    7
 10
86.70888448769341
 20
381.39224999058268
 11
116.00888448769342
 21
382.15949749255986
  0
LINE
  8
_1-0_
  6
CONTINUOUS
 62
    7
 10
86.70888448769341
 20
379.39156440560094
 11
116.00888448769342
 21
380.15881190757812
  0
LINE
  8
_1-0_
  6
CONTINUOUS
 62
    7
 10
86.70888448769341
 20
377.3908788206192
 11
116.00888448769342
 21
378.15812632259638
  0
LINE
  8
_1-0_
  6
CONTINUOUS
 62
    7
 10
86.70888448769341
 20
375.39019323563752
 11
116.00888448769342
 21
376.15744073761464
  0
LINE
  8
_1-0_
  6
CONTINUOUS
 62
    7
 10
86.70888448769341
 20
373.38950765065578
 11
116.00888448769342
 21
374.15675515263296
  0
LINE
  8
_1-0_
  6
CONTINUOUS
 62
    7
 10
86.70888448769341
 20
371.38882206567404
 11
116.00888448769342
 21
372.15606956765122
  0
LINE
  8
_1-0_
  6
CONTINUOUS
 62
    7
 10
86.70888448769341
 20
369.38813648069225
 11
116.00888448769342
 21
370.15538398266943
  0
LINE
  8
_1-0_
  6
CONTINUOUS
 62
    7
 10
86.70888448769341
 20
367.38745089571051
 11
116.00888448769342
 21
368.15469839768769
  0
LINE
  8
_1-0_
  6
CONTINUOUS
 62
    7
 10
86.70888448769341
 20
365.38676531072883
 11
116.00888448769342
 21
366.15401281270601
  0
LINE
  8
_1-0_
  6
CONTINUOUS
 62
    7
 10
86.70888448769341
 20
363.38607972574709
 11
116.00888448769342
 21
364.15332722772427
  0
LINE
  8
_1-0_
  6
CONTINUOUS
 62
    7
 10
86.70888448769341
 20
361.38539414076529
 11
116.00888448769342
 21
362.15264164274248
  0
LINE
  8
_1-0_
  6
CONTINUOUS
 62
    7
 10
86.70888448769341
 20
359.38470855578356
 11
116.00888448769342
 21
360.15195605776074
  0
LINE
  8
_1-0_
  6
CONTINUOUS
 62
    7
 10
86.70888448769341
 20
357.38402297080187
 11
116.00888448769342
 21
358.15127047277906
  0
LINE
  8
_1-0_
  6
CONTINUOUS
 62
    4
 10
86.20888448769341
 20
435.10079511730884
 11
116.50888448769342
 21
435.10079511730884
  0
LINE
  8
_1-0_
  6
CONTINUOUS
 62
    7
 10
117.25888448769342
 20
435.2103978965373
 11
116.00888448769342
 21
434.177322702085
  0
LINE
  8
_1-0_
  6
CONTINUOUS
 62
    7
 10
116.89791191587335
 20
435.48982254548877
 11
117.25888448769342
 21
435.2103978965373
  0
LINE
  8
_1-0_
  6
CONTINUOUS
 62
    7
 10
115.8701243471844
 20
354.03521957550611
 11
115.34821129529314
 21
352.85026219136778
  0
LINE
  8
_1-0_
  6
CONTINUOUS
 62
    7
 10
117.25888448769296
 20
355.18297449726895
 11
115.8701243471844
 21
354.03521957550611
  0
LINE
  8
_1-0_
  6
CONTINUOUS
 62
    7
 10
86.70888448769341
 20
355.38333738582116
 11
85.458884487692159
 21
354.35026219136778
  0
LINE
  8
_1-0_
  6
CONTINUOUS
 62
    7
 10
116.25131951278495
 20
354.35026219136778
 11
85.458884487692159
 21
354.35026219136778
  0
LINE
  8
_1-0_
  6
CONTINUOUS
 62
    7
 10
86.708884487693353
 20
354.35026219136778
 11
87.369557680093691
 21
352.85026219136778
  0
LINE
  8
_1-0_
  6
CONTINUOUS
 62
    7
 10
115.34821129529314
 20
352.85026219136778
 11
87.369557680093691
 21
352.85026219136778
  0
LINE
  8
_1-0_
  6
CONTINUOUS
 62
    7
 10
86.708884487692102
 20
355.38333738582008
 11
116.00888448769342
 21
356.15058488779732
  0
LINE
  8
_1-0_
  6
CONTINUOUS
 62
    4
 10
85.45888448769341
 20
432.37700000565547
 11
117.25888448769342
 21
433.20971231155567
  0
LINE
  8
_1-0_
  6
CONTINUOUS
 62
    4
 10
85.45888448769341
 20
356.35094777634947
 11
117.25888448769302
 21
357.18366008224961
  0
LINE
  8
_1-0_
  6
CONTINUOUS
 62
    4
 10
85.45888448769341
 20
358.35163336133126
 11
117.25888448769302
 21
359.18434566723141
  0
LINE
  8
_1-0_
  6
CONTINUOUS
 62
    4
 10
85.45888448769341
 20
360.35231894631306
 11
117.25888448769302
 21
361.1850312522132
  0
LINE
  8
_1-0_
  6
CONTINUOUS
 62
    4
 10
85.45888448769341
 20
362.35300453129474
 11
117.25888448769308
 21
363.18571683719488
  0
LINE
  8
_1-0_
  6
CONTINUOUS
 62
    4
 10
85.45888448769341
 20
364.35369011627642
 11
117.25888448769308
 21
365.18640242217657
  0
LINE
  8
_1-0_
  6
CONTINUOUS
 62
    4
 10
85.45888448769341
 20
366.35437570125822
 11
117.25888448769308
 21
367.18708800715836
  0
LINE
  8
_1-0_
  6
CONTINUOUS
 62
    4
 10
85.45888448769341
 20
368.3550612862399
 11
117.25888448769308
 21
369.18777359214004
  0
LINE
  8
_1-0_
  6
CONTINUOUS
 62
    4
 10
85.45888448769341
 20
370.35574687122169
 11
117.25888448769308
 21
371.18845917712184
  0
LINE
  8
_1-0_
  6
CONTINUOUS
 62
    4
 10
85.45888448769341
 20
372.35643245620343
 11
117.25888448769308
 21
373.18914476210358
  0
LINE
  8
_1-0_
  6
CONTINUOUS
 62
    4
 10
85.45888448769341
 20
374.35711804118511
 11
117.25888448769308
 21
375.18983034708526
  0
LINE
  8
_1-0_
  6
CONTINUOUS
 62
    4
 10
85.45888448769341
 20
376.35780362616685
 11
117.25888448769308
 21
377.190515932067
  0
LINE
  8
_1-0_
  6
CONTINUOUS
 62
    4
 10
85.45888448769341
 20
378.35848921114865
 11
117.25888448769313
 21
379.19120151704873
  0
LINE
  8
_1-0_
  6
CONTINUOUS
 62
    4
 10
85.45888448769341
 20
380.35917479613038
 11
117.25888448769313
 21
381.19188710203053
  0
LINE
  8
_1-0_
  6
CONTINUOUS
 62
    4
 10
85.45888448769341
 20
382.35986038111207
 11
117.25888448769313
 21
383.19257268701221
  0
LINE
  8
_1-0_
  6
CONTINUOUS
 62
    4
 10
85.45888448769341
 20
384.3605459660938
 11
117.25888448769319
 21
385.19325827199395
  0
LINE
  8
_1-0_
  6
CONTINUOUS
 62
    4
 10
85.45888448769341
 20
386.3612315510756
 11
117.25888448769319
 21
387.19394385697574
  0
LINE
  8
_1-0_
  6
CONTINUOUS
 62
    4
 10
85.45888448769341
 20
388.36191713605728
 11
117.25888448769319
 21
389.19462944195743
  0
LINE
  8
_1-0_
  6
CONTINUOUS
 62
    4
 10
85.45888448769341
 20
390.36260272103902
 11
117.25888448769319
 21
391.19531502693916
  0
LINE
  8
_1-0_
  6
CONTINUOUS
 62
    4
 10
85.45888448769341
 20
392.36328830602082
 11
117.25888448769319
 21
393.1960006119209
  0
LINE
  8
_1-0_
  6
CONTINUOUS
 62
    4
 10
85.45888448769341
 20
394.3639738910025
 11
117.25888448769319
 21
395.19668619690264
  0
LINE
  8
_1-0_
  6
CONTINUOUS
 62
    4
 10
85.45888448769341
 20
396.36465947598424
 11
117.25888448769319
 21
397.19737178188438
  0
LINE
  8
_1-0_
  6
CONTINUOUS
 62
    4
 10
85.45888448769341
 20
398.36534506096592
 11
117.25888448769319
 21
399.19805736686606
  0
LINE
  8
_1-0_
  6
CONTINUOUS
 62
    4
 10
85.45888448769341
 20
400.36603064594771
 11
117.25888448769325
 21
401.19874295184786
  0
LINE
  8
_1-0_
  6
CONTINUOUS
 62
    4
 10
85.45888448769341
 20
402.36671623092939
 11
117.25888448769325
 21
403.1994285368296
  0
LINE
  8
_1-0_
  6
CONTINUOUS
 62
    4
 10
85.45888448769341
 20
404.36740181591119
 11
117.25888448769325
 21
405.20011412181133
  0
LINE
  8
_1-0_
  6
CONTINUOUS
 62
    4
 10
85.45888448769341
 20
406.36808740089287
 11
117.25888448769325
 21
407.20079970679302
  0
LINE
  8
_1-0_
  6
CONTINUOUS
 62
    4
 10
85.45888448769341
 20
408.36877298587461
 11
117.25888448769325
 21
409.20148529177475
  0
LINE
  8
_1-0_
  6
CONTINUOUS
 62
    4
 10
85.45888448769341
 20
410.3694585708564
 11
117.25888448769325
 21
411.20217087675655
  0
LINE
  8
_1-0_
  6
CONTINUOUS
 62
    4
 10
85.45888448769341
 20
412.37014415583814
 11
117.25888448769325
 21
413.20285646173834
  0
LINE
  8
_1-0_
  6
CONTINUOUS
 62
    4
 10
85.45888448769341
 20
414.37082974081988
 11
117.25888448769325
 21
415.20354204672003
  0
LINE
  8
_1-0_
  6
CONTINUOUS
 62
    4
 10
85.45888448769341
 20
416.37151532580156
 11
117.25888448769325
 21
417.20422763170171
  0
LINE
  8
_1-0_
  6
CONTINUOUS
 62
    4
 10
85.45888448769341
 20
418.37220091078336
 11
117.25888448769325
 21
419.20491321668339
  0
LINE
  8
_1-0_
  6
CONTINUOUS
 62
    4
 10
85.45888448769341
 20
420.3728864957651
 11
117.25888448769336
 21
421.2055988016653
  0
LINE
  8
_1-0_
  6
CONTINUOUS
 62
    4
 10
85.45888448769341
 20
422.37357208074683
 11
117.25888448769336
 21
423.20628438664698
  0
LINE
  8
_1-0_
  6
CONTINUOUS
 62
    4
 10
85.45888448769341
 20
424.37425766572852
 11
117.25888448769336
 21
425.20696997162872
  0
LINE
  8
_1-0_
  6
CONTINUOUS
 62
    4
 10
85.45888448769341
 20
426.37494325071031
 11
117.25888448769342
 21
427.20765555661034
  0
LINE
  8
_1-0_
  6
CONTINUOUS
 62
    4
 10
85.45888448769341
 20
428.37562883569199
 11
117.25888448769342
 21
429.2083411415922
  0
LINE
  8
_1-0_
  6
CONTINUOUS
 62
    4
 10
85.45888448769341
 20
430.37631442067379
 11
117.25888448769342
 21
431.20902672657393
  0
LINE
  8
_1-0_
  6
CONTINUOUS
 62
    4
 10
147.95493317583827
 20
452.85026219136835
 11
147.95493317583827
 21
352.85026219136778
  0
LINE
  8
_1-0_
  6
CONTINUOUS
 62
    7
 10
147.95493317583827
 20
452.85026219136835
 11
148.73139031114584
 21
449.95248471250107
  0
LINE
  8
_1-0_
  6
CONTINUOUS
 62
    7
 10
147.95493317583827
 20
452.85026219136835
 11
147.17847604053071
 21
449.95248471250107
  0
LINE
  8
_1-0_
  6
CONTINUOUS
 62
    7
 10
147.95493317583827
 20
352.85026219136778
 11
147.17847604053071
 21
355.74803967023501
  0
LINE
  8
_1-0_
  6
CONTINUOUS
 62
    7
 10
147.95493317583827
 20
352.85026219136778
 11
148.73139031114584
 21
355.74803967023501
  0
LINE
  8
_1-0_
  6
CONTINUOUS
 62
    4
 10
147.95493317583827
 20
452.85026219136835
 11
131.51217953690934
 21
452.85026219136835
  0
LINE
  8
_1-0_
  6
CONTINUOUS
 62
    4
 10
147.95493317583827
 20
352.85026219136778
 11
131.51217953690934
 21
352.85026219136778
  0
LINE
  8
_1-0_
  6
CONTINUOUS
 62
    4
 10
136.70462805446584
 20
435.85079511730884
 11
136.70462805446584
 21
352.85026219136778
  0
LINE
  8
_1-0_
  6
CONTINUOUS
 62
    7
 10
136.70462805446584
 20
435.85079511730884
 11
137.4810851897734
 21
432.95301763844167
  0
LINE
  8
_1-0_
  6
CONTINUOUS
 62
    7
 10
136.70462805446584
 20
435.85079511730884
 11
135.92817091915827
 21
432.95301763844167
  0
LINE
  8
_1-0_
  6
CONTINUOUS
 62
    7
 10
136.70462805446584
 20
352.85026219136778
 11
135.92817091915827
 21
355.74803967023501
  0
LINE
  8
_1-0_
  6
CONTINUOUS
 62
    7
 10
136.70462805446584
 20
352.85026219136778
 11
137.4810851897734
 21
355.74803967023501
  0
LINE
  8
_1-0_
  6
CONTINUOUS
 62
    4
 10
136.70462805446584
 20
435.85079511730884
 11
126.31973101935278
 21
435.85079511730884
  0
LINE
  8
_1-0_
  6
CONTINUOUS
 62
    4
 10
136.70462805446584
 20
352.85026219136778
 11
126.31973101935278
 21
352.85026219136778
  0
LINE
  8
_1-0_
  6
CONTINUOUS
 62
    7
 10
88.158885980509751
 20
336.31888392656594
 11
91.056663459376977
 21
337.09534106187351
  0
LINE
  8
_1-0_
  6
CONTINUOUS
 62
    7
 10
88.158885980509751
 20
336.31888392656594
 11
91.056663459376977
 21
335.54242679125837
  0
LINE
  8
_1-0_
  6
CONTINUOUS
 62
    7
 10
114.55888369169139
 20
336.31888392656594
 11
111.66110621282427
 21
335.54242679125837
  0
LINE
  8
_1-0_
  6
CONTINUOUS
 62
    7
 10
114.55888369169139
 20
336.31888392656594
 11
111.66110621282427
 21
337.09534106187351
  0
LINE
  8
_1-0_
  6
CONTINUOUS
 62
    4
 10
88.158885980509751
 20
348.19656737633772
 11
88.158885980509751
 21
336.31888392656594
  0
LINE
  8
_1-0_
  6
CONTINUOUS
 62
    4
 10
114.55888369169139
 20
348.19656737633772
 11
114.55888369169139
 21
336.31888392656594
  0
LINE
  8
_1-0_
  6
CENTER1
 62
    4
 10
101.35888448769333
 20
527.45873332818882
 11
101.35888448769333
 21
345.7839129256028
  0
TEXT
  8
_1-0_
 62
    7
 10
78.35888448769333
 20
320.5074548350592
 40
4
 41
1.0000000000000013
 50
0
  1
排水栓（排水目皿）100mm
  0
LINE
  8
_1-0_
  6
CONTINUOUS
 62
    7
 10
128.85888448769338
 20
326.0074548350592
 11
73.85888448769333
 21
326.0074548350592
  0
LINE
  8
_1-0_
  6
CONTINUOUS
 62
    7
 10
128.85888448769338
 20
319.0074548350592
 11
128.85888448769338
 21
326.0074548350592
  0
LINE
  8
_1-0_
  6
CONTINUOUS
 62
    7
 10
73.85888448769333
 20
319.0074548350592
 11
128.85888448769338
 21
319.0074548350592
  0
LINE
  8
_1-0_
  6
CONTINUOUS
 62
    7
 10
73.85888448769333
 20
326.0074548350592
 11
73.85888448769333
 21
319.0074548350592
  0
TEXT
  8
_1-0_
 62
    7
 10
93.858884836100571
 20
337.31888392656594
 40
5
 41
1
 50
0
  1
φ26.4
  0
TEXT
  8
_1-0_
 62
    7
 10
135.70462805446584
 20
391.85052865433829
 40
5
 41
1
 50
90
  1
83
  0
TEXT
  8
_1-0_
 62
    7
 10
146.95493317583827
 20
399.10026219136807
 40
5
 41
1
 50
90
  1
100
  0
CIRCLE
  8
_1-0_
  6
CONTINUOUS
 62
    7
 10
227.64554962860401
 20
495.61453256272238
 40
24.5
  0
CIRCLE
  8
_1-0_
  6
CONTINUOUS
 62
    4
 10
227.64554962860401
 20
495.61453256272238
 40
17
  0
CIRCLE
  8
_1-0_
  6
CONTINUOUS
 62
    7
 10
227.64554962860401
 20
495.61453256272238
 40
15
  0
ARC
  8
_1-0_
  6
CONTINUOUS
 62
    4
 10
217.83059505238043
 20
512.61453256272238
 40
2
 50
90
 51
149.99999999999994
  0
LINE
  8
_1-0_
  6
CONTINUOUS
 62
    4
 10
237.46050420482768
 20
514.61453256272238
 11
217.83059505238043
 21
514.61453256272238
  0
ARC
  8
_1-0_
  6
CONTINUOUS
 62
    4
 10
237.46050420482768
 20
512.61453256272238
 40
2
 50
29.999999999999864
 51
90
  0
LINE
  8
_1-0_
  6
CONTINUOUS
 62
    4
 10
249.00750958862022
 20
496.61453256272238
 11
239.19255501239658
 21
513.61453256272238
  0
ARC
  8
_1-0_
  6
CONTINUOUS
 62
    4
 10
247.27545878105132
 20
495.61453256272238
 40
2
 50
329.99999999999994
 51
29.999999999999875
  0
LINE
  8
_1-0_
  6
CONTINUOUS
 62
    4
 10
239.19255501239652
 20
477.61453256272238
 11
249.00750958862022
 21
494.61453256272238
  0
ARC
  8
_1-0_
  6
CONTINUOUS
 62
    4
 10
237.46050420482768
 20
478.61453256272238
 40
2
 50
270
 51
329.99999999999994
  0
LINE
  8
_1-0_
  6
CONTINUOUS
 62
    4
 10
217.83059505238043
 20
476.61453256272238
 11
237.46050420482768
 21
476.61453256272238
  0
ARC
  8
_1-0_
  6
CONTINUOUS
 62
    4
 10
217.83059505238043
 20
478.61453256272238
 40
2
 50
209.99999999999997
 51
270
  0
LINE
  8
_1-0_
  6
CONTINUOUS
 62
    4
 10
206.28358966858789
 20
496.61453256272244
 11
216.09854424481153
 21
513.61453256272238
  0
LINE
  8
_1-0_
  6
CONTINUOUS
 62
    4
 10
206.28358966858789
 20
494.61453256272244
 11
216.09854424481153
 21
477.61453256272238
  0
ARC
  8
_1-0_
  6
CONTINUOUS
 62
    4
 10
208.01564047615673
 20
495.61453256272244
 40
2
 50
149.99999999999994
 51
209.99999999999997
  0
LINE
  8
_1-0_
  6
CENTER1
 62
    4
 10
183.21481746041825
 20
495.61453256272238
 11
267.62247711866473
 21
495.61453256272238
  0
LINE
  8
_1-0_
  6
CONTINUOUS
 62
    7
 10
203.14554962860401
 20
446.18447856237128
 11
252.14554962860401
 21
446.18447856237128
  0
LINE
  8
_1-0_
  6
CONTINUOUS
 62
    7
 10
203.14554962860401
 20
446.18447856237128
 11
203.14554962860401
 21
443.68447856237128
  0
LINE
  8
_1-0_
  6
CONTINUOUS
 62
    7
 10
203.14554962860401
 20
443.68447856237128
 11
252.14554962860401
 21
443.68447856237128
  0
LINE
  8
_1-0_
  6
CONTINUOUS
 62
    7
 10
252.14554962860401
 20
446.18447856237128
 11
252.14554962860401
 21
443.68447856237128
  0
LINE
  8
_1-0_
  6
CONTINUOUS
 62
    7
 10
208.64554962860401
 20
443.68447856237128
 11
208.64554962860401
 21
437.7844785623713
  0
LINE
  8
_1-0_
  6
CONTINUOUS
 62
    7
 10
208.64554962860401
 20
437.7844785623713
 11
246.64554962860401
 21
437.7844785623713
  0
LINE
  8
_1-0_
  6
CONTINUOUS
 62
    7
 10
246.64554962860401
 20
443.68447856237128
 11
246.64554962860401
 21
437.7844785623713
  0
LINE
  8
_1-0_
  6
CONTINUOUS
 62
    4
 10
227.64554962860401
 20
443.68447856237128
 11
227.64554962860401
 21
437.7844785623713
  0
LINE
  8
_1-0_
  6
CONTINUOUS
 62
    7
 10
190.1455496286041
 20
416.86480011794162
 11
190.1455496286041
 21
409.86480011794162
  0
LINE
  8
_1-0_
  6
CONTINUOUS
 62
    7
 10
265.1455496286041
 20
416.86480011794162
 11
190.1455496286041
 21
416.86480011794162
  0
LINE
  8
_1-0_
  6
CONTINUOUS
 62
    7
 10
265.1455496286041
 20
409.86480011794162
 11
265.1455496286041
 21
416.86480011794162
  0
LINE
  8
_1-0_
  6
CONTINUOUS
 62
    7
 10
190.1455496286041
 20
409.86480011794162
 11
265.1455496286041
 21
409.86480011794162
  0
LINE
  8
_1-0_
  6
CONTINUOUS
 62
    4
 10
187.44475844796869
 20
451.18447856237128
 11
187.44475844796869
 21
432.7844785623713
  0
LINE
  8
_1-0_
  6
CONTINUOUS
 62
    7
 10
187.44475844796869
 20
437.7844785623713
 11
188.22121558327626
 21
434.88670108350402
  0
LINE
  8
_1-0_
  6
CONTINUOUS
 62
    7
 10
187.44475844796869
 20
437.7844785623713
 11
186.66830131266112
 21
434.88670108350402
  0
LINE
  8
_1-0_
  6
CONTINUOUS
 62
    7
 10
187.44475844796869
 20
446.18447856237128
 11
186.66830131266112
 21
449.08225604123845
  0
LINE
  8
_1-0_
  6
CONTINUOUS
 62
    7
 10
187.44475844796869
 20
446.18447856237128
 11
188.22121558327626
 21
449.08225604123845
  0
LINE
  8
_1-0_
  6
CONTINUOUS
 62
    4
 10
187.44475844796869
 20
437.7844785623713
 11
198.19134106721639
 21
437.7844785623713
  0
LINE
  8
_1-0_
  6
CONTINUOUS
 62
    4
 10
187.44475844796869
 20
446.18447856237128
 11
198.19134106721639
 21
446.18447856237128
  0
LINE
  8
_1-0_
  6
CONTINUOUS
 62
    4
 10
263.61906466087168
 20
451.18447856237128
 11
263.61906466087168
 21
438.68447856237128
  0
LINE
  8
_1-0_
  6
CONTINUOUS
 62
    7
 10
263.61906466087168
 20
443.68447856237128
 11
264.39552179617925
 21
440.78670108350411
  0
LINE
  8
_1-0_
  6
CONTINUOUS
 62
    7
 10
263.61906466087168
 20
443.68447856237128
 11
262.84260752556406
 21
440.78670108350411
  0
LINE
  8
_1-0_
  6
CONTINUOUS
 62
    7
 10
263.61906466087168
 20
446.18447856237128
 11
262.84260752556406
 21
449.08225604123845
  0
LINE
  8
_1-0_
  6
CONTINUOUS
 62
    7
 10
263.61906466087168
 20
446.18447856237128
 11
264.39552179617925
 21
449.08225604123845
  0
LINE
  8
_1-0_
  6
CONTINUOUS
 62
    4
 10
263.61906466087168
 20
443.68447856237128
 11
256.66539355429961
 21
443.68447856237128
  0
LINE
  8
_1-0_
  6
CONTINUOUS
 62
    4
 10
263.61906466087168
 20
446.18447856237128
 11
256.66539355429961
 21
446.18447856237128
  0
TEXT
  8
_1-0_
 62
    7
 10
191.6455496286041
 20
411.36480011794162
 40
4
 41
1
 50
0
  1
排水口パイプ用ナット（座付きナット）
  0
TEXT
  8
_1-0_
 62
    7
 10
186.44475844796869
 20
438.23447856237123
 40
5
 41
1
 50
90
  1
8.4
  0
TEXT
  8
_1-0_
 62
    7
 10
262.61906466087168
 20
447.43447856237128
 40
5
 41
1.0000000000000037
 50
90
  1
2.5
  0
CIRCLE
  8
_1-0_
  6
CONTINUOUS
 62
    7
 10
344.5465354974595
 20
495.61453256272238
 40
25
  0
CIRCLE
  8
_1-0_
  6
CONTINUOUS
 62
    7
 10
344.5465354974595
 20
495.61453256272238
 40
18
  0
CIRCLE
  8
_1-0_
  6
CONTINUOUS
 62
    7
 10
443.35160169907487
 20
495.61453256272238
 40
26
  0
CIRCLE
  8
_1-0_
  6
CONTINUOUS
 62
    7
 10
443.35160169907487
 20
495.61453256272238
 40
15.75
  0
CIRCLE
  8
_1-0_
  6
CONTINUOUS
 62
    7
 10
542.15666790069008
 20
495.61453256272238
 40
25
  0
CIRCLE
  8
_1-0_
  6
CONTINUOUS
 62
    7
 10
542.15666790069008
 20
495.61453256272238
 40
17.5
  0
LINE
  8
_1-0_
  6
CONTINUOUS
 62
    4
 10
331.81861343610165
 20
508.34245462408017
 11
357.27445755881734
 21
482.88661050136454
  0
LINE
  8
_1-0_
  6
CONTINUOUS
 62
    7
 10
331.81861343610165
 20
508.34245462408017
 11
334.41668964745502
 21
506.84245462408017
  0
LINE
  8
_1-0_
  6
CONTINUOUS
 62
    7
 10
331.81861343610165
 20
508.34245462408017
 11
333.31861343610165
 21
505.74437841272703
  0
LINE
  8
_1-0_
  6
CONTINUOUS
 62
    7
 10
357.27445755881734
 20
482.88661050136454
 11
354.67638134746408
 21
484.38661050136454
  0
LINE
  8
_1-0_
  6
CONTINUOUS
 62
    7
 10
357.27445755881734
 20
482.88661050136454
 11
355.77445755881734
 21
485.48468671271791
  0
LINE
  8
_1-0_
  6
CONTINUOUS
 62
    4
 10
432.21466989538674
 20
506.75146436641063
 11
454.48853350276306
 21
484.47760075903431
  0
LINE
  8
_1-0_
  6
CONTINUOUS
 62
    7
 10
432.21466989538674
 20
506.75146436641063
 11
434.81274610674006
 21
505.25146436641063
  0
LINE
  8
_1-0_
  6
CONTINUOUS
 62
    7
 10
432.21466989538674
 20
506.75146436641063
 11
433.71466989538674
 21
504.1533881550572
  0
LINE
  8
_1-0_
  6
CONTINUOUS
 62
    7
 10
454.48853350276306
 20
484.47760075903431
 11
451.89045729140968
 21
485.97760075903431
  0
LINE
  8
_1-0_
  6
CONTINUOUS
 62
    7
 10
454.48853350276306
 20
484.47760075903431
 11
452.98853350276306
 21
487.07567697038757
  0
LINE
  8
_1-0_
  6
CONTINUOUS
 62
    4
 10
529.78229922992545
 20
507.98890123348701
 11
554.5310365714547
 21
483.24016389195787
  0
LINE
  8
_1-0_
  6
CONTINUOUS
 62
    7
 10
529.78229922992545
 20
507.98890123348701
 11
532.38037544127882
 21
506.48890123348701
  0
LINE
  8
_1-0_
  6
CONTINUOUS
 62
    7
 10
529.78229922992545
 20
507.98890123348701
 11
531.28229922992545
 21
505.39082502213369
  0
LINE
  8
_1-0_
  6
CONTINUOUS
 62
    7
 10
554.5310365714547
 20
483.24016389195787
 11
551.93296036010133
 21
484.74016389195787
  0
LINE
  8
_1-0_
  6
CONTINUOUS
 62
    7
 10
554.5310365714547
 20
483.24016389195787
 11
553.0310365714547
 21
485.83824010331119
  0
LINE
  8
_1-0_
  6
CONTINUOUS
 62
    4
 10
554.5310365714547
 20
483.24016389195787
 11
565.36241577444275
 21
472.40878468896971
  0
LINE
  8
_1-0_
  6
CONTINUOUS
 62
    4
 10
357.27445755881734
 20
482.88661050136454
 11
367.57913401314959
 21
472.5819340470324
  0
LINE
  8
_1-0_
  6
CONTINUOUS
 62
    4
 10
454.48853350276306
 20
484.47760075903431
 11
470.96667453369093
 21
467.99945972810644
  0
LINE
  8
_1-0_
  6
CONTINUOUS
 62
    7
 10
369.5465354974595
 20
446.18447856237128
 11
369.5465354974595
 21
440.18447856237128
  0
LINE
  8
_1-0_
  6
CONTINUOUS
 62
    7
 10
319.5465354974595
 20
446.18447856237128
 11
319.5465354974595
 21
440.18447856237128
  0
LINE
  8
_1-0_
  6
CONTINUOUS
 62
    7
 10
369.5465354974595
 20
446.18447856237128
 11
319.5465354974595
 21
446.18447856237128
  0
LINE
  8
_1-0_
  6
CONTINUOUS
 62
    7
 10
319.5465354974595
 20
440.18447856237128
 11
369.5465354974595
 21
440.18447856237128
  0
LINE
  8
_1-0_
  6
CONTINUOUS
 62
    7
 10
469.35160169907487
 20
440.18447856237128
 11
469.35160169907487
 21
441.68447856237128
  0
LINE
  8
_1-0_
  6
CONTINUOUS
 62
    7
 10
459.10160169907487
 20
447.68447856237128
 11
427.60160169907493
 21
447.68447856237128
  0
LINE
  8
_1-0_
  6
CONTINUOUS
 62
    7
 10
417.35160169907493
 20
441.68447856237128
 11
417.35160169907493
 21
440.18447856237128
  0
LINE
  8
_1-0_
  6
CONTINUOUS
 62
    7
 10
417.35160169907493
 20
440.18447856237128
 11
469.35160169907487
 21
440.18447856237128
  0
LINE
  8
_1-0_
  6
CONTINUOUS
 62
    7
 10
427.60160169907493
 20
447.68447856237128
 11
417.35160169907493
 21
441.68447856237128
  0
LINE
  8
_1-0_
  6
CONTINUOUS
 62
    7
 10
459.10160169907487
 20
447.68447856237128
 11
469.35160169907487
 21
441.68447856237128
  0
LINE
  8
_1-0_
  6
CONTINUOUS
 62
    4
 10
417.35160169907493
 20
441.68447856237128
 11
469.35160169907487
 21
441.68447856237128
  0
LINE
  8
_1-0_
  6
CONTINUOUS
 62
    7
 10
517.15666790069008
 20
440.68447856237128
 11
517.15666790069008
 21
440.18447856237128
  0
LINE
  8
_1-0_
  6
CONTINUOUS
 62
    7
 10
517.15666790069008
 20
440.18447856237128
 11
567.15666790069008
 21
440.18447856237128
  0
LINE
  8
_1-0_
  6
CONTINUOUS
 62
    7
 10
567.15666790069008
 20
440.18447856237128
 11
567.15666790069008
 21
440.68447856237128
  0
LINE
  8
_1-0_
  6
CONTINUOUS
 62
    7
 10
517.15666790069008
 20
440.68447856237128
 11
567.15666790069008
 21
440.68447856237128
  0
LINE
  8
_1-0_
  6
CONTINUOUS
 62
    4
 10
307.91972835320626
 20
440.18447856237128
 11
307.91972835320626
 21
435.18447856237128
  0
LINE
  8
_1-0_
  6
CONTINUOUS
 62
    4
 10
307.91972835320626
 20
446.18447856237128
 11
307.91972835320626
 21
451.18447856237128
  0
LINE
  8
_1-0_
  6
CONTINUOUS
 62
    4
 10
307.91972835320626
 20
440.18447856237128
 11
307.91972835320626
 21
446.18447856237128
  0
LINE
  8
_1-0_
  6
CONTINUOUS
 62
    7
 10
307.91972835320626
 20
440.18447856237128
 11
308.69618548851389
 21
437.28670108350411
  0
LINE
  8
_1-0_
  6
CONTINUOUS
 62
    7
 10
307.91972835320626
 20
440.18447856237128
 11
307.14327121789875
 21
437.28670108350411
  0
LINE
  8
_1-0_
  6
CONTINUOUS
 62
    7
 10
307.91972835320626
 20
446.18447856237128
 11
307.14327121789875
 21
449.08225604123856
  0
LINE
  8
_1-0_
  6
CONTINUOUS
 62
    7
 10
307.91972835320626
 20
446.18447856237128
 11
308.69618548851389
 21
449.08225604123856
  0
LINE
  8
_1-0_
  6
CONTINUOUS
 62
    4
 10
307.91972835320626
 20
440.18447856237128
 11
315.01648436038993
 21
440.18447856237128
  0
LINE
  8
_1-0_
  6
CONTINUOUS
 62
    4
 10
307.91972835320626
 20
446.18447856237128
 11
315.01648436038993
 21
446.18447856237128
  0
LINE
  8
_1-0_
  6
CONTINUOUS
 62
    4
 10
406.70524307295318
 20
440.18447856237128
 11
406.70524307295318
 21
435.18447856237128
  0
LINE
  8
_1-0_
  6
CONTINUOUS
 62
    4
 10
406.70524307295318
 20
447.68447856237128
 11
406.70524307295318
 21
452.68447856237128
  0
LINE
  8
_1-0_
  6
CONTINUOUS
 62
    4
 10
406.70524307295318
 20
440.18447856237128
 11
406.70524307295318
 21
447.68447856237128
  0
LINE
  8
_1-0_
  6
CONTINUOUS
 62
    7
 10
406.70524307295318
 20
440.18447856237128
 11
407.48170020826074
 21
437.28670108350411
  0
LINE
  8
_1-0_
  6
CONTINUOUS
 62
    7
 10
406.70524307295318
 20
440.18447856237128
 11
405.92878593764555
 21
437.28670108350411
  0
LINE
  8
_1-0_
  6
CONTINUOUS
 62
    7
 10
406.70524307295318
 20
447.68447856237128
 11
405.92878593764555
 21
450.58225604123856
  0
LINE
  8
_1-0_
  6
CONTINUOUS
 62
    7
 10
406.70524307295318
 20
447.68447856237128
 11
407.48170020826074
 21
450.58225604123856
  0
LINE
  8
_1-0_
  6
CONTINUOUS
 62
    4
 10
406.70524307295318
 20
440.18447856237128
 11
413.80596434700885
 21
440.18447856237128
  0
LINE
  8
_1-0_
  6
CONTINUOUS
 62
    4
 10
406.70524307295318
 20
447.68447856237128
 11
413.80596434700885
 21
447.68447856237128
  0
LINE
  8
_1-0_
  6
CONTINUOUS
 62
    4
 10
508.52236507042891
 20
440.18447856237128
 11
508.52236507042891
 21
435.18447856237128
  0
LINE
  8
_1-0_
  6
CONTINUOUS
 62
    4
 10
508.52236507042891
 20
440.68447856237128
 11
508.52236507042891
 21
445.68447856237128
  0
LINE
  8
_1-0_
  6
CONTINUOUS
 62
    4
 10
508.52236507042891
 20
440.18447856237128
 11
508.52236507042891
 21
440.68447856237128
  0
LINE
  8
_1-0_
  6
CONTINUOUS
 62
    7
 10
508.52236507042891
 20
440.18447856237128
 11
509.29882220573665
 21
437.28670108350411
  0
LINE
  8
_1-0_
  6
CONTINUOUS
 62
    7
 10
508.52236507042891
 20
440.18447856237128
 11
507.7459079351214
 21
437.28670108350411
  0
LINE
  8
_1-0_
  6
CONTINUOUS
 62
    7
 10
508.52236507042891
 20
440.68447856237128
 11
507.7459079351214
 21
443.58225604123856
  0
LINE
  8
_1-0_
  6
CONTINUOUS
 62
    7
 10
508.52236507042891
 20
440.68447856237128
 11
509.29882220573665
 21
443.58225604123856
  0
LINE
  8
_1-0_
  6
CONTINUOUS
 62
    4
 10
508.52236507042891
 20
440.18447856237128
 11
513.57711580789214
 21
440.18447856237128
  0
LINE
  8
_1-0_
  6
CONTINUOUS
 62
    4
 10
508.52236507042891
 20
440.68447856237128
 11
513.57711580789214
 21
440.68447856237128
  0
LINE
  8
_1-0_
  6
DASHED2
 62
    4
 10
326.5465354974595
 20
446.18447856237128
 11
326.5465354974595
 21
440.18447856237128
  0
LINE
  8
_1-0_
  6
DASHED2
 62
    4
 10
362.5465354974595
 20
446.18447856237128
 11
362.5465354974595
 21
440.18447856237128
  0
LINE
  8
_1-0_
  6
DASHED2
 62
    4
 10
427.60160169907493
 20
447.68447856237128
 11
427.60160169907493
 21
440.18447856237128
  0
LINE
  8
_1-0_
  6
DASHED2
 62
    4
 10
459.10160169907487
 20
447.68447856237128
 11
459.10160169907487
 21
440.18447856237128
  0
LINE
  8
_1-0_
  6
DASHED2
 62
    4
 10
524.65666790069008
 20
440.68447856237128
 11
524.65666790069008
 21
440.18447856237128
  0
LINE
  8
_1-0_
  6
DASHED2
 62
    4
 10
559.65666790069008
 20
440.68447856237128
 11
559.65666790069008
 21
440.18447856237128
  0
LINE
  8
_1-0_
  6
CONTINUOUS
 62
    7
 10
322.0465354974595
 20
416.86480011794162
 11
322.0465354974595
 21
409.86480011794162
  0
LINE
  8
_1-0_
  6
CONTINUOUS
 62
    7
 10
322.0465354974595
 20
409.86480011794162
 11
367.0465354974595
 21
409.86480011794162
  0
LINE
  8
_1-0_
  6
CONTINUOUS
 62
    7
 10
367.0465354974595
 20
409.86480011794162
 11
367.0465354974595
 21
416.86480011794162
  0
LINE
  8
_1-0_
  6
CONTINUOUS
 62
    7
 10
367.0465354974595
 20
416.86480011794162
 11
322.0465354974595
 21
416.86480011794162
  0
LINE
  8
_1-0_
  6
CONTINUOUS
 62
    7
 10
420.85160169907493
 20
416.86480011794162
 11
420.85160169907493
 21
409.86480011794162
  0
LINE
  8
_1-0_
  6
CONTINUOUS
 62
    7
 10
420.85160169907493
 20
409.86480011794162
 11
465.85160169907487
 21
409.86480011794162
  0
LINE
  8
_1-0_
  6
CONTINUOUS
 62
    7
 10
465.85160169907487
 20
409.86480011794162
 11
465.85160169907487
 21
416.86480011794162
  0
LINE
  8
_1-0_
  6
CONTINUOUS
 62
    7
 10
465.85160169907487
 20
416.86480011794162
 11
420.85160169907493
 21
416.86480011794162
  0
LINE
  8
_1-0_
  6
CONTINUOUS
 62
    7
 10
519.65666790069008
 20
416.86480011794162
 11
519.65666790069008
 21
409.86480011794162
  0
LINE
  8
_1-0_
  6
CONTINUOUS
 62
    7
 10
519.65666790069008
 20
409.86480011794162
 11
564.65666790069008
 21
409.86480011794162
  0
LINE
  8
_1-0_
  6
CONTINUOUS
 62
    7
 10
564.65666790069008
 20
409.86480011794162
 11
564.65666790069008
 21
416.86480011794162
  0
LINE
  8
_1-0_
  6
CONTINUOUS
 62
    7
 10
564.65666790069008
 20
416.86480011794162
 11
519.65666790069008
 21
416.86480011794162
  0
TEXT
  8
_1-0_
 62
    7
 10
328.5465354974595
 20
411.36480011794162
 40
4
 41
1
 50
0
  1
スポンジパッキン
  0
TEXT
  8
_1-0_
 62
    7
 10
431.35160169907487
 20
411.36480011794162
 40
4
 41
1
 50
0
  1
三角パッキン
  0
TEXT
  8
_1-0_
 62
    7
 10
526.15666790069008
 20
411.36480011794162
 40
4
 41
1
 50
0
  1
スリップパッキン
  0
ARC
  8
_1-0_
  6
CONTINUOUS
 62
    7
 10
685.37314144107313
 20
274.69046319178147
 40
30
 50
0
 51
180
  0
LINE
  8
_1-0_
  6
CONTINUOUS
 62
    7
 10
655.37314144107313
 20
254.19046319178147
 11
655.37314144107313
 21
274.69046319178147
  0
LINE
  8
_1-0_
  6
CONTINUOUS
 62
    7
 10
595.37314144107335
 20
388.37499919178151
 11
595.37314144107335
 21
254.19046319178147
  0
ARC
  8
_1-0_
  6
CENTER1
 62
    4
 10
625.37314144107335
 20
254.19046319178147
 40
30
 50
180
 51
0
  0
ARC
  8
_1-0_
  6
CENTER1
 62
    4
 10
685.37314144107313
 20
274.69046319178147
 40
30
 50
0
 51
180
  0
LINE
  8
_1-0_
  6
CENTER1
 62
    4
 10
655.37314144107313
 20
274.69046319178147
 11
655.37314144107313
 21
254.1904631917815
  0
LINE
  8
_1-0_
  6
CENTER1
 62
    4
 10
595.37314144107335
 20
393.42815119178146
 11
595.37314144107335
 21
254.19046319178147
  0
ARC
  8
_1-0_
  6
CONTINUOUS
 62
    7
 10
625.37314144107335
 20
254.19046319178147
 40
30
 50
0
 51
180
  0
LINE
  8
_1-0_
  6
CONTINUOUS
 62
    7
 10
607.87314144107335
 20
255.43940719178144
 11
607.87314144107335
 21
254.19046319178147
  0
ARC
  8
_1-0_
  6
CONTINUOUS
 62
    7
 10
685.37314144107313
 20
274.69046319178147
 40
42.5
 50
0
 51
180
  0
ARC
  8
_1-0_
  6
CONTINUOUS
 62
    7
 10
625.37314144107335
 20
254.19046319178147
 40
17.5
 50
180
 51
0
  0
LINE
  8
_1-0_
  6
CONTINUOUS
 62
    7
 10
642.87314144107313
 20
254.19046319178147
 11
642.87314144107313
 21
258.19046319178147
  0
LINE
  8
_1-0_
  6
CONTINUOUS
 62
    7
 10
640.38914144107297
 20
258.19046319178147
 11
640.38914144107297
 21
258.39046319178152
  0
LINE
  8
_1-0_
  6
CONTINUOUS
 62
    7
 10
640.18914144107316
 20
258.39046319178152
 11
640.38914144107297
 21
258.19046319178147
  0
LINE
  8
_1-0_
  6
CONTINUOUS
 62
    7
 10
637.87314144107313
 20
258.39046319178152
 11
672.87314144107313
 21
258.39046319178152
  0
LINE
  8
_1-0_
  6
CONTINUOUS
 62
    7
 10
670.35714144107328
 20
258.19046319178147
 11
640.38914144107297
 21
258.19046319178147
  0
LINE
  8
_1-0_
  6
CONTINUOUS
 62
    7
 10
639.78468544107295
 20
268.83037997020767
 11
639.07898947564581
 21
268.75533153441068
  0
LINE
  8
_1-0_
  6
CONTINUOUS
 62
    7
 10
639.07898947564581
 20
268.75533153441068
 11
638.39473572502879
 21
268.53246653576513
  0
LINE
  8
_1-0_
  6
CONTINUOUS
 62
    7
 10
638.39473572502879
 20
268.53246653576513
 11
637.75271489318538
 21
268.16855661447959
  0
LINE
  8
_1-0_
  6
CONTINUOUS
 62
    7
 10
637.75271489318538
 20
268.16855661447959
 11
637.17243445821281
 21
267.67465898936512
  0
LINE
  8
_1-0_
  6
CONTINUOUS
 62
    7
 10
637.17243445821281
 20
267.67465898936512
 11
636.67152594749154
 21
267.06578048983652
  0
LINE
  8
_1-0_
  6
CONTINUOUS
 62
    7
 10
636.67152594749154
 20
267.06578048983652
 11
636.26520921264818
 21
266.36042158099462
  0
LINE
  8
_1-0_
  6
CONTINUOUS
 62
    7
 10
636.26520921264818
 20
266.36042158099462
 11
635.96582998206463
 21
265.58001423635568
  0
LINE
  8
_1-0_
  6
CONTINUOUS
 62
    7
 10
635.96582998206463
 20
265.58001423635568
 11
635.78248474216877
 21
264.74827073818153
  0
LINE
  8
_1-0_
  6
CONTINUOUS
 62
    7
 10
635.78248474216877
 20
264.74827073818153
 11
635.72074434529793
 21
263.89046319178152
  0
LINE
  8
_1-0_
  6
CONTINUOUS
 62
    7
 10
635.72074434529793
 20
263.89046319178152
 11
635.78248474216877
 21
263.03265564538151
  0
LINE
  8
_1-0_
  6
CONTINUOUS
 62
    7
 10
635.78248474216877
 20
263.03265564538151
 11
635.96582998206463
 21
262.2009121472073
  0
LINE
  8
_1-0_
  6
CONTINUOUS
 62
    7
 10
635.96582998206463
 20
262.2009121472073
 11
636.26520921264818
 21
261.42050480256841
  0
LINE
  8
_1-0_
  6
CONTINUOUS
 62
    7
 10
636.26520921264818
 20
261.42050480256841
 11
636.67152594749154
 21
260.71514589372651
  0
LINE
  8
_1-0_
  6
CONTINUOUS
 62
    7
 10
636.67152594749154
 20
260.71514589372651
 11
637.17243445821281
 21
260.10626739419791
  0
LINE
  8
_1-0_
  6
CONTINUOUS
 62
    7
 10
637.17243445821281
 20
260.10626739419791
 11
637.75271489318538
 21
259.61236976908344
  0
LINE
  8
_1-0_
  6
CONTINUOUS
 62
    7
 10
637.75271489318538
 20
259.61236976908344
 11
638.39473572502879
 21
259.2484598477979
  0
LINE
  8
_1-0_
  6
CONTINUOUS
 62
    7
 10
638.39473572502879
 20
259.2484598477979
 11
639.07898947564581
 21
259.02559484915229
  0
LINE
  8
_1-0_
  6
CONTINUOUS
 62
    7
 10
639.07898947564581
 20
259.02559484915229
 11
639.78468544107295
 21
258.95054641335531
  0
LINE
  8
_1-0_
  6
CONTINUOUS
 62
    7
 10
639.78468544107295
 20
258.95054641335531
 11
640.49038140649997
 21
259.02559484915229
  0
LINE
  8
_1-0_
  6
CONTINUOUS
 62
    7
 10
640.49038140649997
 20
259.02559484915229
 11
641.17463515711699
 21
259.2484598477979
  0
LINE
  8
_1-0_
  6
CONTINUOUS
 62
    7
 10
641.17463515711699
 20
259.2484598477979
 11
641.8166559889604
 21
259.61236976908344
  0
LINE
  8
_1-0_
  6
CONTINUOUS
 62
    7
 10
641.8166559889604
 20
259.61236976908344
 11
642.39693642393308
 21
260.10626739419791
  0
LINE
  8
_1-0_
  6
CONTINUOUS
 62
    7
 10
642.39693642393308
 20
260.10626739419791
 11
642.89784493465424
 21
260.71514589372651
  0
LINE
  8
_1-0_
  6
CONTINUOUS
 62
    7
 10
642.89784493465424
 20
260.71514589372651
 11
643.3041616694976
 21
261.42050480256841
  0
LINE
  8
_1-0_
  6
CONTINUOUS
 62
    7
 10
643.3041616694976
 20
261.42050480256841
 11
643.60354090008127
 21
262.2009121472073
  0
LINE
  8
_1-0_
  6
CONTINUOUS
 62
    7
 10
643.60354090008127
 20
262.2009121472073
 11
643.78688613997701
 21
263.03265564538151
  0
LINE
  8
_1-0_
  6
CONTINUOUS
 62
    7
 10
643.78688613997701
 20
263.03265564538151
 11
643.84862653684785
 21
263.89046319178152
  0
LINE
  8
_1-0_
  6
CONTINUOUS
 62
    7
 10
643.84862653684785
 20
263.89046319178152
 11
643.78688613997701
 21
264.74827073818153
  0
LINE
  8
_1-0_
  6
CONTINUOUS
 62
    7
 10
643.78688613997701
 20
264.74827073818153
 11
643.60354090008127
 21
265.58001423635568
  0
LINE
  8
_1-0_
  6
CONTINUOUS
 62
    7
 10
643.60354090008127
 20
265.58001423635568
 11
643.3041616694976
 21
266.36042158099456
  0
LINE
  8
_1-0_
  6
CONTINUOUS
 62
    7
 10
643.3041616694976
 20
266.36042158099456
 11
642.89784493465424
 21
267.06578048983652
  0
LINE
  8
_1-0_
  6
CONTINUOUS
 62
    7
 10
642.89784493465424
 20
267.06578048983652
 11
642.39693642393308
 21
267.67465898936507
  0
LINE
  8
_1-0_
  6
CONTINUOUS
 62
    7
 10
642.39693642393308
 20
267.67465898936507
 11
641.8166559889604
 21
268.16855661447959
  0
LINE
  8
_1-0_
  6
CONTINUOUS
 62
    7
 10
641.8166559889604
 20
268.16855661447959
 11
641.17463515711699
 21
268.53246653576513
  0
LINE
  8
_1-0_
  6
CONTINUOUS
 62
    7
 10
641.17463515711699
 20
268.53246653576513
 11
640.49038140649997
 21
268.75533153441068
  0
LINE
  8
_1-0_
  6
CONTINUOUS
 62
    7
 10
640.49038140649997
 20
268.75533153441068
 11
639.78468544107295
 21
268.83037997020767
  0
LINE
  8
_1-0_
  6
CONTINUOUS
 62
    7
 10
655.37314144107313
 20
268.8303798249048
 11
656.78453370393469
 21
268.75533139131528
  0
LINE
  8
_1-0_
  6
CONTINUOUS
 62
    7
 10
656.78453370393469
 20
268.75533139131528
 11
658.15304152708813
 21
268.53246639922508
  0
LINE
  8
_1-0_
  6
CONTINUOUS
 62
    7
 10
658.15304152708813
 20
268.53246639922508
 11
659.4370834928253
 21
268.16855648864361
  0
LINE
  8
_1-0_
  6
CONTINUOUS
 62
    7
 10
659.4370834928253
 20
268.16855648864361
 11
660.59764463577391
 21
267.67465887805667
  0
LINE
  8
_1-0_
  6
CONTINUOUS
 62
    7
 10
660.59764463577391
 20
267.67465887805667
 11
661.59946189287779
 21
267.06578039643761
  0
LINE
  8
_1-0_
  6
CONTINUOUS
 62
    7
 10
661.59946189287779
 20
267.06578039643761
 11
662.4120955537237
 21
266.36042150834316
  0
LINE
  8
_1-0_
  6
CONTINUOUS
 62
    7
 10
662.4120955537237
 20
266.36042150834316
 11
663.01085415573936
 21
265.58001418665924
  0
LINE
  8
_1-0_
  6
CONTINUOUS
 62
    7
 10
663.01085415573936
 20
265.58001418665924
 11
663.37754472178903
 21
264.74827071294993
  0
LINE
  8
_1-0_
  6
CONTINUOUS
 62
    7
 10
663.37754472178903
 20
264.74827071294993
 11
663.5010255445776
 21
263.89046319178152
  0
LINE
  8
_1-0_
  6
CONTINUOUS
 62
    7
 10
663.5010255445776
 20
263.89046319178152
 11
663.37754472178903
 21
263.03265567061305
  0
LINE
  8
_1-0_
  6
CONTINUOUS
 62
    7
 10
663.37754472178903
 20
263.03265567061305
 11
663.01085415573936
 21
262.2009121969038
  0
LINE
  8
_1-0_
  6
CONTINUOUS
 62
    7
 10
663.01085415573936
 20
262.2009121969038
 11
662.4120955537237
 21
261.42050487521981
  0
LINE
  8
_1-0_
  6
CONTINUOUS
 62
    7
 10
662.4120955537237
 20
261.42050487521981
 11
661.59946189287779
 21
260.71514598712536
  0
LINE
  8
_1-0_
  6
CONTINUOUS
 62
    7
 10
661.59946189287779
 20
260.71514598712536
 11
660.59764463577403
 21
260.10626750550636
  0
LINE
  8
_1-0_
  6
CONTINUOUS
 62
    7
 10
660.59764463577403
 20
260.10626750550636
 11
659.4370834928253
 21
259.61236989491942
  0
LINE
  8
_1-0_
  6
CONTINUOUS
 62
    7
 10
659.4370834928253
 20
259.61236989491942
 11
658.15304152708813
 21
259.24845998433795
  0
LINE
  8
_1-0_
  6
CONTINUOUS
 62
    7
 10
658.15304152708813
 20
259.24845998433795
 11
656.78453370393469
 21
259.0255949922477
  0
LINE
  8
_1-0_
  6
CONTINUOUS
 62
    7
 10
656.78453370393469
 20
259.0255949922477
 11
655.37314144107313
 21
258.95054655865817
  0
ARC
  8
_1-0_
  6
CONTINUOUS
 62
    7
 10
643.47036344107323
 20
263.89046319178152
 40
7.8472220000000012
 50
135.50195299999998
 51
224.49804700000001
  0
LINE
  8
_1-0_
  6
CONTINUOUS
 62
    7
 10
672.87314144107313
 20
269.39046319178152
 11
637.87314144107313
 21
269.39046319178152
  0
LINE
  8
_1-0_
  6
CONTINUOUS
 62
    7
 10
642.87314144107313
 20
274.69046319178147
 11
642.87314144107313
 21
269.39046319178152
  0
ARC
  8
_1-0_
  6
CONTINUOUS
 62
    7
 10
612.87314144107335
 20
255.43940719178144
 40
5
 50
156.96144000000001
 51
180
  0
LINE
  8
_1-0_
  6
CONTINUOUS
 62
    7
 10
608.62435144107325
 20
258.22484919178151
 11
608.27193344107331
 21
257.39615919178152
  0
LINE
  8
_1-0_
  6
CONTINUOUS
 62
    7
 10
608.07314144107317
 20
258.08808119178149
 11
582.67314144107331
 21
258.08808119178149
  0
ARC
  8
_1-0_
  6
CONTINUOUS
 62
    7
 10
604.02314144107322
 20
260.1816031917815
 40
5
 50
336.96143999999998
 51
0.0000000000000222
  0
LINE
  8
_1-0_
  6
CONTINUOUS
 62
    7
 10
609.02314144107322
 20
260.1816031917815
 11
609.02314144107322
 21
291.62499919178151
  0
LINE
  8
_1-0_
  6
CONTINUOUS
 62
    7
 10
580.3891414410732
 20
292.19046319178147
 11
610.35714144107328
 21
292.19046319178147
  0
LINE
  8
_1-0_
  6
CONTINUOUS
 62
    7
 10
611.37314144107335
 20
293.33490719178149
 11
611.37314144107335
 21
293.20646319178149
  0
ARC
  8
_1-0_
  6
CONTINUOUS
 62
    7
 10
607.27591944107325
 20
298.83490719178149
 40
7.8472220000000012
 50
315.50195299999995
 51
44.498046999999957
  0
LINE
  8
_1-0_
  6
CONTINUOUS
 62
    7
 10
610.9615994410733
 20
303.77482397020764
 11
610.25590347564616
 21
303.69977553441066
  0
LINE
  8
_1-0_
  6
CONTINUOUS
 62
    7
 10
610.25590347564616
 20
303.69977553441066
 11
609.57164972502926
 21
303.47691053576511
  0
LINE
  8
_1-0_
  6
CONTINUOUS
 62
    7
 10
609.57164972502926
 20
303.47691053576511
 11
608.92962889318573
 21
303.11300061447957
  0
LINE
  8
_1-0_
  6
CONTINUOUS
 62
    7
 10
608.92962889318573
 20
303.11300061447957
 11
608.34934845821317
 21
302.6191029893651
  0
LINE
  8
_1-0_
  6
CONTINUOUS
 62
    7
 10
608.34934845821317
 20
302.6191029893651
 11
607.84843994749201
 21
302.0102244898365
  0
LINE
  8
_1-0_
  6
CONTINUOUS
 62
    7
 10
607.84843994749201
 20
302.0102244898365
 11
607.44212321264853
 21
301.3048655809946
  0
LINE
  8
_1-0_
  6
CONTINUOUS
 62
    7
 10
607.44212321264853
 20
301.3048655809946
 11
607.14274398206498
 21
300.52445823635565
  0
LINE
  8
_1-0_
  6
CONTINUOUS
 62
    7
 10
607.14274398206498
 20
300.52445823635565
 11
606.95939874216924
 21
299.6927147381815
  0
LINE
  8
_1-0_
  6
CONTINUOUS
 62
    7
 10
606.95939874216924
 20
299.6927147381815
 11
606.89765834529839
 21
298.83490719178149
  0
LINE
  8
_1-0_
  6
CONTINUOUS
 62
    7
 10
606.89765834529839
 20
298.83490719178149
 11
606.95939874216924
 21
297.97709964538148
  0
LINE
  8
_1-0_
  6
CONTINUOUS
 62
    7
 10
606.95939874216924
 20
297.97709964538148
 11
607.14274398206498
 21
297.14535614720728
  0
LINE
  8
_1-0_
  6
CONTINUOUS
 62
    7
 10
607.14274398206498
 20
297.14535614720728
 11
607.44212321264853
 21
296.36494880256839
  0
LINE
  8
_1-0_
  6
CONTINUOUS
 62
    7
 10
607.44212321264853
 20
296.36494880256839
 11
607.84843994749201
 21
295.65958989372649
  0
LINE
  8
_1-0_
  6
CONTINUOUS
 62
    7
 10
607.84843994749201
 20
295.65958989372649
 11
608.34934845821317
 21
295.05071139419789
  0
LINE
  8
_1-0_
  6
CONTINUOUS
 62
    7
 10
608.34934845821317
 20
295.05071139419789
 11
608.92962889318573
 21
294.55681376908341
  0
LINE
  8
_1-0_
  6
CONTINUOUS
 62
    7
 10
608.92962889318573
 20
294.55681376908341
 11
609.57164972502926
 21
294.19290384779787
  0
LINE
  8
_1-0_
  6
CONTINUOUS
 62
    7
 10
609.57164972502926
 20
294.19290384779787
 11
610.25590347564616
 21
293.97003884915227
  0
LINE
  8
_1-0_
  6
CONTINUOUS
 62
    7
 10
610.25590347564616
 20
293.97003884915227
 11
610.9615994410733
 21
293.89499041335528
  0
LINE
  8
_1-0_
  6
CONTINUOUS
 62
    7
 10
610.9615994410733
 20
293.89499041335528
 11
611.66729540650044
 21
293.97003884915227
  0
LINE
  8
_1-0_
  6
CONTINUOUS
 62
    7
 10
611.66729540650044
 20
293.97003884915227
 11
612.35154915711734
 21
294.19290384779787
  0
LINE
  8
_1-0_
  6
CONTINUOUS
 62
    7
 10
612.35154915711734
 20
294.19290384779787
 11
612.99356998896087
 21
294.55681376908341
  0
LINE
  8
_1-0_
  6
CONTINUOUS
 62
    7
 10
612.99356998896087
 20
294.55681376908341
 11
613.57385042393343
 21
295.05071139419789
  0
LINE
  8
_1-0_
  6
CONTINUOUS
 62
    7
 10
613.57385042393343
 20
295.05071139419789
 11
614.07475893465459
 21
295.65958989372649
  0
LINE
  8
_1-0_
  6
CONTINUOUS
 62
    7
 10
614.07475893465459
 20
295.65958989372649
 11
614.48107566949806
 21
296.36494880256839
  0
LINE
  8
_1-0_
  6
CONTINUOUS
 62
    7
 10
614.48107566949806
 20
296.36494880256839
 11
614.78045490008162
 21
297.14535614720728
  0
LINE
  8
_1-0_
  6
CONTINUOUS
 62
    7
 10
614.78045490008162
 20
297.14535614720728
 11
614.96380013997736
 21
297.97709964538148
  0
LINE
  8
_1-0_
  6
CONTINUOUS
 62
    7
 10
614.96380013997736
 20
297.97709964538148
 11
615.02554053684821
 21
298.83490719178149
  0
LINE
  8
_1-0_
  6
CONTINUOUS
 62
    7
 10
615.02554053684821
 20
298.83490719178149
 11
614.96380013997736
 21
299.6927147381815
  0
LINE
  8
_1-0_
  6
CONTINUOUS
 62
    7
 10
614.96380013997736
 20
299.6927147381815
 11
614.78045490008162
 21
300.52445823635565
  0
LINE
  8
_1-0_
  6
CONTINUOUS
 62
    7
 10
614.78045490008162
 20
300.52445823635565
 11
614.48107566949806
 21
301.30486558099454
  0
LINE
  8
_1-0_
  6
CONTINUOUS
 62
    7
 10
614.48107566949806
 20
301.30486558099454
 11
614.07475893465459
 21
302.0102244898365
  0
LINE
  8
_1-0_
  6
CONTINUOUS
 62
    7
 10
614.07475893465459
 20
302.0102244898365
 11
613.57385042393343
 21
302.61910298936504
  0
LINE
  8
_1-0_
  6
CONTINUOUS
 62
    7
 10
613.57385042393343
 20
302.61910298936504
 11
612.99356998896087
 21
303.11300061447957
  0
LINE
  8
_1-0_
  6
CONTINUOUS
 62
    7
 10
612.99356998896087
 20
303.11300061447957
 11
612.35154915711734
 21
303.47691053576511
  0
LINE
  8
_1-0_
  6
CONTINUOUS
 62
    7
 10
612.35154915711734
 20
303.47691053576511
 11
611.66729540650044
 21
303.69977553441066
  0
LINE
  8
_1-0_
  6
CONTINUOUS
 62
    7
 10
611.66729540650044
 20
303.69977553441066
 11
610.9615994410733
 21
303.77482397020764
  0
LINE
  8
_1-0_
  6
CONTINUOUS
 62
    7
 10
595.37314144107335
 20
293.89499055865815
 11
596.78453370393492
 21
293.97003899224768
  0
LINE
  8
_1-0_
  6
CONTINUOUS
 62
    7
 10
596.78453370393492
 20
293.97003899224768
 11
598.15304152708836
 21
294.19290398433793
  0
LINE
  8
_1-0_
  6
CONTINUOUS
 62
    7
 10
598.15304152708836
 20
294.19290398433793
 11
599.43708349282553
 21
294.5568138949194
  0
LINE
  8
_1-0_
  6
CONTINUOUS
 62
    7
 10
599.43708349282553
 20
294.5568138949194
 11
600.59764463577425
 21
295.05071150550634
  0
LINE
  8
_1-0_
  6
CONTINUOUS
 62
    7
 10
600.59764463577425
 20
295.05071150550634
 11
601.59946189287802
 21
295.65958998712534
  0
LINE
  8
_1-0_
  6
CONTINUOUS
 62
    7
 10
601.59946189287802
 20
295.65958998712534
 11
602.41209555372392
 21
296.36494887521979
  0
LINE
  8
_1-0_
  6
CONTINUOUS
 62
    7
 10
602.41209555372392
 20
296.36494887521979
 11
603.01085415573948
 21
297.14535619690377
  0
LINE
  8
_1-0_
  6
CONTINUOUS
 62
    7
 10
603.01085415573948
 20
297.14535619690377
 11
603.37754472178926
 21
297.97709967061302
  0
LINE
  8
_1-0_
  6
CONTINUOUS
 62
    7
 10
603.37754472178926
 20
297.97709967061302
 11
603.50102554457782
 21
298.83490719178149
  0
LINE
  8
_1-0_
  6
CONTINUOUS
 62
    7
 10
603.50102554457782
 20
298.83490719178149
 11
603.37754472178926
 21
299.6927147129499
  0
LINE
  8
_1-0_
  6
CONTINUOUS
 62
    7
 10
603.37754472178926
 20
299.6927147129499
 11
603.01085415573948
 21
300.52445818665921
  0
LINE
  8
_1-0_
  6
CONTINUOUS
 62
    7
 10
603.01085415573948
 20
300.52445818665921
 11
602.41209555372392
 21
301.30486550834314
  0
LINE
  8
_1-0_
  6
CONTINUOUS
 62
    7
 10
602.41209555372392
 20
301.30486550834314
 11
601.59946189287802
 21
302.01022439643759
  0
LINE
  8
_1-0_
  6
CONTINUOUS
 62
    7
 10
601.59946189287802
 20
302.01022439643759
 11
600.59764463577425
 21
302.61910287805665
  0
LINE
  8
_1-0_
  6
CONTINUOUS
 62
    7
 10
600.59764463577425
 20
302.61910287805665
 11
599.43708349282553
 21
303.11300048864359
  0
LINE
  8
_1-0_
  6
CONTINUOUS
 62
    7
 10
599.43708349282553
 20
303.11300048864359
 11
598.15304152708836
 21
303.47691039922506
  0
LINE
  8
_1-0_
  6
CONTINUOUS
 62
    7
 10
598.15304152708836
 20
303.47691039922506
 11
596.78453370393492
 21
303.69977539131525
  0
LINE
  8
_1-0_
  6
CONTINUOUS
 62
    7
 10
596.78453370393492
 20
303.69977539131525
 11
595.37314144107335
 21
303.77482382490478
  0
LINE
  8
_1-0_
  6
CONTINUOUS
 62
    7
 10
612.87314144107335
 20
293.33490719178149
 11
577.87314144107335
 21
293.33490719178149
  0
LINE
  8
_1-0_
  6
CONTINUOUS
 62
    7
 10
577.87314144107335
 20
304.33490719178149
 11
612.87314144107335
 21
304.33490719178149
  0
LINE
  8
_1-0_
  6
CONTINUOUS
 62
    7
 10
611.37314144107335
 20
293.20646319178149
 11
610.35714144107328
 21
292.19046319178147
  0
LINE
  8
_1-0_
  6
CONTINUOUS
 62
    7
 10
610.35714144107328
 20
292.19046319178147
 11
610.35714144107328
 21
293.33490719178149
  0
LINE
  8
_1-0_
  6
CONTINUOUS
 62
    7
 10
611.37314144107335
 20
293.20646319178149
 11
579.37314144107335
 21
293.20646319178149
  0
LINE
  8
_1-0_
  6
CONTINUOUS
 62
    7
 10
607.87314144107335
 20
372.37499919178151
 11
607.87314144107335
 21
304.33490719178149
  0
LINE
  8
_1-0_
  6
CONTINUOUS
 62
    7
 10
577.87314144107335
 20
372.37499919178151
 11
612.87314144107335
 21
372.37499919178151
  0
LINE
  8
_1-0_
  6
CONTINUOUS
 62
    7
 10
610.9615994410733
 20
372.93508241335536
 11
611.66729540650044
 21
373.01013084915234
  0
LINE
  8
_1-0_
  6
CONTINUOUS
 62
    7
 10
611.66729540650044
 20
373.01013084915234
 11
612.35154915711734
 21
373.23299584779795
  0
LINE
  8
_1-0_
  6
CONTINUOUS
 62
    7
 10
612.35154915711734
 20
373.23299584779795
 11
612.99356998896087
 21
373.59690576908349
  0
LINE
  8
_1-0_
  6
CONTINUOUS
 62
    7
 10
612.99356998896087
 20
373.59690576908349
 11
613.57385042393343
 21
374.0908033941979
  0
LINE
  8
_1-0_
  6
CONTINUOUS
 62
    7
 10
613.57385042393343
 20
374.0908033941979
 11
614.07475893465459
 21
374.6996818937265
  0
LINE
  8
_1-0_
  6
CONTINUOUS
 62
    7
 10
614.07475893465459
 20
374.6996818937265
 11
614.48107566949806
 21
375.4050408025684
  0
LINE
  8
_1-0_
  6
CONTINUOUS
 62
    7
 10
614.48107566949806
 20
375.4050408025684
 11
614.78045490008162
 21
376.18544814720735
  0
LINE
  8
_1-0_
  6
CONTINUOUS
 62
    7
 10
614.78045490008162
 20
376.18544814720735
 11
614.96380013997736
 21
377.01719164538155
  0
LINE
  8
_1-0_
  6
CONTINUOUS
 62
    7
 10
614.96380013997736
 20
377.01719164538155
 11
615.02554053684821
 21
377.87499919178151
  0
LINE
  8
_1-0_
  6
CONTINUOUS
 62
    7
 10
615.02554053684821
 20
377.87499919178151
 11
614.96380013997736
 21
378.73280673818152
  0
LINE
  8
_1-0_
  6
CONTINUOUS
 62
    7
 10
614.96380013997736
 20
378.73280673818152
 11
614.78045490008162
 21
379.56455023635572
  0
LINE
  8
_1-0_
  6
CONTINUOUS
 62
    7
 10
614.78045490008162
 20
379.56455023635572
 11
614.48107566949806
 21
380.34495758099467
  0
LINE
  8
_1-0_
  6
CONTINUOUS
 62
    7
 10
614.48107566949806
 20
380.34495758099467
 11
614.07475893465459
 21
381.05031648983651
  0
LINE
  8
_1-0_
  6
CONTINUOUS
 62
    7
 10
614.07475893465459
 20
381.05031648983651
 11
613.57385042393343
 21
381.65919498936511
  0
LINE
  8
_1-0_
  6
CONTINUOUS
 62
    7
 10
613.57385042393343
 20
381.65919498936511
 11
612.99356998896087
 21
382.15309261447958
  0
LINE
  8
_1-0_
  6
CONTINUOUS
 62
    7
 10
612.99356998896087
 20
382.15309261447958
 11
612.35154915711734
 21
382.51700253576512
  0
LINE
  8
_1-0_
  6
CONTINUOUS
 62
    7
 10
612.35154915711734
 20
382.51700253576512
 11
611.66729540650044
 21
382.73986753441073
  0
LINE
  8
_1-0_
  6
CONTINUOUS
 62
    7
 10
611.66729540650044
 20
382.73986753441073
 11
610.9615994410733
 21
382.81491597020772
  0
LINE
  8
_1-0_
  6
CONTINUOUS
 62
    7
 10
610.9615994410733
 20
382.81491597020772
 11
610.25590347564616
 21
382.73986753441073
  0
LINE
  8
_1-0_
  6
CONTINUOUS
 62
    7
 10
610.25590347564616
 20
382.73986753441073
 11
609.57164972502926
 21
382.51700253576512
  0
LINE
  8
_1-0_
  6
CONTINUOUS
 62
    7
 10
609.57164972502926
 20
382.51700253576512
 11
608.92962889318573
 21
382.15309261447958
  0
LINE
  8
_1-0_
  6
CONTINUOUS
 62
    7
 10
608.92962889318573
 20
382.15309261447958
 11
608.34934845821317
 21
381.65919498936511
  0
LINE
  8
_1-0_
  6
CONTINUOUS
 62
    7
 10
608.34934845821317
 20
381.65919498936511
 11
607.84843994749201
 21
381.05031648983651
  0
LINE
  8
_1-0_
  6
CONTINUOUS
 62
    7
 10
607.84843994749201
 20
381.05031648983651
 11
607.44212321264853
 21
380.34495758099467
  0
LINE
  8
_1-0_
  6
CONTINUOUS
 62
    7
 10
607.44212321264853
 20
380.34495758099467
 11
607.14274398206498
 21
379.56455023635578
  0
LINE
  8
_1-0_
  6
CONTINUOUS
 62
    7
 10
607.14274398206498
 20
379.56455023635578
 11
606.95939874216924
 21
378.73280673818152
  0
LINE
  8
_1-0_
  6
CONTINUOUS
 62
    7
 10
606.95939874216924
 20
378.73280673818152
 11
606.89765834529839
 21
377.87499919178151
  0
LINE
  8
_1-0_
  6
CONTINUOUS
 62
    7
 10
606.89765834529839
 20
377.87499919178151
 11
606.95939874216924
 21
377.01719164538155
  0
LINE
  8
_1-0_
  6
CONTINUOUS
 62
    7
 10
606.95939874216924
 20
377.01719164538155
 11
607.14274398206498
 21
376.18544814720735
  0
LINE
  8
_1-0_
  6
CONTINUOUS
 62
    7
 10
607.14274398206498
 20
376.18544814720735
 11
607.44212321264853
 21
375.40504080256846
  0
LINE
  8
_1-0_
  6
CONTINUOUS
 62
    7
 10
607.44212321264853
 20
375.40504080256846
 11
607.84843994749201
 21
374.6996818937265
  0
LINE
  8
_1-0_
  6
CONTINUOUS
 62
    7
 10
607.84843994749201
 20
374.6996818937265
 11
608.34934845821317
 21
374.09080339419796
  0
LINE
  8
_1-0_
  6
CONTINUOUS
 62
    7
 10
608.34934845821317
 20
374.09080339419796
 11
608.92962889318573
 21
373.59690576908349
  0
LINE
  8
_1-0_
  6
CONTINUOUS
 62
    7
 10
608.92962889318573
 20
373.59690576908349
 11
609.57164972502926
 21
373.23299584779795
  0
LINE
  8
_1-0_
  6
CONTINUOUS
 62
    7
 10
609.57164972502926
 20
373.23299584779795
 11
610.25590347564616
 21
373.01013084915234
  0
LINE
  8
_1-0_
  6
CONTINUOUS
 62
    7
 10
610.25590347564616
 20
373.01013084915234
 11
610.9615994410733
 21
372.93508241335536
  0
LINE
  8
_1-0_
  6
CONTINUOUS
 62
    7
 10
595.37314144107335
 20
372.93508255865822
 11
593.96174917821167
 21
373.01013099224775
  0
LINE
  8
_1-0_
  6
CONTINUOUS
 62
    7
 10
593.96174917821167
 20
373.01013099224775
 11
592.59324135505835
 21
373.23299598433794
  0
LINE
  8
_1-0_
  6
CONTINUOUS
 62
    7
 10
592.59324135505835
 20
373.23299598433794
 11
591.30919938932106
 21
373.59690589491941
  0
LINE
  8
_1-0_
  6
CONTINUOUS
 62
    7
 10
591.30919938932106
 20
373.59690589491941
 11
590.14863824637245
 21
374.09080350550641
  0
LINE
  8
_1-0_
  6
CONTINUOUS
 62
    7
 10
590.14863824637245
 20
374.09080350550641
 11
589.14682098926857
 21
374.69968198712541
  0
LINE
  8
_1-0_
  6
CONTINUOUS
 62
    7
 10
589.14682098926857
 20
374.69968198712541
 11
588.33418732842278
 21
375.40504087521986
  0
LINE
  8
_1-0_
  6
CONTINUOUS
 62
    7
 10
588.33418732842278
 20
375.40504087521986
 11
587.73542872640712
 21
376.18544819690384
  0
LINE
  8
_1-0_
  6
CONTINUOUS
 62
    7
 10
587.73542872640712
 20
376.18544819690384
 11
587.36873816035745
 21
377.0171916706131
  0
LINE
  8
_1-0_
  6
CONTINUOUS
 62
    7
 10
587.36873816035745
 20
377.0171916706131
 11
587.24525733756877
 21
377.87499919178151
  0
LINE
  8
_1-0_
  6
CONTINUOUS
 62
    7
 10
587.24525733756877
 20
377.87499919178151
 11
587.36873816035745
 21
378.73280671294998
  0
LINE
  8
_1-0_
  6
CONTINUOUS
 62
    7
 10
587.36873816035745
 20
378.73280671294998
 11
587.73542872640712
 21
379.56455018665923
  0
LINE
  8
_1-0_
  6
CONTINUOUS
 62
    7
 10
587.73542872640712
 20
379.56455018665923
 11
588.33418732842278
 21
380.34495750834321
  0
LINE
  8
_1-0_
  6
CONTINUOUS
 62
    7
 10
588.33418732842278
 20
380.34495750834321
 11
589.14682098926857
 21
381.05031639643766
  0
LINE
  8
_1-0_
  6
CONTINUOUS
 62
    7
 10
589.14682098926857
 20
381.05031639643766
 11
590.14863824637245
 21
381.65919487805666
  0
LINE
  8
_1-0_
  6
CONTINUOUS
 62
    7
 10
590.14863824637245
 20
381.65919487805666
 11
591.30919938932106
 21
382.15309248864366
  0
LINE
  8
_1-0_
  6
CONTINUOUS
 62
    7
 10
591.30919938932106
 20
382.15309248864366
 11
592.59324135505835
 21
382.51700239922513
  0
LINE
  8
_1-0_
  6
CONTINUOUS
 62
    7
 10
592.59324135505835
 20
382.51700239922513
 11
593.96174917821167
 21
382.73986739131532
  0
LINE
  8
_1-0_
  6
CONTINUOUS
 62
    7
 10
593.96174917821167
 20
382.73986739131532
 11
595.37314144107335
 21
382.81491582490485
  0
ARC
  8
_1-0_
  6
CONTINUOUS
 62
    7
 10
607.27591944107325
 20
377.87499919178151
 40
7.8472220000000012
 50
315.50195299999995
 51
44.498046999999957
  0
LINE
  8
_1-0_
  6
CONTINUOUS
 62
    7
 10
612.87314144107335
 20
383.37499919178151
 11
577.87314144107335
 21
383.37499919178151
  0
LINE
  8
_1-0_
  6
CONTINUOUS
 62
    7
 10
670.96159944107307
 20
268.83037997020767
 11
670.25590347564605
 21
268.75533153441068
  0
LINE
  8
_1-0_
  6
CONTINUOUS
 62
    7
 10
670.25590347564605
 20
268.75533153441068
 11
669.57164972502903
 21
268.53246653576513
  0
LINE
  8
_1-0_
  6
CONTINUOUS
 62
    7
 10
669.57164972502903
 20
268.53246653576513
 11
668.92962889318562
 21
268.16855661447959
  0
LINE
  8
_1-0_
  6
CONTINUOUS
 62
    7
 10
668.92962889318562
 20
268.16855661447959
 11
668.34934845821294
 21
267.67465898936512
  0
LINE
  8
_1-0_
  6
CONTINUOUS
 62
    7
 10
668.34934845821294
 20
267.67465898936512
 11
667.84843994749178
 21
267.06578048983652
  0
LINE
  8
_1-0_
  6
CONTINUOUS
 62
    7
 10
667.84843994749178
 20
267.06578048983652
 11
667.44212321264842
 21
266.36042158099462
  0
LINE
  8
_1-0_
  6
CONTINUOUS
 62
    7
 10
667.44212321264842
 20
266.36042158099462
 11
667.14274398206475
 21
265.58001423635568
  0
LINE
  8
_1-0_
  6
CONTINUOUS
 62
    7
 10
667.14274398206475
 20
265.58001423635568
 11
666.95939874216901
 21
264.74827073818153
  0
LINE
  8
_1-0_
  6
CONTINUOUS
 62
    7
 10
666.95939874216901
 20
264.74827073818153
 11
666.89765834529816
 21
263.89046319178152
  0
LINE
  8
_1-0_
  6
CONTINUOUS
 62
    7
 10
666.89765834529816
 20
263.89046319178152
 11
666.95939874216901
 21
263.03265564538151
  0
LINE
  8
_1-0_
  6
CONTINUOUS
 62
    7
 10
666.95939874216901
 20
263.03265564538151
 11
667.14274398206475
 21
262.2009121472073
  0
LINE
  8
_1-0_
  6
CONTINUOUS
 62
    7
 10
667.14274398206475
 20
262.2009121472073
 11
667.44212321264842
 21
261.42050480256841
  0
LINE
  8
_1-0_
  6
CONTINUOUS
 62
    7
 10
667.44212321264842
 20
261.42050480256841
 11
667.84843994749178
 21
260.71514589372651
  0
LINE
  8
_1-0_
  6
CONTINUOUS
 62
    7
 10
667.84843994749178
 20
260.71514589372651
 11
668.34934845821294
 21
260.10626739419791
  0
LINE
  8
_1-0_
  6
CONTINUOUS
 62
    7
 10
668.34934845821294
 20
260.10626739419791
 11
668.92962889318562
 21
259.61236976908344
  0
LINE
  8
_1-0_
  6
CONTINUOUS
 62
    7
 10
668.92962889318562
 20
259.61236976908344
 11
669.57164972502903
 21
259.2484598477979
  0
LINE
  8
_1-0_
  6
CONTINUOUS
 62
    7
 10
669.57164972502903
 20
259.2484598477979
 11
670.25590347564605
 21
259.02559484915229
  0
LINE
  8
_1-0_
  6
CONTINUOUS
 62
    7
 10
670.25590347564605
 20
259.02559484915229
 11
670.96159944107307
 21
258.95054641335531
  0
LINE
  8
_1-0_
  6
CONTINUOUS
 62
    7
 10
670.96159944107307
 20
258.95054641335531
 11
671.66729540650021
 21
259.02559484915229
  0
LINE
  8
_1-0_
  6
CONTINUOUS
 62
    7
 10
671.66729540650021
 20
259.02559484915229
 11
672.35154915711723
 21
259.2484598477979
  0
LINE
  8
_1-0_
  6
CONTINUOUS
 62
    7
 10
672.35154915711723
 20
259.2484598477979
 11
672.99356998896064
 21
259.61236976908344
  0
LINE
  8
_1-0_
  6
CONTINUOUS
 62
    7
 10
672.99356998896064
 20
259.61236976908344
 11
673.5738504239332
 21
260.10626739419791
  0
LINE
  8
_1-0_
  6
CONTINUOUS
 62
    7
 10
673.5738504239332
 20
260.10626739419791
 11
674.07475893465448
 21
260.71514589372651
  0
LINE
  8
_1-0_
  6
CONTINUOUS
 62
    7
 10
674.07475893465448
 20
260.71514589372651
 11
674.48107566949784
 21
261.42050480256841
  0
LINE
  8
_1-0_
  6
CONTINUOUS
 62
    7
 10
674.48107566949784
 20
261.42050480256841
 11
674.78045490008139
 21
262.2009121472073
  0
LINE
  8
_1-0_
  6
CONTINUOUS
 62
    7
 10
674.78045490008139
 20
262.2009121472073
 11
674.96380013997725
 21
263.03265564538151
  0
LINE
  8
_1-0_
  6
CONTINUOUS
 62
    7
 10
674.96380013997725
 20
263.03265564538151
 11
675.02554053684809
 21
263.89046319178152
  0
LINE
  8
_1-0_
  6
CONTINUOUS
 62
    7
 10
675.02554053684809
 20
263.89046319178152
 11
674.96380013997725
 21
264.74827073818153
  0
LINE
  8
_1-0_
  6
CONTINUOUS
 62
    7
 10
674.96380013997725
 20
264.74827073818153
 11
674.78045490008139
 21
265.58001423635568
  0
LINE
  8
_1-0_
  6
CONTINUOUS
 62
    7
 10
674.78045490008139
 20
265.58001423635568
 11
674.48107566949784
 21
266.36042158099456
  0
LINE
  8
_1-0_
  6
CONTINUOUS
 62
    7
 10
674.48107566949784
 20
266.36042158099456
 11
674.07475893465448
 21
267.06578048983652
  0
LINE
  8
_1-0_
  6
CONTINUOUS
 62
    7
 10
674.07475893465448
 20
267.06578048983652
 11
673.5738504239332
 21
267.67465898936507
  0
LINE
  8
_1-0_
  6
CONTINUOUS
 62
    7
 10
673.5738504239332
 20
267.67465898936507
 11
672.99356998896064
 21
268.16855661447959
  0
LINE
  8
_1-0_
  6
CONTINUOUS
 62
    7
 10
672.99356998896064
 20
268.16855661447959
 11
672.35154915711723
 21
268.53246653576513
  0
LINE
  8
_1-0_
  6
CONTINUOUS
 62
    7
 10
672.35154915711723
 20
268.53246653576513
 11
671.66729540650021
 21
268.75533153441068
  0
LINE
  8
_1-0_
  6
CONTINUOUS
 62
    7
 10
671.66729540650021
 20
268.75533153441068
 11
670.96159944107307
 21
268.83037997020767
  0
LINE
  8
_1-0_
  6
CONTINUOUS
 62
    7
 10
655.37314144107313
 20
258.95054655865817
 11
656.78453370393469
 21
259.0255949922477
  0
LINE
  8
_1-0_
  6
CONTINUOUS
 62
    7
 10
656.78453370393469
 20
259.0255949922477
 11
658.15304152708813
 21
259.24845998433795
  0
LINE
  8
_1-0_
  6
CONTINUOUS
 62
    7
 10
658.15304152708813
 20
259.24845998433795
 11
659.4370834928253
 21
259.61236989491942
  0
LINE
  8
_1-0_
  6
CONTINUOUS
 62
    7
 10
659.4370834928253
 20
259.61236989491942
 11
660.59764463577403
 21
260.10626750550636
  0
LINE
  8
_1-0_
  6
CONTINUOUS
 62
    7
 10
660.59764463577403
 20
260.10626750550636
 11
661.59946189287779
 21
260.71514598712536
  0
LINE
  8
_1-0_
  6
CONTINUOUS
 62
    7
 10
661.59946189287779
 20
260.71514598712536
 11
662.4120955537237
 21
261.42050487521981
  0
LINE
  8
_1-0_
  6
CONTINUOUS
 62
    7
 10
662.4120955537237
 20
261.42050487521981
 11
663.01085415573936
 21
262.2009121969038
  0
LINE
  8
_1-0_
  6
CONTINUOUS
 62
    7
 10
663.01085415573936
 20
262.2009121969038
 11
663.37754472178903
 21
263.03265567061305
  0
LINE
  8
_1-0_
  6
CONTINUOUS
 62
    7
 10
663.37754472178903
 20
263.03265567061305
 11
663.5010255445776
 21
263.89046319178152
  0
LINE
  8
_1-0_
  6
CONTINUOUS
 62
    7
 10
663.5010255445776
 20
263.89046319178152
 11
663.37754472178903
 21
264.74827071294993
  0
LINE
  8
_1-0_
  6
CONTINUOUS
 62
    7
 10
663.37754472178903
 20
264.74827071294993
 11
663.01085415573936
 21
265.58001418665924
  0
LINE
  8
_1-0_
  6
CONTINUOUS
 62
    7
 10
663.01085415573936
 20
265.58001418665924
 11
662.4120955537237
 21
266.36042150834316
  0
LINE
  8
_1-0_
  6
CONTINUOUS
 62
    7
 10
662.4120955537237
 20
266.36042150834316
 11
661.59946189287779
 21
267.06578039643761
  0
LINE
  8
_1-0_
  6
CONTINUOUS
 62
    7
 10
661.59946189287779
 20
267.06578039643761
 11
660.59764463577403
 21
267.67465887805667
  0
LINE
  8
_1-0_
  6
CONTINUOUS
 62
    7
 10
660.59764463577403
 20
267.67465887805667
 11
659.4370834928253
 21
268.16855648864361
  0
LINE
  8
_1-0_
  6
CONTINUOUS
 62
    7
 10
659.4370834928253
 20
268.16855648864361
 11
658.15304152708813
 21
268.53246639922508
  0
LINE
  8
_1-0_
  6
CONTINUOUS
 62
    7
 10
658.15304152708813
 20
268.53246639922508
 11
656.78453370393469
 21
268.75533139131528
  0
LINE
  8
_1-0_
  6
CONTINUOUS
 62
    7
 10
656.78453370393469
 20
268.75533139131528
 11
655.37314144107313
 21
268.8303798249048
  0
ARC
  8
_1-0_
  6
CONTINUOUS
 62
    7
 10
667.27591944107302
 20
263.89046319178152
 40
7.8472220000000012
 50
315.50195299999995
 51
44.498046999999957
  0
ARC
  8
_1-0_
  6
CONTINUOUS
 62
    7
 10
685.37314144107313
 20
274.69046319178147
 40
17.5
 50
0
 51
180
  0
LINE
  8
_1-0_
  6
CONTINUOUS
 62
    7
 10
667.87314144107313
 20
274.69046319178147
 11
667.87314144107313
 21
269.39046319178152
  0
LINE
  8
_1-0_
  6
CONTINUOUS
 62
    7
 10
579.78468544107317
 20
303.77482397020764
 11
579.07898947564603
 21
303.69977553441066
  0
LINE
  8
_1-0_
  6
CONTINUOUS
 62
    7
 10
579.07898947564603
 20
303.69977553441066
 11
578.39473572502913
 21
303.47691053576511
  0
LINE
  8
_1-0_
  6
CONTINUOUS
 62
    7
 10
578.39473572502913
 20
303.47691053576511
 11
577.75271489318561
 21
303.11300061447957
  0
LINE
  8
_1-0_
  6
CONTINUOUS
 62
    7
 10
577.75271489318561
 20
303.11300061447957
 11
577.17243445821304
 21
302.6191029893651
  0
LINE
  8
_1-0_
  6
CONTINUOUS
 62
    7
 10
577.17243445821304
 20
302.6191029893651
 11
576.67152594749188
 21
302.0102244898365
  0
LINE
  8
_1-0_
  6
CONTINUOUS
 62
    7
 10
576.67152594749188
 20
302.0102244898365
 11
576.26520921264841
 21
301.3048655809946
  0
LINE
  8
_1-0_
  6
CONTINUOUS
 62
    7
 10
576.26520921264841
 20
301.3048655809946
 11
575.96582998206486
 21
300.52445823635565
  0
LINE
  8
_1-0_
  6
CONTINUOUS
 62
    7
 10
575.96582998206486
 20
300.52445823635565
 11
575.78248474216911
 21
299.6927147381815
  0
LINE
  8
_1-0_
  6
CONTINUOUS
 62
    7
 10
575.78248474216911
 20
299.6927147381815
 11
575.72074434529827
 21
298.83490719178149
  0
LINE
  8
_1-0_
  6
CONTINUOUS
 62
    7
 10
575.72074434529827
 20
298.83490719178149
 11
575.78248474216911
 21
297.97709964538148
  0
LINE
  8
_1-0_
  6
CONTINUOUS
 62
    7
 10
575.78248474216911
 20
297.97709964538148
 11
575.96582998206486
 21
297.14535614720728
  0
LINE
  8
_1-0_
  6
CONTINUOUS
 62
    7
 10
575.96582998206486
 20
297.14535614720728
 11
576.26520921264841
 21
296.36494880256839
  0
LINE
  8
_1-0_
  6
CONTINUOUS
 62
    7
 10
576.26520921264841
 20
296.36494880256839
 11
576.67152594749188
 21
295.65958989372649
  0
LINE
  8
_1-0_
  6
CONTINUOUS
 62
    7
 10
576.67152594749188
 20
295.65958989372649
 11
577.17243445821304
 21
295.05071139419789
  0
LINE
  8
_1-0_
  6
CONTINUOUS
 62
    7
 10
577.17243445821304
 20
295.05071139419789
 11
577.75271489318561
 21
294.55681376908341
  0
LINE
  8
_1-0_
  6
CONTINUOUS
 62
    7
 10
577.75271489318561
 20
294.55681376908341
 11
578.39473572502913
 21
294.19290384779787
  0
LINE
  8
_1-0_
  6
CONTINUOUS
 62
    7
 10
578.39473572502913
 20
294.19290384779787
 11
579.07898947564603
 21
293.97003884915227
  0
LINE
  8
_1-0_
  6
CONTINUOUS
 62
    7
 10
579.07898947564603
 20
293.97003884915227
 11
579.78468544107317
 21
293.89499041335528
  0
LINE
  8
_1-0_
  6
CONTINUOUS
 62
    7
 10
579.78468544107317
 20
293.89499041335528
 11
580.49038140650031
 21
293.97003884915227
  0
LINE
  8
_1-0_
  6
CONTINUOUS
 62
    7
 10
580.49038140650031
 20
293.97003884915227
 11
581.17463515711722
 21
294.19290384779787
  0
LINE
  8
_1-0_
  6
CONTINUOUS
 62
    7
 10
581.17463515711722
 20
294.19290384779787
 11
581.81665598896074
 21
294.55681376908341
  0
LINE
  8
_1-0_
  6
CONTINUOUS
 62
    7
 10
581.81665598896074
 20
294.55681376908341
 11
582.39693642393331
 21
295.05071139419789
  0
LINE
  8
_1-0_
  6
CONTINUOUS
 62
    7
 10
582.39693642393331
 20
295.05071139419789
 11
582.89784493465447
 21
295.65958989372649
  0
LINE
  8
_1-0_
  6
CONTINUOUS
 62
    7
 10
582.89784493465447
 20
295.65958989372649
 11
583.30416166949794
 21
296.36494880256839
  0
LINE
  8
_1-0_
  6
CONTINUOUS
 62
    7
 10
583.30416166949794
 20
296.36494880256839
 11
583.60354090008149
 21
297.14535614720728
  0
LINE
  8
_1-0_
  6
CONTINUOUS
 62
    7
 10
583.60354090008149
 20
297.14535614720728
 11
583.78688613997724
 21
297.97709964538148
  0
LINE
  8
_1-0_
  6
CONTINUOUS
 62
    7
 10
583.78688613997724
 20
297.97709964538148
 11
583.84862653684808
 21
298.83490719178149
  0
LINE
  8
_1-0_
  6
CONTINUOUS
 62
    7
 10
583.84862653684808
 20
298.83490719178149
 11
583.78688613997724
 21
299.6927147381815
  0
LINE
  8
_1-0_
  6
CONTINUOUS
 62
    7
 10
583.78688613997724
 20
299.6927147381815
 11
583.60354090008149
 21
300.52445823635565
  0
LINE
  8
_1-0_
  6
CONTINUOUS
 62
    7
 10
583.60354090008149
 20
300.52445823635565
 11
583.30416166949794
 21
301.30486558099454
  0
LINE
  8
_1-0_
  6
CONTINUOUS
 62
    7
 10
583.30416166949794
 20
301.30486558099454
 11
582.89784493465447
 21
302.0102244898365
  0
LINE
  8
_1-0_
  6
CONTINUOUS
 62
    7
 10
582.89784493465447
 20
302.0102244898365
 11
582.39693642393331
 21
302.61910298936504
  0
LINE
  8
_1-0_
  6
CONTINUOUS
 62
    7
 10
582.39693642393331
 20
302.61910298936504
 11
581.81665598896074
 21
303.11300061447957
  0
LINE
  8
_1-0_
  6
CONTINUOUS
 62
    7
 10
581.81665598896074
 20
303.11300061447957
 11
581.17463515711722
 21
303.47691053576511
  0
LINE
  8
_1-0_
  6
CONTINUOUS
 62
    7
 10
581.17463515711722
 20
303.47691053576511
 11
580.49038140650031
 21
303.69977553441066
  0
LINE
  8
_1-0_
  6
CONTINUOUS
 62
    7
 10
580.49038140650031
 20
303.69977553441066
 11
579.78468544107317
 21
303.77482397020764
  0
LINE
  8
_1-0_
  6
CONTINUOUS
 62
    7
 10
595.37314144107335
 20
303.77482382490478
 11
596.78453370393492
 21
303.69977539131531
  0
LINE
  8
_1-0_
  6
CONTINUOUS
 62
    7
 10
596.78453370393492
 20
303.69977539131531
 11
598.15304152708836
 21
303.47691039922506
  0
LINE
  8
_1-0_
  6
CONTINUOUS
 62
    7
 10
598.15304152708836
 20
303.47691039922506
 11
599.43708349282553
 21
303.11300048864359
  0
LINE
  8
_1-0_
  6
CONTINUOUS
 62
    7
 10
599.43708349282553
 20
303.11300048864359
 11
600.59764463577414
 21
302.61910287805665
  0
LINE
  8
_1-0_
  6
CONTINUOUS
 62
    7
 10
600.59764463577414
 20
302.61910287805665
 11
601.59946189287802
 21
302.01022439643759
  0
LINE
  8
_1-0_
  6
CONTINUOUS
 62
    7
 10
601.59946189287802
 20
302.01022439643759
 11
602.41209555372392
 21
301.30486550834314
  0
LINE
  8
_1-0_
  6
CONTINUOUS
 62
    7
 10
602.41209555372392
 20
301.30486550834314
 11
603.01085415573948
 21
300.52445818665921
  0
LINE
  8
_1-0_
  6
CONTINUOUS
 62
    7
 10
603.01085415573948
 20
300.52445818665921
 11
603.37754472178926
 21
299.6927147129499
  0
LINE
  8
_1-0_
  6
CONTINUOUS
 62
    7
 10
603.37754472178926
 20
299.6927147129499
 11
603.50102554457782
 21
298.83490719178149
  0
LINE
  8
_1-0_
  6
CONTINUOUS
 62
    7
 10
603.50102554457782
 20
298.83490719178149
 11
603.37754472178926
 21
297.97709967061302
  0
LINE
  8
_1-0_
  6
CONTINUOUS
 62
    7
 10
603.37754472178926
 20
297.97709967061302
 11
603.01085415573948
 21
297.14535619690377
  0
LINE
  8
_1-0_
  6
CONTINUOUS
 62
    7
 10
603.01085415573948
 20
297.14535619690377
 11
602.41209555372392
 21
296.36494887521979
  0
LINE
  8
_1-0_
  6
CONTINUOUS
 62
    7
 10
602.41209555372392
 20
296.36494887521979
 11
601.59946189287802
 21
295.65958998712534
  0
LINE
  8
_1-0_
  6
CONTINUOUS
 62
    7
 10
601.59946189287802
 20
295.65958998712534
 11
600.59764463577425
 21
295.05071150550634
  0
LINE
  8
_1-0_
  6
CONTINUOUS
 62
    7
 10
600.59764463577425
 20
295.05071150550634
 11
599.43708349282553
 21
294.5568138949194
  0
LINE
  8
_1-0_
  6
CONTINUOUS
 62
    7
 10
599.43708349282553
 20
294.5568138949194
 11
598.15304152708836
 21
294.19290398433793
  0
LINE
  8
_1-0_
  6
CONTINUOUS
 62
    7
 10
598.15304152708836
 20
294.19290398433793
 11
596.78453370393492
 21
293.97003899224768
  0
LINE
  8
_1-0_
  6
CONTINUOUS
 62
    7
 10
596.78453370393492
 20
293.97003899224768
 11
595.37314144107335
 21
293.89499055865815
  0
ARC
  8
_1-0_
  6
CONTINUOUS
 62
    7
 10
583.47036344107323
 20
298.83490719178149
 40
7.8472220000000012
 50
135.50195299999998
 51
224.49804700000001
  0
LINE
  8
_1-0_
  6
CONTINUOUS
 62
    7
 10
579.78468544107317
 20
372.93508241335536
 11
580.49038140650031
 21
373.01013084915234
  0
LINE
  8
_1-0_
  6
CONTINUOUS
 62
    7
 10
580.49038140650031
 20
373.01013084915234
 11
581.17463515711722
 21
373.23299584779795
  0
LINE
  8
_1-0_
  6
CONTINUOUS
 62
    7
 10
581.17463515711722
 20
373.23299584779795
 11
581.81665598896074
 21
373.59690576908349
  0
LINE
  8
_1-0_
  6
CONTINUOUS
 62
    7
 10
581.81665598896074
 20
373.59690576908349
 11
582.39693642393331
 21
374.0908033941979
  0
LINE
  8
_1-0_
  6
CONTINUOUS
 62
    7
 10
582.39693642393331
 20
374.0908033941979
 11
582.89784493465447
 21
374.6996818937265
  0
LINE
  8
_1-0_
  6
CONTINUOUS
 62
    7
 10
582.89784493465447
 20
374.6996818937265
 11
583.30416166949794
 21
375.4050408025684
  0
LINE
  8
_1-0_
  6
CONTINUOUS
 62
    7
 10
583.30416166949794
 20
375.4050408025684
 11
583.60354090008149
 21
376.18544814720735
  0
LINE
  8
_1-0_
  6
CONTINUOUS
 62
    7
 10
583.60354090008149
 20
376.18544814720735
 11
583.78688613997724
 21
377.01719164538155
  0
LINE
  8
_1-0_
  6
CONTINUOUS
 62
    7
 10
583.78688613997724
 20
377.01719164538155
 11
583.84862653684808
 21
377.87499919178151
  0
LINE
  8
_1-0_
  6
CONTINUOUS
 62
    7
 10
583.84862653684808
 20
377.87499919178151
 11
583.78688613997724
 21
378.73280673818152
  0
LINE
  8
_1-0_
  6
CONTINUOUS
 62
    7
 10
583.78688613997724
 20
378.73280673818152
 11
583.60354090008149
 21
379.56455023635572
  0
LINE
  8
_1-0_
  6
CONTINUOUS
 62
    7
 10
583.60354090008149
 20
379.56455023635572
 11
583.30416166949794
 21
380.34495758099467
  0
LINE
  8
_1-0_
  6
CONTINUOUS
 62
    7
 10
583.30416166949794
 20
380.34495758099467
 11
582.89784493465447
 21
381.05031648983651
  0
LINE
  8
_1-0_
  6
CONTINUOUS
 62
    7
 10
582.89784493465447
 20
381.05031648983651
 11
582.39693642393331
 21
381.65919498936511
  0
LINE
  8
_1-0_
  6
CONTINUOUS
 62
    7
 10
582.39693642393331
 20
381.65919498936511
 11
581.81665598896074
 21
382.15309261447958
  0
LINE
  8
_1-0_
  6
CONTINUOUS
 62
    7
 10
581.81665598896074
 20
382.15309261447958
 11
581.17463515711722
 21
382.51700253576512
  0
LINE
  8
_1-0_
  6
CONTINUOUS
 62
    7
 10
581.17463515711722
 20
382.51700253576512
 11
580.49038140650031
 21
382.73986753441073
  0
LINE
  8
_1-0_
  6
CONTINUOUS
 62
    7
 10
580.49038140650031
 20
382.73986753441073
 11
579.78468544107317
 21
382.81491597020772
  0
LINE
  8
_1-0_
  6
CONTINUOUS
 62
    7
 10
579.78468544107317
 20
382.81491597020772
 11
579.07898947564603
 21
382.73986753441073
  0
LINE
  8
_1-0_
  6
CONTINUOUS
 62
    7
 10
579.07898947564603
 20
382.73986753441073
 11
578.39473572502913
 21
382.51700253576512
  0
LINE
  8
_1-0_
  6
CONTINUOUS
 62
    7
 10
578.39473572502913
 20
382.51700253576512
 11
577.75271489318561
 21
382.15309261447958
  0
LINE
  8
_1-0_
  6
CONTINUOUS
 62
    7
 10
577.75271489318561
 20
382.15309261447958
 11
577.17243445821304
 21
381.65919498936511
  0
LINE
  8
_1-0_
  6
CONTINUOUS
 62
    7
 10
577.17243445821304
 20
381.65919498936511
 11
576.67152594749188
 21
381.05031648983651
  0
LINE
  8
_1-0_
  6
CONTINUOUS
 62
    7
 10
576.67152594749188
 20
381.05031648983651
 11
576.26520921264841
 21
380.34495758099467
  0
LINE
  8
_1-0_
  6
CONTINUOUS
 62
    7
 10
576.26520921264841
 20
380.34495758099467
 11
575.96582998206486
 21
379.56455023635578
  0
LINE
  8
_1-0_
  6
CONTINUOUS
 62
    7
 10
575.96582998206486
 20
379.56455023635578
 11
575.78248474216911
 21
378.73280673818152
  0
LINE
  8
_1-0_
  6
CONTINUOUS
 62
    7
 10
575.78248474216911
 20
378.73280673818152
 11
575.72074434529827
 21
377.87499919178151
  0
LINE
  8
_1-0_
  6
CONTINUOUS
 62
    7
 10
575.72074434529827
 20
377.87499919178151
 11
575.78248474216911
 21
377.01719164538155
  0
LINE
  8
_1-0_
  6
CONTINUOUS
 62
    7
 10
575.78248474216911
 20
377.01719164538155
 11
575.96582998206486
 21
376.18544814720735
  0
LINE
  8
_1-0_
  6
CONTINUOUS
 62
    7
 10
575.96582998206486
 20
376.18544814720735
 11
576.26520921264841
 21
375.40504080256846
  0
LINE
  8
_1-0_
  6
CONTINUOUS
 62
    7
 10
576.26520921264841
 20
375.40504080256846
 11
576.67152594749188
 21
374.6996818937265
  0
LINE
  8
_1-0_
  6
CONTINUOUS
 62
    7
 10
576.67152594749188
 20
374.6996818937265
 11
577.17243445821304
 21
374.09080339419796
  0
LINE
  8
_1-0_
  6
CONTINUOUS
 62
    7
 10
577.17243445821304
 20
374.09080339419796
 11
577.75271489318561
 21
373.59690576908349
  0
LINE
  8
_1-0_
  6
CONTINUOUS
 62
    7
 10
577.75271489318561
 20
373.59690576908349
 11
578.39473572502913
 21
373.23299584779795
  0
LINE
  8
_1-0_
  6
CONTINUOUS
 62
    7
 10
578.39473572502913
 20
373.23299584779795
 11
579.07898947564603
 21
373.01013084915234
  0
LINE
  8
_1-0_
  6
CONTINUOUS
 62
    7
 10
579.07898947564603
 20
373.01013084915234
 11
579.78468544107317
 21
372.93508241335536
  0
LINE
  8
_1-0_
  6
CONTINUOUS
 62
    7
 10
595.37314144107335
 20
382.81491582490485
 11
593.96174917821167
 21
382.73986739131532
  0
LINE
  8
_1-0_
  6
CONTINUOUS
 62
    7
 10
593.96174917821167
 20
382.73986739131532
 11
592.59324135505835
 21
382.51700239922513
  0
LINE
  8
_1-0_
  6
CONTINUOUS
 62
    7
 10
592.59324135505835
 20
382.51700239922513
 11
591.30919938932106
 21
382.15309248864366
  0
LINE
  8
_1-0_
  6
CONTINUOUS
 62
    7
 10
591.30919938932106
 20
382.15309248864366
 11
590.14863824637245
 21
381.65919487805666
  0
LINE
  8
_1-0_
  6
CONTINUOUS
 62
    7
 10
590.14863824637245
 20
381.65919487805666
 11
589.14682098926857
 21
381.05031639643766
  0
LINE
  8
_1-0_
  6
CONTINUOUS
 62
    7
 10
589.14682098926857
 20
381.05031639643766
 11
588.33418732842278
 21
380.34495750834321
  0
LINE
  8
_1-0_
  6
CONTINUOUS
 62
    7
 10
588.33418732842278
 20
380.34495750834321
 11
587.73542872640712
 21
379.56455018665923
  0
LINE
  8
_1-0_
  6
CONTINUOUS
 62
    7
 10
587.73542872640712
 20
379.56455018665923
 11
587.36873816035745
 21
378.73280671294998
  0
LINE
  8
_1-0_
  6
CONTINUOUS
 62
    7
 10
587.36873816035745
 20
378.73280671294998
 11
587.24525733756877
 21
377.87499919178151
  0
LINE
  8
_1-0_
  6
CONTINUOUS
 62
    7
 10
587.24525733756877
 20
377.87499919178151
 11
587.36873816035745
 21
377.0171916706131
  0
LINE
  8
_1-0_
  6
CONTINUOUS
 62
    7
 10
587.36873816035745
 20
377.0171916706131
 11
587.73542872640712
 21
376.18544819690384
  0
LINE
  8
_1-0_
  6
CONTINUOUS
 62
    7
 10
587.73542872640712
 20
376.18544819690384
 11
588.33418732842278
 21
375.40504087521986
  0
LINE
  8
_1-0_
  6
CONTINUOUS
 62
    7
 10
588.33418732842278
 20
375.40504087521986
 11
589.14682098926857
 21
374.69968198712541
  0
LINE
  8
_1-0_
  6
CONTINUOUS
 62
    7
 10
589.14682098926857
 20
374.69968198712541
 11
590.14863824637245
 21
374.09080350550641
  0
LINE
  8
_1-0_
  6
CONTINUOUS
 62
    7
 10
590.14863824637245
 20
374.09080350550641
 11
591.30919938932106
 21
373.59690589491941
  0
LINE
  8
_1-0_
  6
CONTINUOUS
 62
    7
 10
591.30919938932106
 20
373.59690589491941
 11
592.59324135505835
 21
373.23299598433794
  0
LINE
  8
_1-0_
  6
CONTINUOUS
 62
    7
 10
592.59324135505835
 20
373.23299598433794
 11
593.96174917821167
 21
373.01013099224775
  0
LINE
  8
_1-0_
  6
CONTINUOUS
 62
    7
 10
593.96174917821167
 20
373.01013099224775
 11
595.37314144107335
 21
372.93508255865822
  0
ARC
  8
_1-0_
  6
CONTINUOUS
 62
    7
 10
583.47036344107323
 20
377.87499919178151
 40
7.8472220000000012
 50
135.50195299999998
 51
224.49804700000001
  0
LINE
  8
_1-0_
  6
CONTINUOUS
 62
    7
 10
670.55714144107309
 20
258.39046319178152
 11
670.35714144107328
 21
258.19046319178147
  0
LINE
  8
_1-0_
  6
CONTINUOUS
 62
    7
 10
670.35714144107328
 20
258.19046319178147
 11
670.35714144107328
 21
258.39046319178152
  0
ARC
  8
_1-0_
  6
CONTINUOUS
 62
    7
 10
584.72314144107326
 20
291.62499919178151
 40
3
 50
169.13542899999998
 51
180
  0
LINE
  8
_1-0_
  6
CONTINUOUS
 62
    7
 10
579.37314144107335
 20
293.20646319178149
 11
580.3891414410732
 21
292.19046319178147
  0
LINE
  8
_1-0_
  6
CONTINUOUS
 62
    7
 10
580.3891414410732
 20
292.19046319178147
 11
580.3891414410732
 21
293.33490719178149
  0
LINE
  8
_1-0_
  6
CONTINUOUS
 62
    7
 10
579.37314144107335
 20
293.33490719178149
 11
579.37314144107335
 21
293.20646319178149
  0
ARC
  8
_1-0_
  6
CONTINUOUS
 62
    7
 10
577.87314144107335
 20
255.43940719178144
 40
5
 50
0
 51
23.038559999999996
  0
ARC
  8
_1-0_
  6
CONTINUOUS
 62
    7
 10
586.72314144107326
 20
260.1816031917815
 40
5
 50
180
 51
203.03855999999998
  0
LINE
  8
_1-0_
  6
CONTINUOUS
 62
    7
 10
582.12193344107322
 20
258.22484919178151
 11
582.47435144107316
 21
257.39615919178152
  0
LINE
  8
_1-0_
  6
CONTINUOUS
 62
    7
 10
581.72314144107326
 20
260.1816031917815
 11
581.72314144107326
 21
291.62499919178151
  0
LINE
  8
_1-0_
  6
CONTINUOUS
 62
    7
 10
582.87314144107335
 20
254.19046319178147
 11
582.87314144107335
 21
255.43940719178144
  0
ARC
  8
_1-0_
  6
CONTINUOUS
 62
    7
 10
625.37314144107335
 20
254.19046319178147
 40
42.5
 50
180
 51
0
  0
LINE
  8
_1-0_
  6
CONTINUOUS
 62
    7
 10
667.87314144107313
 20
254.19046319178147
 11
667.87314144107313
 21
258.19046319178147
  0
LINE
  8
_1-0_
  6
CONTINUOUS
 62
    7
 10
582.87314144107335
 20
372.37499919178151
 11
582.87314144107335
 21
304.33490719178149
  0
LINE
  8
_1-0_
  6
CONTINUOUS
 62
    7
 10
595.37314144107335
 20
382.81491582490485
 11
596.78453370393492
 21
382.73986739131532
  0
LINE
  8
_1-0_
  6
CONTINUOUS
 62
    7
 10
596.78453370393492
 20
382.73986739131532
 11
598.15304152708836
 21
382.51700239922513
  0
LINE
  8
_1-0_
  6
CONTINUOUS
 62
    7
 10
598.15304152708836
 20
382.51700239922513
 11
599.43708349282553
 21
382.15309248864366
  0
LINE
  8
_1-0_
  6
CONTINUOUS
 62
    7
 10
599.43708349282553
 20
382.15309248864366
 11
600.59764463577414
 21
381.65919487805666
  0
LINE
  8
_1-0_
  6
CONTINUOUS
 62
    7
 10
600.59764463577414
 20
381.65919487805666
 11
601.59946189287802
 21
381.05031639643766
  0
LINE
  8
_1-0_
  6
CONTINUOUS
 62
    7
 10
601.59946189287802
 20
381.05031639643766
 11
602.41209555372392
 21
380.34495750834321
  0
LINE
  8
_1-0_
  6
CONTINUOUS
 62
    7
 10
602.41209555372392
 20
380.34495750834321
 11
603.01085415573948
 21
379.56455018665923
  0
LINE
  8
_1-0_
  6
CONTINUOUS
 62
    7
 10
603.01085415573948
 20
379.56455018665923
 11
603.37754472178926
 21
378.73280671294998
  0
LINE
  8
_1-0_
  6
CONTINUOUS
 62
    7
 10
603.37754472178926
 20
378.73280671294998
 11
603.50102554457782
 21
377.87499919178151
  0
LINE
  8
_1-0_
  6
CONTINUOUS
 62
    7
 10
603.50102554457782
 20
377.87499919178151
 11
603.37754472178926
 21
377.0171916706131
  0
LINE
  8
_1-0_
  6
CONTINUOUS
 62
    7
 10
603.37754472178926
 20
377.0171916706131
 11
603.01085415573948
 21
376.18544819690384
  0
LINE
  8
_1-0_
  6
CONTINUOUS
 62
    7
 10
603.01085415573948
 20
376.18544819690384
 11
602.41209555372392
 21
375.40504087521986
  0
LINE
  8
_1-0_
  6
CONTINUOUS
 62
    7
 10
602.41209555372392
 20
375.40504087521986
 11
601.59946189287802
 21
374.69968198712541
  0
LINE
  8
_1-0_
  6
CONTINUOUS
 62
    7
 10
601.59946189287802
 20
374.69968198712541
 11
600.59764463577425
 21
374.09080350550641
  0
LINE
  8
_1-0_
  6
CONTINUOUS
 62
    7
 10
600.59764463577425
 20
374.09080350550641
 11
599.43708349282553
 21
373.59690589491941
  0
LINE
  8
_1-0_
  6
CONTINUOUS
 62
    7
 10
599.43708349282553
 20
373.59690589491941
 11
598.15304152708836
 21
373.23299598433794
  0
LINE
  8
_1-0_
  6
CONTINUOUS
 62
    7
 10
598.15304152708836
 20
373.23299598433794
 11
596.78453370393492
 21
373.01013099224775
  0
LINE
  8
_1-0_
  6
CONTINUOUS
 62
    7
 10
596.78453370393492
 20
373.01013099224775
 11
595.37314144107335
 21
372.93508255865822
  0
LINE
  8
_1-0_
  6
CONTINUOUS
 62
    7
 10
595.37314144107335
 20
372.93508255865822
 11
596.78453370393492
 21
373.01013099224775
  0
LINE
  8
_1-0_
  6
CONTINUOUS
 62
    7
 10
596.78453370393492
 20
373.01013099224775
 11
598.15304152708836
 21
373.23299598433794
  0
LINE
  8
_1-0_
  6
CONTINUOUS
 62
    7
 10
598.15304152708836
 20
373.23299598433794
 11
599.43708349282553
 21
373.59690589491941
  0
LINE
  8
_1-0_
  6
CONTINUOUS
 62
    7
 10
599.43708349282553
 20
373.59690589491941
 11
600.59764463577425
 21
374.09080350550641
  0
LINE
  8
_1-0_
  6
CONTINUOUS
 62
    7
 10
600.59764463577425
 20
374.09080350550641
 11
601.59946189287802
 21
374.69968198712541
  0
LINE
  8
_1-0_
  6
CONTINUOUS
 62
    7
 10
601.59946189287802
 20
374.69968198712541
 11
602.41209555372392
 21
375.40504087521986
  0
LINE
  8
_1-0_
  6
CONTINUOUS
 62
    7
 10
602.41209555372392
 20
375.40504087521986
 11
603.01085415573948
 21
376.18544819690384
  0
LINE
  8
_1-0_
  6
CONTINUOUS
 62
    7
 10
603.01085415573948
 20
376.18544819690384
 11
603.37754472178926
 21
377.0171916706131
  0
LINE
  8
_1-0_
  6
CONTINUOUS
 62
    7
 10
603.37754472178926
 20
377.0171916706131
 11
603.50102554457782
 21
377.87499919178151
  0
LINE
  8
_1-0_
  6
CONTINUOUS
 62
    7
 10
603.50102554457782
 20
377.87499919178151
 11
603.37754472178926
 21
378.73280671294998
  0
LINE
  8
_1-0_
  6
CONTINUOUS
 62
    7
 10
603.37754472178926
 20
378.73280671294998
 11
603.01085415573948
 21
379.56455018665923
  0
LINE
  8
_1-0_
  6
CONTINUOUS
 62
    7
 10
603.01085415573948
 20
379.56455018665923
 11
602.41209555372392
 21
380.34495750834321
  0
LINE
  8
_1-0_
  6
CONTINUOUS
 62
    7
 10
602.41209555372392
 20
380.34495750834321
 11
601.59946189287802
 21
381.05031639643766
  0
LINE
  8
_1-0_
  6
CONTINUOUS
 62
    7
 10
601.59946189287802
 20
381.05031639643766
 11
600.59764463577425
 21
381.65919487805666
  0
LINE
  8
_1-0_
  6
CONTINUOUS
 62
    7
 10
600.59764463577425
 20
381.65919487805666
 11
599.43708349282553
 21
382.15309248864366
  0
LINE
  8
_1-0_
  6
CONTINUOUS
 62
    7
 10
599.43708349282553
 20
382.15309248864366
 11
598.15304152708836
 21
382.51700239922513
  0
LINE
  8
_1-0_
  6
CONTINUOUS
 62
    7
 10
598.15304152708836
 20
382.51700239922513
 11
596.78453370393492
 21
382.73986739131532
  0
LINE
  8
_1-0_
  6
CONTINUOUS
 62
    7
 10
596.78453370393492
 20
382.73986739131532
 11
595.37314144107335
 21
382.81491582490485
  0
LINE
  8
_1-0_
  6
CONTINUOUS
 62
    7
 10
595.37314144107335
 20
303.77482382490478
 11
593.96174917821167
 21
303.69977539131525
  0
LINE
  8
_1-0_
  6
CONTINUOUS
 62
    7
 10
593.96174917821167
 20
303.69977539131525
 11
592.59324135505835
 21
303.47691039922506
  0
LINE
  8
_1-0_
  6
CONTINUOUS
 62
    7
 10
592.59324135505835
 20
303.47691039922506
 11
591.30919938932106
 21
303.11300048864359
  0
LINE
  8
_1-0_
  6
CONTINUOUS
 62
    7
 10
591.30919938932106
 20
303.11300048864359
 11
590.14863824637245
 21
302.61910287805665
  0
LINE
  8
_1-0_
  6
CONTINUOUS
 62
    7
 10
590.14863824637245
 20
302.61910287805665
 11
589.14682098926857
 21
302.01022439643759
  0
LINE
  8
_1-0_
  6
CONTINUOUS
 62
    7
 10
589.14682098926857
 20
302.01022439643759
 11
588.33418732842278
 21
301.30486550834314
  0
LINE
  8
_1-0_
  6
CONTINUOUS
 62
    7
 10
588.33418732842278
 20
301.30486550834314
 11
587.73542872640712
 21
300.52445818665921
  0
LINE
  8
_1-0_
  6
CONTINUOUS
 62
    7
 10
587.73542872640712
 20
300.52445818665921
 11
587.36873816035745
 21
299.6927147129499
  0
LINE
  8
_1-0_
  6
CONTINUOUS
 62
    7
 10
587.36873816035745
 20
299.6927147129499
 11
587.24525733756877
 21
298.83490719178149
  0
LINE
  8
_1-0_
  6
CONTINUOUS
 62
    7
 10
587.24525733756877
 20
298.83490719178149
 11
587.36873816035745
 21
297.97709967061302
  0
LINE
  8
_1-0_
  6
CONTINUOUS
 62
    7
 10
587.36873816035745
 20
297.97709967061302
 11
587.73542872640712
 21
297.14535619690377
  0
LINE
  8
_1-0_
  6
CONTINUOUS
 62
    7
 10
587.73542872640712
 20
297.14535619690377
 11
588.33418732842278
 21
296.36494887521979
  0
LINE
  8
_1-0_
  6
CONTINUOUS
 62
    7
 10
588.33418732842278
 20
296.36494887521979
 11
589.14682098926857
 21
295.65958998712534
  0
LINE
  8
_1-0_
  6
CONTINUOUS
 62
    7
 10
589.14682098926857
 20
295.65958998712534
 11
590.14863824637245
 21
295.05071150550634
  0
LINE
  8
_1-0_
  6
CONTINUOUS
 62
    7
 10
590.14863824637245
 20
295.05071150550634
 11
591.30919938932106
 21
294.5568138949194
  0
LINE
  8
_1-0_
  6
CONTINUOUS
 62
    7
 10
591.30919938932106
 20
294.5568138949194
 11
592.59324135505835
 21
294.19290398433793
  0
LINE
  8
_1-0_
  6
CONTINUOUS
 62
    7
 10
592.59324135505835
 20
294.19290398433793
 11
593.96174917821167
 21
293.97003899224768
  0
LINE
  8
_1-0_
  6
CONTINUOUS
 62
    7
 10
593.96174917821167
 20
293.97003899224768
 11
595.37314144107335
 21
293.89499055865815
  0
LINE
  8
_1-0_
  6
CONTINUOUS
 62
    7
 10
595.37314144107335
 20
293.89499055865815
 11
593.96174917821167
 21
293.97003899224762
  0
LINE
  8
_1-0_
  6
CONTINUOUS
 62
    7
 10
593.96174917821167
 20
293.97003899224762
 11
592.59324135505835
 21
294.19290398433793
  0
LINE
  8
_1-0_
  6
CONTINUOUS
 62
    7
 10
592.59324135505835
 20
294.19290398433793
 11
591.30919938932106
 21
294.5568138949194
  0
LINE
  8
_1-0_
  6
CONTINUOUS
 62
    7
 10
591.30919938932106
 20
294.5568138949194
 11
590.14863824637245
 21
295.05071150550634
  0
LINE
  8
_1-0_
  6
CONTINUOUS
 62
    7
 10
590.14863824637245
 20
295.05071150550634
 11
589.14682098926857
 21
295.65958998712534
  0
LINE
  8
_1-0_
  6
CONTINUOUS
 62
    7
 10
589.14682098926857
 20
295.65958998712534
 11
588.33418732842278
 21
296.36494887521979
  0
LINE
  8
_1-0_
  6
CONTINUOUS
 62
    7
 10
588.33418732842278
 20
296.36494887521979
 11
587.73542872640712
 21
297.14535619690377
  0
LINE
  8
_1-0_
  6
CONTINUOUS
 62
    7
 10
587.73542872640712
 20
297.14535619690377
 11
587.36873816035745
 21
297.97709967061302
  0
LINE
  8
_1-0_
  6
CONTINUOUS
 62
    7
 10
587.36873816035745
 20
297.97709967061302
 11
587.24525733756877
 21
298.83490719178149
  0
LINE
  8
_1-0_
  6
CONTINUOUS
 62
    7
 10
587.24525733756877
 20
298.83490719178149
 11
587.36873816035745
 21
299.6927147129499
  0
LINE
  8
_1-0_
  6
CONTINUOUS
 62
    7
 10
587.36873816035745
 20
299.6927147129499
 11
587.73542872640712
 21
300.52445818665921
  0
LINE
  8
_1-0_
  6
CONTINUOUS
 62
    7
 10
587.73542872640712
 20
300.52445818665921
 11
588.33418732842278
 21
301.30486550834314
  0
LINE
  8
_1-0_
  6
CONTINUOUS
 62
    7
 10
588.33418732842278
 20
301.30486550834314
 11
589.14682098926857
 21
302.01022439643759
  0
LINE
  8
_1-0_
  6
CONTINUOUS
 62
    7
 10
589.14682098926857
 20
302.01022439643759
 11
590.14863824637245
 21
302.61910287805665
  0
LINE
  8
_1-0_
  6
CONTINUOUS
 62
    7
 10
590.14863824637245
 20
302.61910287805665
 11
591.30919938932106
 21
303.11300048864359
  0
LINE
  8
_1-0_
  6
CONTINUOUS
 62
    7
 10
591.30919938932106
 20
303.11300048864359
 11
592.59324135505835
 21
303.47691039922506
  0
LINE
  8
_1-0_
  6
CONTINUOUS
 62
    7
 10
592.59324135505835
 20
303.47691039922506
 11
593.96174917821167
 21
303.69977539131525
  0
LINE
  8
_1-0_
  6
CONTINUOUS
 62
    7
 10
593.96174917821167
 20
303.69977539131525
 11
595.37314144107335
 21
303.77482382490478
  0
LINE
  8
_1-0_
  6
CONTINUOUS
 62
    7
 10
655.37314144107313
 20
258.95054655865817
 11
653.96174917821156
 21
259.0255949922477
  0
LINE
  8
_1-0_
  6
CONTINUOUS
 62
    7
 10
653.96174917821156
 20
259.0255949922477
 11
652.59324135505812
 21
259.24845998433795
  0
LINE
  8
_1-0_
  6
CONTINUOUS
 62
    7
 10
652.59324135505812
 20
259.24845998433795
 11
651.30919938932095
 21
259.61236989491942
  0
LINE
  8
_1-0_
  6
CONTINUOUS
 62
    7
 10
651.30919938932095
 20
259.61236989491942
 11
650.14863824637234
 21
260.10626750550636
  0
LINE
  8
_1-0_
  6
CONTINUOUS
 62
    7
 10
650.14863824637234
 20
260.10626750550636
 11
649.14682098926846
 21
260.71514598712536
  0
LINE
  8
_1-0_
  6
CONTINUOUS
 62
    7
 10
649.14682098926846
 20
260.71514598712536
 11
648.33418732842255
 21
261.42050487521981
  0
LINE
  8
_1-0_
  6
CONTINUOUS
 62
    7
 10
648.33418732842255
 20
261.42050487521981
 11
647.73542872640689
 21
262.2009121969038
  0
LINE
  8
_1-0_
  6
CONTINUOUS
 62
    7
 10
647.73542872640689
 20
262.2009121969038
 11
647.36873816035722
 21
263.03265567061305
  0
LINE
  8
_1-0_
  6
CONTINUOUS
 62
    7
 10
647.36873816035722
 20
263.03265567061305
 11
647.24525733756865
 21
263.89046319178152
  0
LINE
  8
_1-0_
  6
CONTINUOUS
 62
    7
 10
647.24525733756865
 20
263.89046319178152
 11
647.36873816035722
 21
264.74827071294993
  0
LINE
  8
_1-0_
  6
CONTINUOUS
 62
    7
 10
647.36873816035722
 20
264.74827071294993
 11
647.73542872640689
 21
265.58001418665924
  0
LINE
  8
_1-0_
  6
CONTINUOUS
 62
    7
 10
647.73542872640689
 20
265.58001418665924
 11
648.33418732842255
 21
266.36042150834316
  0
LINE
  8
_1-0_
  6
CONTINUOUS
 62
    7
 10
648.33418732842255
 20
266.36042150834316
 11
649.14682098926846
 21
267.06578039643761
  0
LINE
  8
_1-0_
  6
CONTINUOUS
 62
    7
 10
649.14682098926846
 20
267.06578039643761
 11
650.14863824637222
 21
267.67465887805667
  0
LINE
  8
_1-0_
  6
CONTINUOUS
 62
    7
 10
650.14863824637222
 20
267.67465887805667
 11
651.30919938932095
 21
268.16855648864361
  0
LINE
  8
_1-0_
  6
CONTINUOUS
 62
    7
 10
651.30919938932095
 20
268.16855648864361
 11
652.59324135505812
 21
268.53246639922508
  0
LINE
  8
_1-0_
  6
CONTINUOUS
 62
    7
 10
652.59324135505812
 20
268.53246639922508
 11
653.96174917821156
 21
268.75533139131528
  0
LINE
  8
_1-0_
  6
CONTINUOUS
 62
    7
 10
653.96174917821156
 20
268.75533139131528
 11
655.37314144107313
 21
268.8303798249048
  0
LINE
  8
_1-0_
  6
CONTINUOUS
 62
    7
 10
655.37314144107313
 20
268.8303798249048
 11
653.96174917821156
 21
268.75533139131528
  0
LINE
  8
_1-0_
  6
CONTINUOUS
 62
    7
 10
653.96174917821156
 20
268.75533139131528
 11
652.59324135505812
 21
268.53246639922508
  0
LINE
  8
_1-0_
  6
CONTINUOUS
 62
    7
 10
652.59324135505812
 20
268.53246639922508
 11
651.30919938932095
 21
268.16855648864361
  0
LINE
  8
_1-0_
  6
CONTINUOUS
 62
    7
 10
651.30919938932095
 20
268.16855648864361
 11
650.14863824637222
 21
267.67465887805667
  0
LINE
  8
_1-0_
  6
CONTINUOUS
 62
    7
 10
650.14863824637222
 20
267.67465887805667
 11
649.14682098926846
 21
267.06578039643761
  0
LINE
  8
_1-0_
  6
CONTINUOUS
 62
    7
 10
649.14682098926846
 20
267.06578039643761
 11
648.33418732842255
 21
266.36042150834316
  0
LINE
  8
_1-0_
  6
CONTINUOUS
 62
    7
 10
648.33418732842255
 20
266.36042150834316
 11
647.73542872640689
 21
265.58001418665924
  0
LINE
  8
_1-0_
  6
CONTINUOUS
 62
    7
 10
647.73542872640689
 20
265.58001418665924
 11
647.36873816035722
 21
264.74827071294993
  0
LINE
  8
_1-0_
  6
CONTINUOUS
 62
    7
 10
647.36873816035722
 20
264.74827071294993
 11
647.24525733756865
 21
263.89046319178152
  0
LINE
  8
_1-0_
  6
CONTINUOUS
 62
    7
 10
647.24525733756865
 20
263.89046319178152
 11
647.36873816035722
 21
263.03265567061305
  0
LINE
  8
_1-0_
  6
CONTINUOUS
 62
    7
 10
647.36873816035722
 20
263.03265567061305
 11
647.73542872640689
 21
262.2009121969038
  0
LINE
  8
_1-0_
  6
CONTINUOUS
 62
    7
 10
647.73542872640689
 20
262.2009121969038
 11
648.33418732842255
 21
261.42050487521981
  0
LINE
  8
_1-0_
  6
CONTINUOUS
 62
    7
 10
648.33418732842255
 20
261.42050487521981
 11
649.14682098926846
 21
260.71514598712536
  0
LINE
  8
_1-0_
  6
CONTINUOUS
 62
    7
 10
649.14682098926846
 20
260.71514598712536
 11
650.14863824637222
 21
260.10626750550636
  0
LINE
  8
_1-0_
  6
CONTINUOUS
 62
    7
 10
650.14863824637222
 20
260.10626750550636
 11
651.30919938932095
 21
259.61236989491942
  0
LINE
  8
_1-0_
  6
CONTINUOUS
 62
    7
 10
651.30919938932095
 20
259.61236989491942
 11
652.59324135505812
 21
259.24845998433795
  0
LINE
  8
_1-0_
  6
CONTINUOUS
 62
    7
 10
652.59324135505812
 20
259.24845998433795
 11
653.96174917821156
 21
259.0255949922477
  0
LINE
  8
_1-0_
  6
CONTINUOUS
 62
    7
 10
653.96174917821156
 20
259.0255949922477
 11
655.37314144107313
 21
258.95054655865817
  0
LINE
  8
_1-0_
  6
CONTINUOUS
 62
    4
 10
664.45521538103207
 20
360.96179433400658
 11
565.62314144107313
 21
360.96179433400658
  0
LINE
  8
_1-0_
  6
CONTINUOUS
 62
    7
 10
575.62314144107313
 20
360.96179433400658
 11
569.82758648333879
 21
359.40888006339145
  0
LINE
  8
_1-0_
  6
CONTINUOUS
 62
    7
 10
575.62314144107313
 20
360.96179433400658
 11
569.82758648333879
 21
362.51470860462166
  0
LINE
  8
_1-0_
  6
CONTINUOUS
 62
    7
 10
615.12314144107313
 20
360.96179433400658
 11
620.91869639880769
 21
362.51470860462166
  0
LINE
  8
_1-0_
  6
CONTINUOUS
 62
    7
 10
615.12314144107313
 20
360.96179433400658
 11
620.91869639880769
 21
359.40888006339145
  0
LINE
  8
_1-0_
  6
CONTINUOUS
 62
    4
 10
575.62314144107313
 20
360.96179433400658
 11
575.62314144107313
 21
377.87499919178151
  0
LINE
  8
_1-0_
  6
CONTINUOUS
 62
    4
 10
615.12314144107313
 20
360.96179433400658
 11
615.12314144107313
 21
377.87499919178151
  0
LINE
  8
_1-0_
  6
CONTINUOUS
 62
    4
 10
523.81481412309767
 20
316.51766493512184
 11
625.12314144107313
 21
316.51766493512184
  0
LINE
  8
_1-0_
  6
CONTINUOUS
 62
    7
 10
575.62314144107313
 20
316.51766493512184
 11
569.82758648333879
 21
314.9647506645067
  0
LINE
  8
_1-0_
  6
CONTINUOUS
 62
    7
 10
575.62314144107313
 20
316.51766493512184
 11
569.82758648333879
 21
318.07057920573697
  0
LINE
  8
_1-0_
  6
CONTINUOUS
 62
    7
 10
615.12314144107313
 20
316.51766493512184
 11
620.91869639880769
 21
318.07057920573697
  0
LINE
  8
_1-0_
  6
CONTINUOUS
 62
    7
 10
615.12314144107313
 20
316.51766493512184
 11
620.91869639880769
 21
314.9647506645067
  0
LINE
  8
_1-0_
  6
CONTINUOUS
 62
    4
 10
575.62314144107313
 20
316.51766493512184
 11
575.62314144107313
 21
298.83490719178149
  0
LINE
  8
_1-0_
  6
CONTINUOUS
 62
    4
 10
615.12314144107313
 20
316.51766493512184
 11
615.12314144107313
 21
298.83490719178149
  0
LINE
  8
_1-0_
  6
CONTINUOUS
 62
    4
 10
512.65093059130231
 20
383.37499919178151
 11
512.65093059130231
 21
224.19046319178147
  0
LINE
  8
_1-0_
  6
CONTINUOUS
 62
    7
 10
512.65093059130231
 20
383.37499919178151
 11
514.20384486191755
 21
377.57944423404711
  0
LINE
  8
_1-0_
  6
CONTINUOUS
 62
    7
 10
512.65093059130231
 20
383.37499919178151
 11
511.0980163206874
 21
377.57944423404711
  0
LINE
  8
_1-0_
  6
CONTINUOUS
 62
    7
 10
512.65093059130231
 20
224.19046319178147
 11
511.0980163206874
 21
229.98601814951587
  0
LINE
  8
_1-0_
  6
CONTINUOUS
 62
    7
 10
512.65093059130231
 20
224.19046319178147
 11
514.20384486191755
 21
229.98601814951587
  0
LINE
  8
_1-0_
  6
CONTINUOUS
 62
    4
 10
512.65093059130231
 20
383.37499919178151
 11
563.03712322928981
 21
383.37499919178151
  0
LINE
  8
_1-0_
  6
CONTINUOUS
 62
    4
 10
729.1795613626723
 20
329.22592538531432
 11
625.62314144107313
 21
329.22592538531432
  0
LINE
  8
_1-0_
  6
CONTINUOUS
 62
    7
 10
635.62314144107313
 20
329.22592538531432
 11
629.82758648333879
 21
327.67301111469919
  0
LINE
  8
_1-0_
  6
CONTINUOUS
 62
    7
 10
635.62314144107313
 20
329.22592538531432
 11
629.82758648333879
 21
330.77883965592945
  0
LINE
  8
_1-0_
  6
CONTINUOUS
 62
    7
 10
675.12314144107313
 20
329.22592538531432
 11
680.91869639880746
 21
330.77883965592945
  0
LINE
  8
_1-0_
  6
CONTINUOUS
 62
    7
 10
675.12314144107313
 20
329.22592538531432
 11
680.91869639880746
 21
327.67301111469919
  0
LINE
  8
_1-0_
  6
CONTINUOUS
 62
    4
 10
635.62314144107313
 20
329.22592538531432
 11
635.62314144107313
 21
263.89046319178152
  0
LINE
  8
_1-0_
  6
CONTINUOUS
 62
    4
 10
675.12314144107313
 20
329.22592538531432
 11
675.12314144107313
 21
263.89046319178152
  0
LINE
  8
_1-0_
  6
CONTINUOUS
 62
    4
 10
595.37314144107335
 20
189.9205361235185
 11
655.37314144107313
 21
189.9205361235185
  0
LINE
  8
_1-0_
  6
CONTINUOUS
 62
    7
 10
595.37314144107335
 20
189.9205361235185
 11
601.16869639880769
 21
191.47345039413363
  0
LINE
  8
_1-0_
  6
CONTINUOUS
 62
    7
 10
595.37314144107335
 20
189.9205361235185
 11
601.16869639880769
 21
188.36762185290336
  0
LINE
  8
_1-0_
  6
CONTINUOUS
 62
    7
 10
655.37314144107313
 20
189.9205361235185
 11
649.57758648333879
 21
188.36762185290336
  0
LINE
  8
_1-0_
  6
CONTINUOUS
 62
    7
 10
655.37314144107313
 20
189.9205361235185
 11
649.57758648333879
 21
191.47345039413363
  0
LINE
  8
_1-0_
  6
CONTINUOUS
 62
    4
 10
595.37314144107335
 20
189.9205361235185
 11
595.37314144107335
 21
244.33724385000203
  0
LINE
  8
_1-0_
  6
CONTINUOUS
 62
    4
 10
655.37314144107313
 20
189.9205361235185
 11
655.37314144107313
 21
244.33724385000203
  0
LINE
  8
_1-0_
  6
CONTINUOUS
 62
    4
 10
655.37314144107313
 20
189.9205361235185
 11
715.37314144107313
 21
189.9205361235185
  0
LINE
  8
_1-0_
  6
CONTINUOUS
 62
    7
 10
655.37314144107313
 20
189.9205361235185
 11
661.16869639880746
 21
191.47345039413363
  0
LINE
  8
_1-0_
  6
CONTINUOUS
 62
    7
 10
655.37314144107313
 20
189.9205361235185
 11
661.16869639880746
 21
188.36762185290336
  0
LINE
  8
_1-0_
  6
CONTINUOUS
 62
    7
 10
715.37314144107313
 20
189.9205361235185
 11
709.57758648333879
 21
188.36762185290336
  0
LINE
  8
_1-0_
  6
CONTINUOUS
 62
    7
 10
715.37314144107313
 20
189.9205361235185
 11
709.57758648333879
 21
191.47345039413363
  0
LINE
  8
_1-0_
  6
CONTINUOUS
 62
    4
 10
715.37314144107313
 20
189.9205361235185
 11
715.37314144107313
 21
244.33724385000203
  0
LINE
  8
_1-0_
  6
CONTINUOUS
 62
    7
 10
727.87314144107313
 20
274.69046319178147
 11
727.87314144107313
 21
216.40770766853216
  0
LINE
  8
_1-0_
  6
CONTINUOUS
 62
    7
 10
702.87314144107313
 20
274.69046319178147
 11
702.87314144107313
 21
216.40770766853216
  0
ARC
  8
_1-0_
  6
CONTINUOUS
 62
    7
 10
721.62314144107313
 20
231.43895766853216
 40
20.03125
 50
251.81944600000002
 51
288.18055399999997
  0
ARC
  8
_1-0_
  6
CONTINUOUS
 62
    7
 10
721.62314144107313
 20
235.43895766853216
 40
20.03125
 50
251.81944600000002
 51
288.18055399999997
  0
ARC
  8
_1-0_
  6
CONTINUOUS
 62
    7
 10
709.12314144107313
 20
197.37645766853216
 40
20.03125
 50
71.819445999999999
 51
108.18055399999998
  0
ARC
  8
_1-0_
  6
CONTINUOUS
 62
    7
 10
709.12314144107313
 20
193.37645766853216
 40
20.03125
 50
71.819445999999999
 51
108.18055399999998
  0
LINE
  8
_1-0_
  6
CENTER1
 62
    4
 10
715.37314144107313
 20
274.69046319178147
 11
715.37314144107313
 21
96.218375977081677
  0
LINE
  8
_1-0_
  6
CONTINUOUS
 62
    7
 10
727.87314144107313
 20
212.40770766853216
 11
727.87314144107313
 21
157.01631213284321
  0
LINE
  8
_1-0_
  6
CONTINUOUS
 62
    7
 10
702.87314144107313
 20
212.40770766853216
 11
702.87314144107313
 21
157.01631213284321
  0
LINE
  8
_1-0_
  6
CONTINUOUS
 62
    7
 10
702.87314144107313
 20
112.01631213284315
 11
727.87314144107313
 21
112.01631213284315
  0
LINE
  8
_1-0_
  6
CONTINUOUS
 62
    7
 10
745.37314144107313
 20
142.01631213284321
 11
745.37314144107313
 21
143.01631213284321
  0
LINE
  8
_1-0_
  6
CONTINUOUS
 62
    7
 10
727.87314144107313
 20
142.01631213284321
 11
727.87314144107313
 21
112.01631213284315
  0
LINE
  8
_1-0_
  6
CONTINUOUS
 62
    7
 10
685.37314144107313
 20
142.01631213284321
 11
745.37314144107313
 21
142.01631213284321
  0
ARC
  8
_1-0_
  6
CONTINUOUS
 62
    7
 10
731.37314144107313
 20
143.01631213284321
 40
14
 50
0
 51
90
  0
LINE
  8
_1-0_
  6
CONTINUOUS
 62
    7
 10
731.37314144107313
 20
157.01631213284321
 11
699.37314144107313
 21
157.01631213284321
  0
LINE
  8
_1-0_
  6
CONTINUOUS
 62
    7
 10
702.87314144107313
 20
142.01631213284321
 11
702.87314144107313
 21
112.01631213284315
  0
ARC
  8
_1-0_
  6
CONTINUOUS
 62
    7
 10
699.37314144107313
 20
143.01631213284321
 40
14
 50
90
 51
180
  0
LINE
  8
_1-0_
  6
CONTINUOUS
 62
    7
 10
685.37314144107313
 20
142.01631213284321
 11
685.37314144107313
 21
143.01631213284321
  0
LINE
  8
_1-0_
  6
CONTINUOUS
 62
    4
 10
761.85087932131659
 20
304.69046319178147
 11
761.85087932131659
 21
224.19046319178147
  0
LINE
  8
_1-0_
  6
CONTINUOUS
 62
    7
 10
761.85087932131659
 20
304.69046319178147
 11
763.40379359193184
 21
298.89490823404707
  0
LINE
  8
_1-0_
  6
CONTINUOUS
 62
    7
 10
761.85087932131659
 20
304.69046319178147
 11
760.29796505070157
 21
298.89490823404707
  0
LINE
  8
_1-0_
  6
CONTINUOUS
 62
    7
 10
761.85087932131659
 20
224.19046319178147
 11
760.29796505070157
 21
229.98601814951587
  0
LINE
  8
_1-0_
  6
CONTINUOUS
 62
    7
 10
761.85087932131659
 20
224.19046319178147
 11
763.40379359193184
 21
229.98601814951587
  0
LINE
  8
_1-0_
  6
CONTINUOUS
 62
    4
 10
512.65093059130231
 20
224.19046319178147
 11
761.85087932131659
 21
224.19046319178147
  0
LINE
  8
_1-0_
  6
CONTINUOUS
 62
    4
 10
761.85087932131659
 20
304.69046319178147
 11
685.37314144107313
 21
304.69046319178147
  0
LINE
  8
_1-0_
  6
CONTINUOUS
 62
    4
 10
702.87314144107313
 20
89.266100374010306
 11
727.87314144107313
 21
89.266100374010306
  0
LINE
  8
_1-0_
  6
CONTINUOUS
 62
    7
 10
702.87314144107313
 20
89.266100374010306
 11
708.66869639880746
 21
90.81901464462544
  0
LINE
  8
_1-0_
  6
CONTINUOUS
 62
    7
 10
702.87314144107313
 20
89.266100374010306
 11
708.66869639880746
 21
87.713186103395202
  0
LINE
  8
_1-0_
  6
CONTINUOUS
 62
    7
 10
727.87314144107313
 20
89.266100374010306
 11
722.07758648333879
 21
87.713186103395202
  0
LINE
  8
_1-0_
  6
CONTINUOUS
 62
    7
 10
727.87314144107313
 20
89.266100374010306
 11
722.07758648333879
 21
90.81901464462544
  0
LINE
  8
_1-0_
  6
CONTINUOUS
 62
    4
 10
702.87314144107313
 20
89.266100374010306
 11
702.87314144107313
 21
101.78019645953872
  0
LINE
  8
_1-0_
  6
CONTINUOUS
 62
    4
 10
727.87314144107313
 20
89.266100374010306
 11
727.87314144107313
 21
101.78019645953872
  0
LINE
  8
_1-0_
  6
CONTINUOUS
 62
    4
 10
685.37314144107313
 20
74.527276095499018
 11
745.37314144107313
 21
74.527276095499018
  0
LINE
  8
_1-0_
  6
CONTINUOUS
 62
    7
 10
685.37314144107313
 20
74.527276095499018
 11
691.16869639880746
 21
76.080190366114152
  0
LINE
  8
_1-0_
  6
CONTINUOUS
 62
    7
 10
685.37314144107313
 20
74.527276095499018
 11
691.16869639880746
 21
72.974361824883885
  0
LINE
  8
_1-0_
  6
CONTINUOUS
 62
    7
 10
745.37314144107313
 20
74.527276095499018
 11
739.57758648333879
 21
72.974361824883885
  0
LINE
  8
_1-0_
  6
CONTINUOUS
 62
    7
 10
745.37314144107313
 20
74.527276095499018
 11
739.57758648333879
 21
76.080190366114152
  0
LINE
  8
_1-0_
  6
CONTINUOUS
 62
    4
 10
685.37314144107313
 20
74.527276095499018
 11
685.37314144107313
 21
139.04439369200122
  0
LINE
  8
_1-0_
  6
CONTINUOUS
 62
    4
 10
745.37314144107313
 20
74.527276095499018
 11
745.37314144107313
 21
139.04439369200122
  0
LINE
  8
_1-0_
  6
CONTINUOUS
 62
    4
 10
745.37314281102567
 20
74.527276095499018
 11
685.37314281102567
 21
74.527276095499018
  0
LINE
  8
_1-0_
  6
CONTINUOUS
 62
    7
 10
745.37314281102567
 20
74.527276095499018
 11
739.57758785329133
 21
72.974361824883885
  0
LINE
  8
_1-0_
  6
CONTINUOUS
 62
    7
 10
745.37314281102567
 20
74.527276095499018
 11
739.57758785329133
 21
76.080190366114152
  0
LINE
  8
_1-0_
  6
CONTINUOUS
 62
    7
 10
685.37314281102567
 20
74.527276095499018
 11
691.16869776876023
 21
76.080190366114152
  0
LINE
  8
_1-0_
  6
CONTINUOUS
 62
    7
 10
685.37314281102567
 20
74.527276095499018
 11
691.16869776876023
 21
72.974361824883885
  0
LINE
  8
_1-0_
  6
CONTINUOUS
 62
    4
 10
727.87314281102567
 20
89.266100374010306
 11
702.87314281102567
 21
89.266100374010306
  0
LINE
  8
_1-0_
  6
CONTINUOUS
 62
    7
 10
727.87314281102567
 20
89.266100374010306
 11
722.07758785329133
 21
87.713186103395202
  0
LINE
  8
_1-0_
  6
CONTINUOUS
 62
    7
 10
727.87314281102567
 20
89.266100374010306
 11
722.07758785329133
 21
90.81901464462544
  0
LINE
  8
_1-0_
  6
CONTINUOUS
 62
    7
 10
702.87314281102567
 20
89.266100374010306
 11
708.66869776876023
 21
90.81901464462544
  0
LINE
  8
_1-0_
  6
CONTINUOUS
 62
    7
 10
702.87314281102567
 20
89.266100374010306
 11
708.66869776876023
 21
87.713186103395202
  0
LINE
  8
_1-0_
  6
CONTINUOUS
 62
    4
 10
727.87314281102567
 20
101.78019645953872
 11
727.87314281102567
 21
89.266100374010306
  0
LINE
  8
_1-0_
  6
CONTINUOUS
 62
    4
 10
702.87314281102567
 20
101.78019645953872
 11
702.87314281102567
 21
89.266100374010306
  0
LINE
  8
_1-0_
  6
CONTINUOUS
 62
    4
 10
789.24620998274508
 20
304.69046319178147
 11
789.24620998274508
 21
112.01631213284315
  0
LINE
  8
_1-0_
  6
CONTINUOUS
 62
    7
 10
789.24620998274508
 20
304.69046319178147
 11
790.7991242533601
 21
298.89490823404707
  0
LINE
  8
_1-0_
  6
CONTINUOUS
 62
    7
 10
789.24620998274508
 20
304.69046319178147
 11
787.69329571212983
 21
298.89490823404707
  0
LINE
  8
_1-0_
  6
CONTINUOUS
 62
    7
 10
789.24620998274508
 20
112.01631213284315
 11
787.69329571212983
 21
117.81186709057755
  0
LINE
  8
_1-0_
  6
CONTINUOUS
 62
    7
 10
789.24620998274508
 20
112.01631213284315
 11
790.7991242533601
 21
117.81186709057755
  0
LINE
  8
_1-0_
  6
CONTINUOUS
 62
    4
 10
789.24620998274508
 20
304.69046319178147
 11
761.85087932131659
 21
304.69046319178147
  0
LINE
  8
_1-0_
  6
CONTINUOUS
 62
    4
 10
789.24620998274508
 20
112.01631213284315
 11
729.82816583482713
 21
112.01631213284315
  0
CIRCLE
  8
_1-0_
  6
CONTINUOUS
 62
    7
 10
736.83743055504896
 20
495.61453256272238
 40
31.75
  0
CIRCLE
  8
_1-0_
  6
CONTINUOUS
 62
    7
 10
736.83743055504896
 20
495.61453256272238
 40
29.75
  0
CIRCLE
  8
_1-0_
  6
CONTINUOUS
 62
    7
 10
648.60513475359766
 20
495.61453256272238
 40
26.75
  0
CIRCLE
  8
_1-0_
  6
CONTINUOUS
 62
    7
 10
648.60513475359766
 20
495.61453256272238
 40
24.75
  0
LINE
  8
_1-0_
  6
CONTINUOUS
 62
    4
 10
128.20888521757029
 20
541.44631880283668
 11
74.508884454630845
 21
541.44631880283668
  0
LINE
  8
_1-0_
  6
CONTINUOUS
 62
    7
 10
128.20888521757029
 20
541.44631880283668
 11
125.31110773870318
 21
540.66986166752906
  0
LINE
  8
_1-0_
  6
CONTINUOUS
 62
    7
 10
128.20888521757029
 20
541.44631880283668
 11
125.31110773870318
 21
542.22277593814419
  0
LINE
  8
_1-0_
  6
CONTINUOUS
 62
    7
 10
74.508884454630845
 20
541.44631880283668
 11
77.406661933498071
 21
542.22277593814419
  0
LINE
  8
_1-0_
  6
CONTINUOUS
 62
    7
 10
74.508884454630845
 20
541.44631880283668
 11
77.406661933498071
 21
540.66986166752906
  0
LINE
  8
_1-0_
  6
CONTINUOUS
 62
    4
 10
128.20888521757029
 20
514.65469792882458
 11
128.20888521757029
 21
541.44631880283668
  0
LINE
  8
_1-0_
  6
CONTINUOUS
 62
    4
 10
74.508884454630845
 20
514.65469792882458
 11
74.508884454630845
 21
541.44631880283668
  0
TEXT
  8
_1-0_
 62
    7
 10
93.858884836100571
 20
542.44631880283668
 40
5
 41
1
 50
0
  1
φ53.7
  0
LINE
  8
_1-0_
  6
CONTINUOUS
 62
    4
 10
252.14554797682228
 20
541.44631880283668
 11
203.14554797682228
 21
541.44631880283668
  0
LINE
  8
_1-0_
  6
CONTINUOUS
 62
    7
 10
252.14554797682228
 20
541.44631880283668
 11
249.24777049795511
 21
540.66986166752917
  0
LINE
  8
_1-0_
  6
CONTINUOUS
 62
    7
 10
252.14554797682228
 20
541.44631880283668
 11
249.24777049795511
 21
542.22277593814442
  0
LINE
  8
_1-0_
  6
CONTINUOUS
 62
    7
 10
203.14554797682228
 20
541.44631880283668
 11
206.04332545568948
 21
542.22277593814442
  0
LINE
  8
_1-0_
  6
CONTINUOUS
 62
    7
 10
203.14554797682228
 20
541.44631880283668
 11
206.04332545568948
 21
540.66986166752917
  0
LINE
  8
_1-0_
  6
CONTINUOUS
 62
    4
 10
252.14554797682228
 20
509.30370572603334
 11
252.14554797682228
 21
541.44631880283668
  0
LINE
  8
_1-0_
  6
CONTINUOUS
 62
    4
 10
203.14554797682228
 20
509.30370572603334
 11
203.14554797682228
 21
541.44631880283668
  0
TEXT
  8
_1-0_
 62
    7
 10
222.64554797682228
 20
542.44631880283668
 40
5
 41
1
 50
0
  1
φ49
  0
LINE
  8
_1-0_
  6
CONTINUOUS
 62
    4
 10
319.54653639760766
 20
541.44631880283668
 11
369.54653639760766
 21
541.44631880283668
  0
LINE
  8
_1-0_
  6
CONTINUOUS
 62
    7
 10
319.54653639760766
 20
541.44631880283668
 11
322.44431387647483
 21
542.22277593814442
  0
LINE
  8
_1-0_
  6
CONTINUOUS
 62
    7
 10
319.54653639760766
 20
541.44631880283668
 11
322.44431387647483
 21
540.66986166752917
  0
LINE
  8
_1-0_
  6
CONTINUOUS
 62
    7
 10
369.54653639760766
 20
541.44631880283668
 11
366.64875891874038
 21
540.66986166752917
  0
LINE
  8
_1-0_
  6
CONTINUOUS
 62
    7
 10
369.54653639760766
 20
541.44631880283668
 11
366.64875891874038
 21
542.22277593814442
  0
LINE
  8
_1-0_
  6
CONTINUOUS
 62
    4
 10
319.54653639760766
 20
508.63630745368527
 11
319.54653639760766
 21
541.44631880283668
  0
LINE
  8
_1-0_
  6
CONTINUOUS
 62
    4
 10
369.54653639760766
 20
508.63630745368527
 11
369.54653639760766
 21
541.44631880283668
  0
LINE
  8
_1-0_
  6
CONTINUOUS
 62
    4
 10
469.3516015526369
 20
541.44631880283668
 11
417.3516015526369
 21
541.44631880283668
  0
LINE
  8
_1-0_
  6
CONTINUOUS
 62
    7
 10
469.3516015526369
 20
541.44631880283668
 11
466.45382407376973
 21
540.66986166752917
  0
LINE
  8
_1-0_
  6
CONTINUOUS
 62
    7
 10
469.3516015526369
 20
541.44631880283668
 11
466.45382407376973
 21
542.22277593814442
  0
LINE
  8
_1-0_
  6
CONTINUOUS
 62
    7
 10
417.3516015526369
 20
541.44631880283668
 11
420.24937903150413
 21
542.22277593814442
  0
LINE
  8
_1-0_
  6
CONTINUOUS
 62
    7
 10
417.3516015526369
 20
541.44631880283668
 11
420.24937903150413
 21
540.66986166752917
  0
LINE
  8
_1-0_
  6
CONTINUOUS
 62
    4
 10
469.3516015526369
 20
508.63630745368527
 11
469.3516015526369
 21
541.44631880283668
  0
LINE
  8
_1-0_
  6
CONTINUOUS
 62
    4
 10
417.3516015526369
 20
508.63630745368527
 11
417.3516015526369
 21
541.44631880283668
  0
LINE
  8
_1-0_
  6
CONTINUOUS
 62
    4
 10
567.15666670766609
 20
541.44631880283668
 11
517.15666670766609
 21
541.44631880283668
  0
LINE
  8
_1-0_
  6
CONTINUOUS
 62
    7
 10
567.15666670766609
 20
541.44631880283668
 11
564.2588892287988
 21
540.66986166752917
  0
LINE
  8
_1-0_
  6
CONTINUOUS
 62
    7
 10
567.15666670766609
 20
541.44631880283668
 11
564.2588892287988
 21
542.22277593814442
  0
LINE
  8
_1-0_
  6
CONTINUOUS
 62
    7
 10
517.15666670766609
 20
541.44631880283668
 11
520.05444418653337
 21
542.22277593814442
  0
LINE
  8
_1-0_
  6
CONTINUOUS
 62
    7
 10
517.15666670766609
 20
541.44631880283668
 11
520.05444418653337
 21
540.66986166752917
  0
LINE
  8
_1-0_
  6
CONTINUOUS
 62
    4
 10
567.15666670766609
 20
508.63630745368527
 11
567.15666670766609
 21
541.44631880283668
  0
LINE
  8
_1-0_
  6
CONTINUOUS
 62
    4
 10
517.15666670766609
 20
508.63630745368527
 11
517.15666670766609
 21
541.44631880283668
  0
TEXT
  8
_1-0_
 62
    7
 10
339.54653639760766
 20
542.44631880283668
 40
5
 41
1.0000000000000013
 50
0
  1
φ50
  0
TEXT
  8
_1-0_
 62
    7
 10
438.3516015526369
 20
542.44631880283668
 40
5
 41
1
 50
0
  1
φ52
  0
TEXT
  8
_1-0_
 62
    7
 10
537.15666670766609
 20
542.44631880283668
 40
5
 41
1
 50
0
  1
φ50
  0
LINE
  8
_1-0_
  6
CONTINUOUS
 62
    4
 10
621.85513401504908
 20
541.44631880283668
 11
675.35513401504908
 21
541.44631880283668
  0
TEXT
  8
_1-0_
 62
    7
 10
641.10513401504908
 20
542.44631880283668
 40
5
 41
1
 50
0
  1
φ53.5
  0
LINE
  8
_1-0_
  6
CONTINUOUS
 62
    7
 10
621.85513401504908
 20
541.44631880283668
 11
624.75291149391637
 21
542.22277593814419
  0
LINE
  8
_1-0_
  6
CONTINUOUS
 62
    7
 10
621.85513401504908
 20
541.44631880283668
 11
624.75291149391637
 21
540.66986166752917
  0
LINE
  8
_1-0_
  6
CONTINUOUS
 62
    7
 10
675.35513401504908
 20
541.44631880283668
 11
672.45735653618203
 21
540.66986166752917
  0
LINE
  8
_1-0_
  6
CONTINUOUS
 62
    7
 10
675.35513401504908
 20
541.44631880283668
 11
672.45735653618203
 21
542.22277593814419
  0
LINE
  8
_1-0_
  6
CONTINUOUS
 62
    4
 10
621.85513401504908
 20
508.63630745368527
 11
621.85513401504908
 21
541.44631880283668
  0
LINE
  8
_1-0_
  6
CONTINUOUS
 62
    4
 10
675.35513401504908
 20
508.63630745368527
 11
675.35513401504908
 21
541.44631880283668
  0
LINE
  8
_1-0_
  6
CONTINUOUS
 62
    4
 10
768.58743381973658
 20
541.44631880283668
 11
705.08743381973658
 21
541.44631880283668
  0
TEXT
  8
_1-0_
 62
    7
 10
729.33743381973658
 20
542.44631880283668
 40
5
 41
1
 50
0
  1
φ63.5
  0
LINE
  8
_1-0_
  6
CONTINUOUS
 62
    7
 10
768.58743381973658
 20
541.44631880283668
 11
765.68965634086953
 21
540.66986166752917
  0
LINE
  8
_1-0_
  6
CONTINUOUS
 62
    7
 10
768.58743381973658
 20
541.44631880283668
 11
765.68965634086953
 21
542.22277593814419
  0
LINE
  8
_1-0_
  6
CONTINUOUS
 62
    7
 10
705.08743381973658
 20
541.44631880283668
 11
707.98521129860387
 21
542.22277593814419
  0
LINE
  8
_1-0_
  6
CONTINUOUS
 62
    7
 10
705.08743381973658
 20
541.44631880283668
 11
707.98521129860387
 21
540.66986166752917
  0
LINE
  8
_1-0_
  6
CONTINUOUS
 62
    4
 10
768.58743381973658
 20
508.63630745368527
 11
768.58743381973658
 21
541.44631880283668
  0
LINE
  8
_1-0_
  6
CONTINUOUS
 62
    4
 10
705.08743381973658
 20
508.63630745368527
 11
705.08743381973658
 21
541.44631880283668
  0
LINE
  8
_1-0_
  6
CENTER1
 62
    4
 10
227.64554962860401
 20
530.63802340424001
 11
227.64554962860401
 21
426.67229208113826
  0
LINE
  8
_1-0_
  6
CENTER1
 62
    4
 10
344.5465354974595
 20
528.56308291539107
 11
344.5465354974595
 21
426.67229208113826
  0
LINE
  8
_1-0_
  6
CENTER1
 62
    4
 10
443.35160169907487
 20
528.56308291539107
 11
443.35160169907487
 21
426.67229208113826
  0
LINE
  8
_1-0_
  6
CENTER1
 62
    4
 10
542.15666790069008
 20
528.56308291539107
 11
542.15666790069008
 21
426.67229208113826
  0
LINE
  8
_1-0_
  6
CONTINUOUS
 62
    4
 10
627.49752283214979
 20
479.93401100741249
 11
606.18224671312441
 21
462.56600824376243
  0
TEXT
  8
_1-0_
 62
    7
 10
593.55097197592499
 20
459.07918990491862
 40
5
 41
1
 50
0
  1
乳白
  0
LINE
  8
_1-0_
  6
CONTINUOUS
 62
    4
 10
714.20882513649439
 20
474.44709250060225
 11
692.89354901746901
 21
457.07908973695231
  0
TEXT
  8
_1-0_
 62
    7
 10
685.2636769233436
 20
453.67931744079794
 40
5
 41
1
 50
0
  1
黒
  0
LINE
  8
_1-0_
  6
CONTINUOUS
 62
    7
 10
642.28641729624973
 20
436.17085903280189
 11
642.28641729624973
 21
429.17085903280189
  0
LINE
  8
_1-0_
  6
CONTINUOUS
 62
    7
 10
642.28641729624973
 20
429.17085903280189
 11
719.28641729624973
 21
429.17085903280189
  0
LINE
  8
_1-0_
  6
CONTINUOUS
 62
    7
 10
719.28641729624973
 20
429.17085903280189
 11
719.28641729624973
 21
436.17085903280189
  0
LINE
  8
_1-0_
  6
CONTINUOUS
 62
    7
 10
642.28641729624973
 20
436.17085903280189
 11
719.28641729624973
 21
436.17085903280189
  0
TEXT
  8
_1-0_
 62
    7
 10
721.28641729624973
 20
430.67085903280189
 40
4
 41
1
 50
0
  1
S=1/2
  0
TEXT
  8
_1-0_
 62
    7
 10
658.78641729624973
 20
430.67085903280189
 40
4
 41
1
 50
0
  1
Оリング　乳白・黒　各1
  0
TEXT
  8
_1-0_
 62
    7
 10
566.65666790069008
 20
411.36480011794162
 40
4
 41
1
 50
0
  1
S=1/2
  0
TEXT
  8
_1-0_
 62
    7
 10
467.85160169907487
 20
411.36480011794162
 40
4
 41
1
 50
0
  1
S=1/2
  0
TEXT
  8
_1-0_
 62
    7
 10
369.0465354974595
 20
411.36480011794162
 40
4
 41
1
 50
0
  1
S=1/2
  0
TEXT
  8
_1-0_
 62
    7
 10
267.1455496286041
 20
411.36480011794162
 40
4
 41
1
 50
0
  1
S=1/2
  0
TEXT
  8
_1-0_
 62
    7
 10
130.85888448769338
 20
320.5074548350592
 40
4
 41
1
 50
0
  1
S=1/2
  0
TEXT
  8
_1-0_
 62
    7
 10
502.56859200629094
 20
98.954198795357285
 40
6
 41
1
 50
0
  1
※1　（　）内寸法は参考寸法である。
  0
TEXT
  8
_1-0_
 62
    7
 10
502.56859200629094
 20
78.954198795357285
 40
6
 41
1
 50
0
  1
※3　壁排水管の差込代は、40mm以上を確保すること。
  0
TEXT
  8
_1-0_
 62
    7
 10
608.87314144107335
 20
161.43140700504977
 40
4
 41
1
 50
0
  1
Sトラップ
  0
LINE
  8
_1-0_
  6
CONTINUOUS
 62
    7
 10
595.37314144107335
 20
166.93140700504977
 11
595.37314144107335
 21
159.93140700504977
  0
LINE
  8
_1-0_
  6
CONTINUOUS
 62
    7
 10
595.37314144107335
 20
159.93140700504977
 11
640.37314144107335
 21
159.93140700504977
  0
LINE
  8
_1-0_
  6
CONTINUOUS
 62
    7
 10
640.37314144107335
 20
159.93140700504977
 11
640.37314144107335
 21
166.93140700504977
  0
LINE
  8
_1-0_
  6
CONTINUOUS
 62
    7
 10
640.37314144107335
 20
166.93140700504977
 11
595.37314144107335
 21
166.93140700504977
  0
TEXT
  8
_1-0_
 62
    7
 10
642.37314144107335
 20
161.43140700504977
 40
4
 41
1
 50
0
  1
S=1/2
  0
LINE
  8
_1-0_
  6
CENTER1
 62
    4
 10
60.475700250435181
 20
495.61453256272238
 11
155.70674430277949
 21
495.61453256272238
  0
LINE
  8
_1-0_
  6
CENTER1
 62
    4
 10
169.37220402757665
 20
495.61453256272238
 11
248.96024612795235
 21
495.61453256272238
  0
LINE
  8
_1-0_
  6
CENTER1
 62
    4
 10
302.07663202602037
 20
495.61453256272238
 11
388.56617801332276
 21
495.61453256272238
  0
LINE
  8
_1-0_
  6
CENTER1
 62
    4
 10
401.13840096013609
 20
495.61453256272238
 11
484.22439608690262
 21
495.61453256272238
  0
LINE
  8
_1-0_
  6
CENTER1
 62
    4
 10
495.15676386674039
 20
495.61453256272238
 11
576.8892238267922
 21
495.61453256272238
  0
TEXT
  8
_1-0_
 62
    7
 10
306.91972835320626
 20
441.93447856237128
 40
5
 41
1
 50
90
  1
6
  0
TEXT
  8
_1-0_
 62
    7
 10
405.70524307295318
 20
440.18447856237128
 40
5
 41
1
 50
90
  1
7.5
  0
TEXT
  8
_1-0_
 62
    7
 10
507.52236507042891
 20
436.68447856237128
 40
5
 41
1
 50
90
  1
0.5
  0
TEXT
  8
_1-0_
 62
    7
 10
364.21992056412511
 20
477.11587323692191
 40
5.0000000000000204
 41
0.9999999999999941
 50
-44.999999999999886
  1
φ36
  0
TEXT
  8
_1-0_
 62
    7
 10
464.00414780103676
 20
476.83346534083295
 40
5
 41
1
 50
-45
  1
φ31.5
  0
TEXT
  8
_1-0_
 62
    7
 10
560.10263255542622
 20
478.38754851195818
 40
4.9999999999999804
 41
1.0000000000000039
 50
-45.000000000000689
  1
φ35
  0
TEXT
  8
_1-0_
 62
    7
 10
511.65093059130242
 20
283.78273119178152
 40
5
 41
1
 50
90
  1
（151.0～176.0）
  0
TEXT
  8
_1-0_
 62
    7
 10
760.85087932131659
 20
254.44046319178147
 40
5
 41
1
 50
90
  1
（80.5）
  0
TEXT
  8
_1-0_
 62
    7
 10
788.24620998274508
 20
197.10338766231234
 40
5
 41
1
 50
90
  1
（650.0）
  0
TEXT
  8
_1-0_
 62
    7
 10
531.60910711140377
 20
317.60434629151893
 40
5
 41
1
 50
0
  1
六角対辺36.0
  0
TEXT
  8
_1-0_
 62
    7
 10
628.72577132073638
 20
361.96179433400658
 40
5
 41
1
 50
0
  1
六角対辺36.0
  0
TEXT
  8
_1-0_
 62
    7
 10
689.31229994863679
 20
330.98774140076795
 40
5
 41
1
 50
0
  1
六角対辺36.0
  0
TEXT
  8
_1-0_
 62
    7
 10
617.87314144107335
 20
190.9205361235185
 40
5
 41
1
 50
0
  1
(60.0)
  0
TEXT
  8
_1-0_
 62
    7
 10
677.87314144107313
 20
190.9205361235185
 40
5
 41
1
 50
0
  1
(60.0)
  0
TEXT
  8
_1-0_
 62
    7
 10
707.87314281102567
 20
90.266100374010306
 40
5
 41
1
 50
0
  1
φ25.0
  0
TEXT
  8
_1-0_
 62
    7
 10
707.87314281102567
 20
75.527276095499018
 40
5
 41
1
 50
0
  1
φ60.0
  0
TEXT
  8
_1-0_
 62
    7
 10
15.391117101246891
 20
565.83435115941801
 40
12
 41
1.0000000000000002
 50
0
  1
Mimi用コンプリートセット（100mm：天板厚15～55㎜用）Sトラップ
  0
TEXT
  8
_1-0_
 62
    7
 10
502.56859200629094
 20
88.954198795357285
 40
6
 41
1
 50
0
  1
※2　テール管の差込代は、15mm以上を確保すること。
  0
LINE
  8
_1-0_
  6
CONTINUOUS
 62
    7
 10
67.699145075661704
 20
142.31543283694165
 11
129.6991450756617
 21
142.31543283694165
  0
CIRCLE
  8
_1-0_
  6
CONTINUOUS
 62
    7
 10
98.699145075661704
 20
238.37346696808236
 40
50
  0
CIRCLE
  8
_1-0_
  6
CONTINUOUS
 62
    7
 10
98.699145075661704
 20
238.37346696808236
 40
18
  0
CIRCLE
  8
_1-0_
  6
CONTINUOUS
 62
    4
 10
98.699145075661704
 20
238.37346696808236
 40
31
  0
CIRCLE
  8
_1-0_
  6
CONTINUOUS
 62
    4
 10
98.699145075661704
 20
238.37346696808236
 40
22.700000000000002
  0
CIRCLE
  8
_1-0_
  6
CONTINUOUS
 62
    4
 10
98.699145075661704
 20
238.37346696808236
 40
27
  0
CIRCLE
  8
_1-0_
  6
DASHED1
 62
    4
 10
98.699145075661704
 20
238.37346696808236
 40
41
  0
CIRCLE
  8
_1-0_
  6
DASHED1
 62
    4
 10
98.699145075661704
 20
238.37346696808236
 40
39
  0
LINE
  8
_1-0_
  6
CENTER1
 62
    4
 10
98.699145075661704
 20
297.07029188988315
 11
98.699145075661704
 21
166.7316581777151
  0
ARC
  8
_1-0_
  6
DASHED1
 62
    4
 10
137.6991450756617
 20
133.31543283694165
 40
0.5
 50
90
 51
180
  0
LINE
  8
_1-0_
  6
CONTINUOUS
 62
    7
 10
67.699145075661704
 20
142.31543283694165
 11
67.699145075661704
 21
137.31543283694165
  0
LINE
  8
_1-0_
  6
CONTINUOUS
 62
    7
 10
129.6991450756617
 20
142.31543283694165
 11
129.6991450756617
 21
137.31543283694165
  0
LINE
  8
_1-0_
  6
CONTINUOUS
 62
    7
 10
53.699145075661704
 20
137.31543283694165
 11
67.699145075661704
 21
137.31543283694165
  0
LINE
  8
_1-0_
  6
CONTINUOUS
 62
    7
 10
143.6991450756617
 20
137.31543283694165
 11
129.6991450756617
 21
137.31543283694165
  0
LINE
  8
_1-0_
  6
DASHED1
 62
    4
 10
123.4491450756617
 20
141.31543283694165
 11
123.4491450756617
 21
142.31543283694165
  0
ARC
  8
_1-0_
  6
DASHED1
 62
    4
 10
123.9491450756617
 20
141.31543283694165
 40
0.5
 50
180
 51
270
  0
LINE
  8
_1-0_
  6
DASHED1
 62
    4
 10
124.9491450756617
 20
140.81543283694165
 11
123.9491450756617
 21
140.81543283694165
  0
LINE
  8
_1-0_
  6
DASHED1
 62
    4
 10
125.4491450756617
 20
141.31543283694165
 11
125.4491450756617
 21
142.31543283694165
  0
ARC
  8
_1-0_
  6
DASHED1
 62
    4
 10
124.9491450756617
 20
141.31543283694165
 40
0.5
 50
270
 51
0
  0
LINE
  8
_1-0_
  6
DASHED1
 62
    4
 10
137.1991450756617
 20
133.31543283694165
 11
137.1991450756617
 21
132.31543283694165
  0
LINE
  8
_1-0_
  6
DASHED1
 62
    4
 10
138.6991450756617
 20
133.81543283694165
 11
137.6991450756617
 21
133.81543283694165
  0
LINE
  8
_1-0_
  6
DASHED1
 62
    4
 10
139.1991450756617
 20
133.31543283694165
 11
139.1991450756617
 21
132.31543283694165
  0
ARC
  8
_1-0_
  6
DASHED1
 62
    4
 10
138.6991450756617
 20
133.31543283694165
 40
0.5
 50
0
 51
90
  0
ARC
  8
_1-0_
  6
DASHED1
 62
    4
 10
59.699145075661704
 20
133.31543283694165
 40
0.5
 50
0
 51
90
  0
LINE
  8
_1-0_
  6
DASHED1
 62
    4
 10
73.949145075661704
 20
141.31543283694165
 11
73.949145075661704
 21
142.31543283694165
  0
ARC
  8
_1-0_
  6
DASHED1
 62
    4
 10
73.449145075661704
 20
141.31543283694165
 40
0.5
 50
270
 51
0
  0
LINE
  8
_1-0_
  6
DASHED1
 62
    4
 10
72.449145075661704
 20
140.81543283694165
 11
73.449145075661704
 21
140.81543283694165
  0
LINE
  8
_1-0_
  6
DASHED1
 62
    4
 10
71.949145075661704
 20
141.31543283694165
 11
71.949145075661704
 21
142.31543283694165
  0
ARC
  8
_1-0_
  6
DASHED1
 62
    4
 10
72.449145075661704
 20
141.31543283694165
 40
0.5
 50
180
 51
270
  0
LINE
  8
_1-0_
  6
DASHED1
 62
    4
 10
60.199145075661704
 20
133.31543283694165
 11
60.199145075661704
 21
132.31543283694165
  0
LINE
  8
_1-0_
  6
DASHED1
 62
    4
 10
58.699145075661704
 20
133.81543283694165
 11
59.699145075661704
 21
133.81543283694165
  0
LINE
  8
_1-0_
  6
DASHED1
 62
    4
 10
58.199145075661704
 20
133.31543283694165
 11
58.199145075661704
 21
132.31543283694165
  0
ARC
  8
_1-0_
  6
DASHED1
 62
    4
 10
58.699145075661704
 20
133.31543283694165
 40
0.5
 50
90
 51
180
  0
LINE
  8
_1-0_
  6
DASHED1
 62
    4
 10
80.435144198575244
 20
138.12153925526365
 11
75.999145075661601
 21
142.31543283694165
  0
LINE
  8
_1-0_
  6
DASHED1
 62
    4
 10
80.314563977037551
 20
136.64272855890715
 11
74.170865983051271
 21
132.31543283694165
  0
ARC
  8
_1-0_
  6
DASHED1
 62
    4
 10
79.706516529673137
 20
137.43662924649584
 40
1
 50
307.44845420909501
 51
43.228530259965914
  0
LINE
  8
_1-0_
  6
DASHED1
 62
    4
 10
116.96314595274816
 20
138.12153925526365
 11
121.39914507566169
 21
142.31543283694165
  0
LINE
  8
_1-0_
  6
DASHED1
 62
    4
 10
117.08372617428585
 20
136.64272855890715
 11
123.22742416827219
 21
132.31543283694165
  0
ARC
  8
_1-0_
  6
DASHED1
 62
    4
 10
117.69177362165015
 20
137.43662924649584
 40
1
 50
136.77146974003412
 51
232.55154579090498
  0
ARC
  8
_1-0_
  6
CONTINUOUS
 62
    7
 10
53.699145075661704
 20
132.31543283694165
 40
5
 50
90
 51
180
  0
LINE
  8
_1-0_
  6
CONTINUOUS
 62
    7
 10
48.699145075661704
 20
132.31543283694165
 11
148.69914507566176
 21
132.31543283694165
  0
ARC
  8
_1-0_
  6
CONTINUOUS
 62
    7
 10
143.6991450756617
 20
132.31543283694165
 40
5
 50
0
 51
90
  0
LINE
  8
_1-0_
  6
CONTINUOUS
 62
    4
 10
48.699145075661704
 20
170.45599124818625
 11
148.69914507566176
 21
170.45599124818625
  0
LINE
  8
_1-0_
  6
CONTINUOUS
 62
    7
 10
48.699145075661704
 20
170.45599124818625
 11
51.596922554528873
 21
171.23244838349384
  0
LINE
  8
_1-0_
  6
CONTINUOUS
 62
    7
 10
48.699145075661704
 20
170.45599124818625
 11
51.596922554528873
 21
169.67953411287871
  0
LINE
  8
_1-0_
  6
CONTINUOUS
 62
    7
 10
148.69914507566176
 20
170.45599124818625
 11
145.80136759679453
 21
169.67953411287871
  0
LINE
  8
_1-0_
  6
CONTINUOUS
 62
    7
 10
148.69914507566176
 20
170.45599124818625
 11
145.80136759679453
 21
171.23244838349384
  0
LINE
  8
_1-0_
  6
CONTINUOUS
 62
    4
 10
75.999145075661601
 20
156.18113871699009
 11
121.39914507566169
 21
156.18113871699009
  0
LINE
  8
_1-0_
  6
CONTINUOUS
 62
    7
 10
75.999145075661601
 20
156.18113871699009
 11
78.896922554528885
 21
156.9575958522976
  0
LINE
  8
_1-0_
  6
CONTINUOUS
 62
    7
 10
75.999145075661601
 20
156.18113871699009
 11
78.896922554528885
 21
155.40468158168246
  0
LINE
  8
_1-0_
  6
CONTINUOUS
 62
    7
 10
121.39914507566169
 20
156.18113871699009
 11
118.5013675967944
 21
155.40468158168246
  0
LINE
  8
_1-0_
  6
CONTINUOUS
 62
    7
 10
121.39914507566169
 20
156.18113871699009
 11
118.5013675967944
 21
156.9575958522976
  0
LINE
  8
_1-0_
  6
CONTINUOUS
 62
    4
 10
75.999145075661601
 20
156.18113871699009
 11
75.999145075661601
 21
146.57563047169915
  0
LINE
  8
_1-0_
  6
CONTINUOUS
 62
    4
 10
121.39914507566169
 20
156.18113871699009
 11
121.39914507566169
 21
146.57563047169915
  0
LINE
  8
_1-0_
  6
CONTINUOUS
 62
    4
 10
34.013259097151944
 20
132.31543283694165
 11
34.013259097151944
 21
142.31543283694165
  0
LINE
  8
_1-0_
  6
CONTINUOUS
 62
    7
 10
34.013259097151944
 20
132.31543283694165
 11
33.236801961844321
 21
135.21321031580885
  0
LINE
  8
_1-0_
  6
CONTINUOUS
 62
    7
 10
34.013259097151944
 20
132.31543283694165
 11
34.789716232459397
 21
135.21321031580885
  0
LINE
  8
_1-0_
  6
CONTINUOUS
 62
    7
 10
34.013259097151944
 20
142.31543283694165
 11
34.789716232459397
 21
139.41765535807439
  0
LINE
  8
_1-0_
  6
CONTINUOUS
 62
    7
 10
34.013259097151944
 20
142.31543283694165
 11
33.236801961844321
 21
139.41765535807439
  0
LINE
  8
_1-0_
  6
CONTINUOUS
 62
    4
 10
34.013259097151944
 20
132.31543283694165
 11
44.284604891431968
 21
132.31543283694165
  0
LINE
  8
_1-0_
  6
CONTINUOUS
 62
    4
 10
34.013259097151944
 20
142.31543283694165
 11
65.424467747101118
 21
142.31543283694165
  0
LINE
  8
_1-0_
  6
CONTINUOUS
 62
    4
 10
48.699145075661704
 20
170.45599124818625
 11
48.699145075661704
 21
140.21779469292437
  0
LINE
  8
_1-0_
  6
CONTINUOUS
 62
    4
 10
148.69914507566176
 20
170.45599124818625
 11
148.69914507566176
 21
140.21779469292437
  0
TEXT
  8
_1-0_
 62
    7
 10
33.013259097151944
 20
134.81543283694165
 40
5
 41
1
 50
90
  1
10
  0
LINE
  8
_1-0_
  6
CONTINUOUS
 62
    4
 10
48.699142241828553
 20
170.45599124818625
 11
148.69914224182855
 21
170.45599124818625
  0
TEXT
  8
_1-0_
 62
    7
 10
92.449142241828553
 20
171.45599124818625
 40
5
 41
1
 50
0
  1
φ100
  0
LINE
  8
_1-0_
  6
CONTINUOUS
 62
    7
 10
48.699142241828553
 20
170.45599124818625
 11
51.596919720695723
 21
171.23244838349384
  0
LINE
  8
_1-0_
  6
CONTINUOUS
 62
    7
 10
48.699142241828553
 20
170.45599124818625
 11
51.596919720695723
 21
169.67953411287871
  0
LINE
  8
_1-0_
  6
CONTINUOUS
 62
    7
 10
148.69914224182855
 20
170.45599124818625
 11
145.80136476296138
 21
169.67953411287871
  0
LINE
  8
_1-0_
  6
CONTINUOUS
 62
    7
 10
148.69914224182855
 20
170.45599124818625
 11
145.80136476296138
 21
171.23244838349384
  0
LINE
  8
_1-0_
  6
CONTINUOUS
 62
    4
 10
48.699142241828553
 20
140.21779469292437
 11
48.699142241828553
 21
170.45599124818625
  0
LINE
  8
_1-0_
  6
CONTINUOUS
 62
    4
 10
148.69914224182855
 20
140.21779469292437
 11
148.69914224182855
 21
170.45599124818625
  0
LINE
  8
_1-0_
  6
CONTINUOUS
 62
    4
 10
121.39914681946527
 20
156.18113871699009
 11
75.999145293586366
 21
156.18113871699009
  0
TEXT
  8
_1-0_
 62
    7
 10
91.199146056525819
 20
157.18113871699009
 40
5
 41
1
 50
0
  1
φ45.4
  0
LINE
  8
_1-0_
  6
CONTINUOUS
 62
    7
 10
121.39914681946527
 20
156.18113871699009
 11
118.5013693405981
 21
155.40468158168246
  0
LINE
  8
_1-0_
  6
CONTINUOUS
 62
    7
 10
121.39914681946527
 20
156.18113871699009
 11
118.5013693405981
 21
156.9575958522976
  0
LINE
  8
_1-0_
  6
CONTINUOUS
 62
    7
 10
75.999145293586366
 20
156.18113871699009
 11
78.896922772453535
 21
156.9575958522976
  0
LINE
  8
_1-0_
  6
CONTINUOUS
 62
    7
 10
75.999145293586366
 20
156.18113871699009
 11
78.896922772453535
 21
155.40468158168246
  0
LINE
  8
_1-0_
  6
CONTINUOUS
 62
    4
 10
121.39914681946527
 20
146.57563047169915
 11
121.39914681946527
 21
156.18113871699009
  0
LINE
  8
_1-0_
  6
CONTINUOUS
 62
    4
 10
75.999145293586366
 20
146.57563047169915
 11
75.999145293586366
 21
156.18113871699009
  0
TEXT
  8
_1-0_
 62
    7
 10
70.699145075661704
 20
109.15641716079835
 40
4
 41
1
 50
0
  1
Mimi用マウンティングディスク
  0
LINE
  8
_1-0_
  6
CENTER1
 62
    4
 10
98.699145075661704
 20
147.83595381417526
 11
98.699145075661704
 21
117.33060308281437
  0
LINE
  8
_1-0_
  6
CONTINUOUS
 62
    7
 10
66.199145075661704
 20
114.65641716079835
 11
66.199145075661704
 21
107.65641716079835
  0
LINE
  8
_1-0_
  6
CONTINUOUS
 62
    7
 10
66.199145075661704
 20
107.65641716079835
 11
131.1991450756617
 21
107.65641716079835
  0
LINE
  8
_1-0_
  6
CONTINUOUS
 62
    7
 10
131.1991450756617
 20
107.65641716079835
 11
131.1991450756617
 21
114.65641716079835
  0
LINE
  8
_1-0_
  6
CONTINUOUS
 62
    7
 10
131.1991450756617
 20
114.65641716079835
 11
66.199145075661704
 21
114.65641716079835
  0
TEXT
  8
_1-0_
 62
    7
 10
133.1991450756617
 20
109.15641716079835
 40
4
 41
1
 50
0
  1
S=1/2
  0
LINE
  8
_1-0_
  6
CONTINUOUS
 62
    7
 10
212.63940453450285
 20
114.65641716079835
 11
212.63940453450285
 21
107.65641716079835
  0
LINE
  8
_1-0_
  6
CONTINUOUS
 62
    7
 10
287.63940453450277
 20
107.65641716079835
 11
287.63940453450277
 21
114.65641716079835
  0
LINE
  8
_1-0_
  6
CONTINUOUS
 62
    7
 10
212.63940453450285
 20
107.65641716079835
 11
287.63940453450277
 21
107.65641716079835
  0
TEXT
  8
_1-0_
 62
    7
 10
214.13940453450285
 20
109.15641716079835
 40
4
 41
1
 50
0
  1
排水口パイプ止め板（バックプレート）
  0
LINE
  8
_1-0_
  6
CENTER1
 62
    4
 10
250.13940453450285
 20
298.68085316632902
 11
250.13940453450285
 21
117.33060308281437
  0
TEXT
  8
_1-0_
 62
    7
 10
289.63940453450277
 20
109.15641716079835
 40
4
 41
1
 50
0
  1
S=1/2
  0
CIRCLE
  8
_1-0_
  6
CONTINUOUS
 62
    7
 10
250.13940453450285
 20
238.37346696808236
 40
16.5
  0
LINE
  8
_1-0_
  6
CONTINUOUS
 62
    7
 10
290.13940453450277
 20
275.87346696808231
 11
290.13940453450277
 21
200.87346696808231
  0
LINE
  8
_1-0_
  6
CONTINUOUS
 62
    7
 10
210.13940453450285
 20
275.87346696808231
 11
210.13940453450285
 21
200.87346696808231
  0
LINE
  8
_1-0_
  6
CONTINUOUS
 62
    7
 10
212.63940453450285
 20
278.37346696808231
 11
287.63940453450277
 21
278.37346696808231
  0
LINE
  8
_1-0_
  6
CONTINUOUS
 62
    7
 10
212.63940453450285
 20
198.37346696808231
 11
287.63940453450277
 21
198.37346696808231
  0
ARC
  8
_1-0_
  6
CONTINUOUS
 62
    7
 10
287.63940453450277
 20
200.87346696808231
 40
2.5
 50
270
 51
0
  0
ARC
  8
_1-0_
  6
CONTINUOUS
 62
    7
 10
287.63940453450277
 20
275.87346696808231
 40
2.5
 50
0
 51
90
  0
ARC
  8
_1-0_
  6
CONTINUOUS
 62
    7
 10
212.63940453450285
 20
275.87346696808231
 40
2.5
 50
90
 51
180
  0
ARC
  8
_1-0_
  6
CONTINUOUS
 62
    7
 10
212.63940453450285
 20
200.87346696808231
 40
2.5
 50
180
 51
270
  0
LINE
  8
_1-0_
  6
CONTINUOUS
 62
    4
 10
238.47214264492481
 20
226.70620507850424
 11
267.64029736886982
 21
255.87435980244936
  0
LINE
  8
_1-0_
  6
CONTINUOUS
 62
    7
 10
238.47214264492481
 20
226.70620507850424
 11
239.97214264492481
 21
229.30428128985758
  0
LINE
  8
_1-0_
  6
CONTINUOUS
 62
    7
 10
238.47214264492481
 20
226.70620507850424
 11
241.07021885627807
 21
228.20620507850424
  0
LINE
  8
_1-0_
  6
CONTINUOUS
 62
    7
 10
261.80666642408084
 20
250.04072885766035
 11
260.30666642408084
 21
247.44265264630703
  0
LINE
  8
_1-0_
  6
CONTINUOUS
 62
    7
 10
261.80666642408084
 20
250.04072885766035
 11
259.20859021272758
 21
248.54072885766035
  0
LINE
  8
_1-0_
  6
CONTINUOUS
 62
    4
 10
210.13940453450285
 20
300.7808163901933
 11
290.13940453450277
 21
300.7808163901933
  0
LINE
  8
_1-0_
  6
CONTINUOUS
 62
    7
 10
210.13940453450285
 20
300.7808163901933
 11
213.03718201337005
 21
301.55727352550081
  0
LINE
  8
_1-0_
  6
CONTINUOUS
 62
    7
 10
210.13940453450285
 20
300.7808163901933
 11
213.03718201337005
 21
300.00435925488568
  0
LINE
  8
_1-0_
  6
CONTINUOUS
 62
    7
 10
290.13940453450277
 20
300.7808163901933
 11
287.2416270556356
 21
300.00435925488568
  0
LINE
  8
_1-0_
  6
CONTINUOUS
 62
    7
 10
290.13940453450277
 20
300.7808163901933
 11
287.2416270556356
 21
301.55727352550081
  0
LINE
  8
_1-0_
  6
CONTINUOUS
 62
    4
 10
210.13940453450285
 20
300.7808163901933
 11
210.13940453450285
 21
282.56551429776152
  0
LINE
  8
_1-0_
  6
CONTINUOUS
 62
    4
 10
290.13940453450277
 20
300.7808163901933
 11
290.13940453450277
 21
282.56551429776152
  0
TEXT
  8
_1-0_
 62
    7
 10
247.63940453450285
 20
301.7808163901933
 40
5.0000000000000008
 41
0.9999999999999996
 50
0
  1
80
  0
TEXT
  8
_1-0_
 62
    7
 10
260.41300167568198
 20
250.7518914899073
 40
5.0000000000000053
 41
0.9999999999999976
 50
45.000000000000376
  1
φ33
  0
LINE
  8
_1-0_
  6
CONTINUOUS
 62
    7
 10
210.13940453450285
 20
142.31543283694165
 11
210.13940453450285
 21
139.31543283694165
  0
LINE
  8
_1-0_
  6
CONTINUOUS
 62
    7
 10
210.13940453450285
 20
142.31543283694165
 11
290.13940453450277
 21
142.31543283694165
  0
LINE
  8
_1-0_
  6
CONTINUOUS
 62
    7
 10
290.13940453450277
 20
142.31543283694165
 11
290.13940453450277
 21
139.31543283694165
  0
LINE
  8
_1-0_
  6
CONTINUOUS
 62
    7
 10
210.13940453450285
 20
139.31543283694165
 11
290.13940453450277
 21
139.31543283694165
  0
LINE
  8
_1-0_
  6
DASHED1
 62
    4
 10
233.63940453450285
 20
142.31543283694165
 11
233.63940453450285
 21
139.31543283694165
  0
LINE
  8
_1-0_
  6
DASHED1
 62
    4
 10
266.63940453450288
 20
142.31543283694165
 11
266.63940453450288
 21
139.31543283694165
  0
LINE
  8
_1-0_
  6
CONTINUOUS
 62
    4
 10
193.83848779931221
 20
147.31543283694165
 11
193.83848779931221
 21
134.31543283694165
  0
LINE
  8
_1-0_
  6
CONTINUOUS
 62
    7
 10
193.83848779931221
 20
139.31543283694165
 11
194.61494493461975
 21
136.41765535807448
  0
LINE
  8
_1-0_
  6
CONTINUOUS
 62
    7
 10
193.83848779931221
 20
139.31543283694165
 11
193.06203066400462
 21
136.41765535807448
  0
LINE
  8
_1-0_
  6
CONTINUOUS
 62
    7
 10
193.83848779931221
 20
142.31543283694165
 11
193.06203066400462
 21
145.21321031580893
  0
LINE
  8
_1-0_
  6
CONTINUOUS
 62
    7
 10
193.83848779931221
 20
142.31543283694165
 11
194.61494493461975
 21
145.21321031580893
  0
LINE
  8
_1-0_
  6
CONTINUOUS
 62
    4
 10
193.83848779931221
 20
139.31543283694165
 11
206.73084865541727
 21
139.31543283694165
  0
LINE
  8
_1-0_
  6
CONTINUOUS
 62
    4
 10
193.83848779931221
 20
142.31543283694165
 11
206.73084865541727
 21
142.31543283694165
  0
TEXT
  8
_1-0_
 62
    7
 10
192.83848779931221
 20
139.56543283694165
 40
5
 41
1
 50
90
  1
3
  0
LINE
  8
_1-0_
  6
CENTER1
 62
    4
 10
352.64869522263899
 20
239.3317748539022
 11
455.91493069632196
 21
239.3317748539022
  0
LINE
  8
_1-0_
  6
CONTINUOUS
 62
    4
 10
325.33078785243372
 20
278.37346696808231
 11
325.33078785243372
 21
198.37346696808231
  0
LINE
  8
_1-0_
  6
CONTINUOUS
 62
    7
 10
325.33078785243372
 20
278.37346696808231
 11
326.10724498774123
 21
275.47568948921514
  0
LINE
  8
_1-0_
  6
CONTINUOUS
 62
    7
 10
325.33078785243372
 20
278.37346696808231
 11
324.5543307171261
 21
275.47568948921514
  0
LINE
  8
_1-0_
  6
CONTINUOUS
 62
    7
 10
325.33078785243372
 20
198.37346696808231
 11
324.5543307171261
 21
201.27124444694948
  0
LINE
  8
_1-0_
  6
CONTINUOUS
 62
    7
 10
325.33078785243372
 20
198.37346696808231
 11
326.10724498774123
 21
201.27124444694948
  0
LINE
  8
_1-0_
  6
CONTINUOUS
 62
    4
 10
325.33078785243372
 20
278.37346696808231
 11
309.07183895703315
 21
278.37346696808231
  0
LINE
  8
_1-0_
  6
CONTINUOUS
 62
    4
 10
325.33078785243372
 20
198.37346696808231
 11
309.07183895703315
 21
198.37346696808231
  0
TEXT
  8
_1-0_
 62
    7
 10
324.33078785243372
 20
235.87346696808236
 40
5
 41
1
 50
90
  1
80
  0
LINE
  8
_1-0_
  6
CENTER1
 62
    4
 10
399.51614983227477
 20
281.16659543353296
 11
399.51614983227477
 21
135.23266710473853
  0
CIRCLE
  8
_1-0_
  6
CONTINUOUS
 62
    7
 10
399.51614983227477
 20
238.37346696808236
 40
27
  0
LINE
  8
_1-0_
  6
CENTER1
 62
    4
 10
188.89813054312526
 20
238.37346696808236
 11
308.46902275320957
 21
238.37346696808236
  0
LINE
  8
_1-0_
  6
CENTER1
 62
    4
 10
26.326105403660221
 20
238.37346696808236
 11
163.6523041136179
 21
238.37346696808236
  0
LINE
  8
_1-0_
  6
CONTINUOUS
 62
    4
 10
426.51615061259889
 20
300.7808163901933
 11
372.51615061259894
 21
300.7808163901933
  0
LINE
  8
_1-0_
  6
CONTINUOUS
 62
    7
 10
426.51615061259889
 20
300.7808163901933
 11
423.61837313373172
 21
300.00435925488568
  0
LINE
  8
_1-0_
  6
CONTINUOUS
 62
    7
 10
426.51615061259889
 20
300.7808163901933
 11
423.61837313373172
 21
301.55727352550081
  0
LINE
  8
_1-0_
  6
CONTINUOUS
 62
    7
 10
372.51615061259894
 20
300.7808163901933
 11
375.41392809146617
 21
301.55727352550081
  0
LINE
  8
_1-0_
  6
CONTINUOUS
 62
    7
 10
372.51615061259894
 20
300.7808163901933
 11
375.41392809146617
 21
300.00435925488568
  0
LINE
  8
_1-0_
  6
CONTINUOUS
 62
    4
 10
372.51615061259894
 20
261.27860340784786
 11
372.51615061259894
 21
300.7808163901933
  0
LINE
  8
_1-0_
  6
CONTINUOUS
 62
    4
 10
426.51615061259889
 20
261.27860340784786
 11
426.51615061259889
 21
300.7808163901933
  0
TEXT
  8
_1-0_
 62
    7
 10
394.51615061259894
 20
301.7808163901933
 40
5.0000000000000008
 41
0.9999999999999996
 50
0
  1
φ54
  0
LINE
  8
_1-0_
  6
CONTINUOUS
 62
    7
 10
382.51614983227477
 20
178.28433513355298
 11
394.01614983227477
 21
178.28433513355298
  0
LINE
  8
_1-0_
  6
CONTINUOUS
 62
    7
 10
382.51614983227477
 20
168.28433513355301
 11
394.01614983227477
 21
168.28433513355301
  0
LINE
  8
_1-0_
  6
CONTINUOUS
 62
    7
 10
394.01614983227477
 20
178.28433513355298
 11
394.01614983227477
 21
168.28433513355301
  0
LINE
  8
_1-0_
  6
CONTINUOUS
 62
    7
 10
405.01614983227477
 20
178.28433513355298
 11
416.51614983227483
 21
178.28433513355298
  0
LINE
  8
_1-0_
  6
CONTINUOUS
 62
    7
 10
405.01614983227477
 20
178.28433513355298
 11
405.01614983227477
 21
168.28433513355301
  0
LINE
  8
_1-0_
  6
CONTINUOUS
 62
    7
 10
405.01614983227477
 20
168.28433513355301
 11
416.51614983227483
 21
168.28433513355301
  0
LINE
  8
_1-0_
  6
CONTINUOUS
 62
    7
 10
384.51614983227477
 20
158.78433513355301
 11
414.51614983227483
 21
158.78433513355301
  0
LINE
  8
_1-0_
  6
CONTINUOUS
 62
    7
 10
382.51614983227477
 20
178.28433513355298
 11
382.51614983227477
 21
168.28433513355301
  0
LINE
  8
_1-0_
  6
CONTINUOUS
 62
    7
 10
416.51614983227483
 20
178.28433513355298
 11
416.51614983227483
 21
168.28433513355301
  0
LINE
  8
_1-0_
  6
CONTINUOUS
 62
    7
 10
372.51614983227477
 20
178.28433513355298
 11
426.51614983227483
 21
178.28433513355298
  0
LINE
  8
_1-0_
  6
CONTINUOUS
 62
    7
 10
372.51614983227477
 20
180.28433513355298
 11
426.51614983227483
 21
180.28433513355298
  0
LINE
  8
_1-0_
  6
CONTINUOUS
 62
    7
 10
382.51614983227477
 20
168.28433513355301
 11
394.01614983227477
 21
168.28433513355301
  0
LINE
  8
_1-0_
  6
CONTINUOUS
 62
    7
 10
405.01614983227477
 20
168.28433513355301
 11
416.51614983227483
 21
168.28433513355301
  0
LINE
  8
_1-0_
  6
CONTINUOUS
 62
    7
 10
384.26614983227477
 20
158.78433513355301
 11
414.76614983227483
 21
158.78433513355301
  0
LINE
  8
_1-0_
  6
CONTINUOUS
 62
    7
 10
382.51614983227477
 20
168.28433513355301
 11
384.26614983227477
 21
158.78433513355301
  0
LINE
  8
_1-0_
  6
CONTINUOUS
 62
    7
 10
416.51614983227483
 20
168.28433513355301
 11
414.76614983227483
 21
158.78433513355301
  0
LINE
  8
_1-0_
  6
CONTINUOUS
 62
    4
 10
384.26614983227477
 20
140.16893403675689
 11
414.76614983227483
 21
140.16893403675689
  0
LINE
  8
_1-0_
  6
CONTINUOUS
 62
    7
 10
384.26614983227477
 20
140.16893403675689
 11
387.163927311142
 21
140.9453911720644
  0
LINE
  8
_1-0_
  6
CONTINUOUS
 62
    7
 10
384.26614983227477
 20
140.16893403675689
 11
387.163927311142
 21
139.39247690144929
  0
LINE
  8
_1-0_
  6
CONTINUOUS
 62
    7
 10
414.76614983227483
 20
140.16893403675689
 11
411.86837235340755
 21
139.39247690144929
  0
LINE
  8
_1-0_
  6
CONTINUOUS
 62
    7
 10
414.76614983227483
 20
140.16893403675689
 11
411.86837235340755
 21
140.9453911720644
  0
LINE
  8
_1-0_
  6
CONTINUOUS
 62
    4
 10
382.51614983227477
 20
127.18782593984178
 11
416.51614983227483
 21
127.18782593984178
  0
LINE
  8
_1-0_
  6
CONTINUOUS
 62
    7
 10
382.51614983227477
 20
127.18782593984178
 11
385.413927311142
 21
127.96428307514938
  0
LINE
  8
_1-0_
  6
CONTINUOUS
 62
    7
 10
382.51614983227477
 20
127.18782593984178
 11
385.413927311142
 21
126.41136880453422
  0
LINE
  8
_1-0_
  6
CONTINUOUS
 62
    7
 10
416.51614983227483
 20
127.18782593984178
 11
413.61837235340755
 21
126.41136880453422
  0
LINE
  8
_1-0_
  6
CONTINUOUS
 62
    7
 10
416.51614983227483
 20
127.18782593984178
 11
413.61837235340755
 21
127.96428307514938
  0
LINE
  8
_1-0_
  6
CONTINUOUS
 62
    4
 10
382.51614983227477
 20
127.18782593984178
 11
382.51614983227477
 21
165.00553955296518
  0
LINE
  8
_1-0_
  6
CONTINUOUS
 62
    4
 10
416.51614983227483
 20
127.18782593984178
 11
416.51614983227483
 21
165.00553955296518
  0
LINE
  8
_1-0_
  6
CONTINUOUS
 62
    4
 10
384.26614983227477
 20
140.16893403675689
 11
384.26614983227477
 21
156.64921947964316
  0
LINE
  8
_1-0_
  6
CONTINUOUS
 62
    4
 10
414.76614983227483
 20
140.16893403675689
 11
414.76614983227483
 21
156.64921947964316
  0
LINE
  8
_1-0_
  6
CONTINUOUS
 62
    7
 10
372.51614983227477
 20
180.56678030862107
 11
372.51614983227477
 21
178.28433513355298
  0
ARC
  8
_1-0_
  6
CONTINUOUS
 62
    7
 10
373.51614983227477
 20
180.56678030862107
 40
1
 50
108.42780160788487
 51
180
  0
LINE
  8
_1-0_
  6
CONTINUOUS
 62
    7
 10
426.51614983227483
 20
180.56678030862107
 11
426.51614983227483
 21
178.28433513355298
  0
ARC
  8
_1-0_
  6
CONTINUOUS
 62
    7
 10
399.51614983227477
 20
102.53433513355307
 40
83.25
 50
71.572198392114117
 51
108.42780160788588
  0
ARC
  8
_1-0_
  6
CONTINUOUS
 62
    7
 10
425.51614983227483
 20
180.56678030862107
 40
1
 50
0
 51
71.572198392115112
  0
LINE
  8
_1-0_
  6
CONTINUOUS
 62
    4
 10
372.81964780556069
 20
181.28433513355298
 11
426.21265185898892
 21
181.28433513355298
  0
TEXT
  8
_1-0_
 62
    7
 10
394.51614983227477
 20
141.16893403675689
 40
5
 41
1
 50
0
  1
30.5
  0
TEXT
  8
_1-0_
 62
    7
 10
397.01614983227477
 20
128.18782593984178
 40
5
 41
1
 50
0
  1
34
  0
LINE
  8
_1-0_
  6
CONTINUOUS
 62
    7
 10
287.63940453450277
 20
114.65641716079835
 11
212.63940453450285
 21
114.65641716079835
  0
LINE
  8
_1-0_
  6
CONTINUOUS
 62
    7
 10
364.01614983227477
 20
114.65641716079835
 11
364.01614983227477
 21
107.65641716079835
  0
LINE
  8
_1-0_
  6
CONTINUOUS
 62
    7
 10
364.01614983227477
 20
107.65641716079835
 11
435.01614983227483
 21
107.65641716079835
  0
LINE
  8
_1-0_
  6
CONTINUOUS
 62
    7
 10
435.01614983227483
 20
107.65641716079835
 11
435.01614983227483
 21
114.65641716079835
  0
LINE
  8
_1-0_
  6
CONTINUOUS
 62
    7
 10
435.01614983227483
 20
114.65641716079835
 11
364.01614983227477
 21
114.65641716079835
  0
TEXT
  8
_1-0_
 62
    7
 10
437.01614983227483
 20
109.15641716079835
 40
4
 41
1
 50
0
  1
S=1/2
  0
LINE
  8
_1-0_
  6
CONTINUOUS
 62
    4
 10
353.50076075382207
 20
185.78433513355307
 11
353.50076075382207
 21
158.78433513355301
  0
LINE
  8
_1-0_
  6
CONTINUOUS
 62
    4
 10
353.50076075382207
 20
185.78433513355307
 11
369.67442373073674
 21
185.78433513355307
  0
LINE
  8
_1-0_
  6
CONTINUOUS
 62
    4
 10
353.50076075382207
 20
158.78433513355301
 11
369.67442373073674
 21
158.78433513355301
  0
TEXT
  8
_1-0_
 62
    7
 10
352.00076075382207
 20
169.03433513355298
 40
5
 41
1
 50
90
  1
27
  0
LINE
  8
_1-0_
  6
CONTINUOUS
 62
    7
 10
353.50076075382207
 20
185.78433513355307
 11
352.72430361851451
 21
182.88655765468581
  0
LINE
  8
_1-0_
  6
CONTINUOUS
 62
    7
 10
353.50076075382207
 20
185.78433513355307
 11
354.27721788912964
 21
182.88655765468581
  0
LINE
  8
_1-0_
  6
CONTINUOUS
 62
    7
 10
353.50076075382207
 20
158.78433513355301
 11
354.27721788912964
 21
161.68211261242024
  0
LINE
  8
_1-0_
  6
CONTINUOUS
 62
    7
 10
353.50076075382207
 20
158.78433513355301
 11
352.72430361851451
 21
161.68211261242024
  0
TEXT
  8
_1-0_
 62
    7
 10
366.51614983227477
 20
109.15641716079835
 40
4
 41
1
 50
0
  1
化粧キャップ ラウンド型（クロム）
  0
ENDSEC
  0
EOF
