  0
SECTION
  2
HEADER
  9
$ACADVER
  1
AC1009
  9
$INSBASE
 10
0
 20
0
 30
0
  9
$EXTMIN
 10
0
 20
0
  9
$EXTMAX
 10
841
 20
594
  9
$LIMMIN
 10
0
 20
0
  9
$LIMMAX
 10
841
 20
594
  9
$LTSCALE
 40
1
  0
ENDSEC
  0
SECTION
  2
TABLES
  0
TABLE
  2
LTYPE
 70
     9
  0
LTYPE
  2
CONTINUOUS
 70
    64
  3
実線
 72
    65
 73
     0
 40
0.0
  0
LTYPE
  2
DASHED1
 70
    64
  3
--  --  --  --  --  --  --  --  
 72
    65
 73
     2
 40
2.5
 49
1.25
 49
-1.25
  0
LTYPE
  2
DASHED2
 70
    64
  3
----    ----    ----    ----    
 72
    65
 73
     2
 40
5.0
 49
2.5
 49
-2.5
  0
LTYPE
  2
DASHED3
 70
    64
  3
------  ------  ------  ------  
 72
    65
 73
     2
 40
5.0
 49
3.75
 49
-1.25
  0
LTYPE
  2
CENTER1
 70
    64
  3
----- - ----- - ----- - ----- - 
 72
    65
 73
     4
 40
10.0
 49
6.25
 49
-1.25
 49
1.25
 49
-1.25
  0
LTYPE
  2
CENTER2
 70
    64
  3
----------  --  ----------  --  
 72
    65
 73
     4
 40
20.0
 49
12.5
 49
-2.5
 49
2.5
 49
-2.5
  0
LTYPE
  2
PHANTOM1
 70
    64
  3
--- - - --- - - --- - - --- - - 
 72
    65
 73
     6
 40
10.0
 49
3.25
 49
-1.25
 49
1.25
 49
-1.25
 49
1.25
 49
-1.25
  0
LTYPE
  2
PHANTOM2
 70
    64
  3
--------  -  -  --------  -  -  
 72
    65
 73
     6
 40
20.0
 49
10.0
 49
-2.5
 49
1.25
 49
-2.5
 49
1.25
 49
-2.5
  0
LTYPE
  2
DOT
 70
    64
  3
-   -   -   -   -   -   -   -   
 72
    65
 73
     2
 40
2.5
 49
0.625
 49
-1.875
  0
LTYPE
  2
DUMMY
 70
    64
  3
ダミー
 72
    65
 73
     0
 40
0.0
  0
LTYPE
  2
RAND1
 70
    64
  3
ランダム線1
 72
    65
 73
     4
 40
10.0
 49
1.0
 49
-2.0
 49
3.0
 49
-4.0
  0
LTYPE
  2
RAND2
 70
    64
  3
ランダム線2
 72
    65
 73
     4
 40
14.0
 49
2.0
 49
-3.0
 49
4.0
 49
-5.0
  0
LTYPE
  2
RAND3
 70
    64
  3
ランダム線3
 72
    65
 73
     4
 40
18.0
 49
3.0
 49
-4.0
 49
5.0
 49
-6.0
  0
LTYPE
  2
RAND4
 70
    64
  3
ランダム線4
 72
    65
 73
     4
 40
22.0
 49
4.0
 49
-5.0
 49
6.0
 49
-7.0
  0
LTYPE
  2
RAND5
 70
    64
  3
ランダム線5
 72
    65
 73
     4
 40
26.0
 49
5.0
 49
-6.0
 49
7.0
 49
-8.0
  0
LTYPE
  2
LONG1
 70
    64
  3
----------  --  ----------  --  
 72
    65
 73
     4
 40
40.0
 49
32.5
 49
-2.5
 49
2.5
 49
-2.5
  0
LTYPE
  2
LONG2
 70
    64
  3
--------  -  -  --------  -  -  
 72
    65
 73
     6
 40
40.0
 49
30.0
 49
-2.5
 49
1.25
 49
-2.5
 49
1.25
 49
-2.5
  0
LTYPE
  2
LONG3
 70
    64
  3
+++++++++++++++..+++++++++++++++
 72
    65
 73
     2
 40
40.0
 49
37.5
 49
-2.5
  0
LTYPE
  2
LONG4
 70
    64
  3
+++++++++++++++..+++++++++++++++
 72
    65
 73
     2
 40
80.0
 49
75.0
 49
-5.0
  0
LTYPE
  2
LONG5
 70
    64
  3
----------  --  ----------  --  
 72
    65
 73
     4
 40
60.0
 49
37.5
 49
-7.5
 49
7.5
 49
-7.5
  0
LTYPE
  2
dashed
 70
   64
  3
-------   -------------   ------
 72
   65
 73
    2
 40
7.5
 49
6
 49
-1.5
  0
LTYPE
  2
dashed_spaced
 70
   64
  3
----        --------        ----
 72
   65
 73
    2
 40
12
 49
6
 49
-6
  0
LTYPE
  2
long_dashed_dotted
 70
   64
  3
------------- --- --------------
 72
   65
 73
    4
 40
15.25
 49
12
 49
-1.5
 49
0.25
 49
-1.5
  0
LTYPE
  2
long_dashed_double-dotted
 70
   64
  3
----------- --- --- ------------
 72
   65
 73
    6
 40
17
 49
12
 49
-1.5
 49
0.25
 49
-1.5
 49
0.25
 49
-1.5
  0
LTYPE
  2
long_dashed_triplicate-dotted
 70
   64
  3
--------- --- --- --- ----------
 72
   65
 73
    8
 40
18.75
 49
12
 49
-1.5
 49
0.25
 49
-1.5
 49
0.25
 49
-1.5
 49
0.25
 49
-1.5
  0
LTYPE
  2
dotted
 70
   64
  3
   -       -       -       -    
 72
   65
 73
    2
 40
1.75
 49
0.25
 49
-1.5
  0
LTYPE
  2
chain
 70
   64
  3
-------------- -- --------------
 72
   65
 73
    4
 40
18.5
 49
12
 49
-1.5
 49
3.5
 49
-1.5
  0
LTYPE
  2
chain_double_dash
 70
   64
  3
------------ -- -- -------------
 72
   65
 73
    6
 40
23.5
 49
12
 49
-1.5
 49
3.5
 49
-1.5
 49
3.5
 49
-1.5
  0
LTYPE
  2
dashed_dotted
 70
   64
  3
-----------     -     ----------
 72
   65
 73
    4
 40
9.25
 49
6
 49
-1.5
 49
0.25
 49
-1.5
  0
LTYPE
  2
double-dashed_dotted
 70
   64
  3
------   -----------   -   -----
 72
   65
 73
    6
 40
16.75
 49
6
 49
-1.5
 49
6
 49
-1.5
 49
0.25
 49
-1.5
  0
LTYPE
  2
dashed_double-dotted
 70
   64
  3
---------    -    -    ---------
 72
   65
 73
    6
 40
11
 49
6
 49
-1.5
 49
0.25
 49
-1.5
 49
0.25
 49
-1.5
  0
LTYPE
  2
double-dashed_double-dotted
 70
   64
  3
-----   ---------   -   -   ----
 72
   65
 73
    8
 40
18.5
 49
6
 49
-1.5
 49
6
 49
-1.5
 49
0.25
 49
-1.5
 49
0.25
 49
-1.5
  0
LTYPE
  2
dashed_triplicate-dotted
 70
   64
  3
-------    -    -    -    ------
 72
   65
 73
    8
 40
12.75
 49
6
 49
-1.5
 49
0.25
 49
-1.5
 49
0.25
 49
-1.5
 49
0.25
 49
-1.5
  0
LTYPE
  2
double-dashed_triplicate-dotted
 70
   64
  3
-----  ---------  -  -  -  -----
 72
   65
 73
   10
 40
20.25
 49
6
 49
-1.5
 49
6
 49
-1.5
 49
0.25
 49
-1.5
 49
0.25
 49
-1.5
 49
0.25
 49
-1.5
  0
LTYPE
  2
undefined
 70
   64
  3
--------------------------------
 72
   65
 73
    0
 40
0
  0
LTYPE
  2
_
 70
   64
  3
                                
 72
   65
 73
    0
 40
0
  0
LTYPE
  2
__18
 70
   64
  3
                                
 72
   65
 73
    0
 40
0
  0
LTYPE
  2
__19
 70
   64
  3
                                
 72
   65
 73
    0
 40
0
  0
LTYPE
  2
__20
 70
   64
  3
                                
 72
   65
 73
    0
 40
0
  0
LTYPE
  2
__21
 70
   64
  3
                                
 72
   65
 73
    0
 40
0
  0
LTYPE
  2
__22
 70
   64
  3
                                
 72
   65
 73
    0
 40
0
  0
LTYPE
  2
__23
 70
   64
  3
                                
 72
   65
 73
    0
 40
0
  0
LTYPE
  2
__24
 70
   64
  3
                                
 72
   65
 73
    0
 40
0
  0
LTYPE
  2
__25
 70
   64
  3
                                
 72
   65
 73
    0
 40
0
  0
LTYPE
  2
__26
 70
   64
  3
                                
 72
   65
 73
    0
 40
0
  0
LTYPE
  2
__27
 70
   64
  3
                                
 72
   65
 73
    0
 40
0
  0
LTYPE
  2
__28
 70
   64
  3
                                
 72
   65
 73
    0
 40
0
  0
LTYPE
  2
__29
 70
   64
  3
                                
 72
   65
 73
    0
 40
0
  0
LTYPE
  2
__30
 70
   64
  3
                                
 72
   65
 73
    0
 40
0
  0
LTYPE
  2
__31
 70
   64
  3
                                
 72
   65
 73
    0
 40
0
  0
LTYPE
  2
__32
 70
   64
  3
                                
 72
   65
 73
    0
 40
0
  0
ENDTAB
  0
TABLE
  2
STYLE
  5
3
100
AcDbSymbolTable
 70
     1
  0
STYLE
  5
10
100
AcDbSymbolTableRecord
100
AcDbTextStyleTableRecord
  2
STANDARD
 70
     0
 40
0.0
 41
1.0
 50
0.0
 71
     0
 42
0.2
  3
txt
  4
bigfont.shx
  0
STYLE
  5
26
100
AcDbSymbolTableRecord
100
AcDbTextStyleTableRecord
  2
TATEGAKI
 70
    68
 40
0.0
 41
1.0
 50
0.0
 71
     0
 42
1.0
  3
txt
  4
bigfont.shx
  0
ENDTAB
  0
TABLE
  2
LAYER
 70
    2
  0
LAYER
  2
_1-0_
 70
   64
 62
    7
  6
CONTINUOUS
  0
LAYER
  2
ADD_LINE
 70
   64
 62
    7
  6
CONTINUOUS
  0
ENDTAB
  0
ENDSEC
  0
SECTION
  2
BLOCKS
  0
BLOCK
  2
-000-_None
 70
   64
 10
0
 20
0
 30
0
  0
ENDBLK
  0
ENDSEC
  0
SECTION
  2
ENTITIES
  0
LINE
  8
_1-0_
  6
CONTINUOUS
 62
    4
 10
88.158885980509751
 20
336.31888392656594
 11
114.55888369169139
 21
336.31888392656594
  0
CIRCLE
  8
_1-0_
  6
CONTINUOUS
 62
    7
 10
101.35888448769333
 20
495.61453256272238
 40
26.850000000000001
  0
CIRCLE
  8
_1-0_
  6
CONTINUOUS
 62
    7
 10
101.35888448769333
 20
495.61453256272238
 40
4.9999999999994999
  0
CIRCLE
  8
_1-0_
  6
CONTINUOUS
 62
    7
 10
95.895189805357858
 20
502.12591032923444
 40
2.5000000000005004
  0
CIRCLE
  8
_1-0_
  6
CONTINUOUS
 62
    7
 10
92.988018587089925
 20
497.09054207289193
 40
2.5000000000005004
  0
CIRCLE
  8
_1-0_
  6
CONTINUOUS
 62
    7
 10
93.997668555525422
 20
491.36453256272289
 40
2.5000000000005004
  0
CIRCLE
  8
_1-0_
  6
CONTINUOUS
 62
    7
 10
98.451713269425397
 20
487.62714528604249
 40
2.5000000000005004
  0
CIRCLE
  8
_1-0_
  6
CONTINUOUS
 62
    7
 10
104.26605570596143
 20
487.62714528604249
 40
2.5000000000005004
  0
CIRCLE
  8
_1-0_
  6
CONTINUOUS
 62
    7
 10
108.72010041986141
 20
491.36453256272289
 40
2.5000000000005004
  0
CIRCLE
  8
_1-0_
  6
CONTINUOUS
 62
    7
 10
109.7297503882969
 20
497.09054207289193
 40
2.5000000000005004
  0
CIRCLE
  8
_1-0_
  6
CONTINUOUS
 62
    7
 10
106.8225791700288
 20
502.12591032923444
 40
2.5000000000005004
  0
CIRCLE
  8
_1-0_
  6
CONTINUOUS
 62
    7
 10
101.35888448769333
 20
504.11453256272295
 40
2.5000000000005004
  0
INSERT
  2
-000-_None
  8
_1-0_
 10
88.891918314028941
 20
488.21015855645589
 41
0.1499999999999999
 42
0.1499999999999999
 50
210.70690126177498
  0
INSERT
  2
-000-_None
  8
_1-0_
 10
106.60991301382682
 20
501.43969279354843
 41
0.1499999999999999
 42
0.1499999999999999
 50
47.967257976598993
  0
INSERT
  2
-000-_None
  8
_1-0_
 10
104.94029247716747
 20
495.13029550872198
 41
0.1499999999999999
 42
0.1499999999999999
 50
135.10664774295298
  0
CIRCLE
  8
_1-0_
  6
CONTINUOUS
 62
    4
 10
101.35888448769333
 20
495.61453256272238
 40
19.133442981194999
  0
CIRCLE
  8
_1-0_
  6
CONTINUOUS
 62
    4
 10
101.35888448769333
 20
495.61453256272238
 40
14.260146210643501
  0
CIRCLE
  8
_1-0_
  6
CONTINUOUS
 62
    4
 10
101.35888448769333
 20
495.61453256272238
 40
12.1000000000005
  0
CIRCLE
  8
_1-0_
  6
CONTINUOUS
 62
    4
 10
101.35888448769333
 20
495.61453256272238
 40
26.237524472827502
  0
LINE
  8
_1-0_
  6
CONTINUOUS
 62
    7
 10
116.00888448769347
 20
434.177322702085
 11
117.25888448769347
 21
433.20971231155567
  0
LINE
  8
_1-0_
  6
CONTINUOUS
 62
    7
 10
117.25888448769347
 20
433.20971231155567
 11
116.00888448769347
 21
432.17663711710326
  0
INSERT
  2
-000-_None
  8
_1-0_
 10
73.532706924877857
 20
458.43144757819436
 41
0.1499999999999999
 42
0.1499999999999999
 50
227.96725797660207
  0
LINE
  8
_1-0_
  6
CONTINUOUS
 62
    7
 10
86.20888448769341
 20
435.10079511730884
 11
85.45888448769341
 21
435.85079511730884
  0
LINE
  8
_1-0_
  6
CONTINUOUS
 62
    7
 10
116.50888448769347
 20
435.10079511730884
 11
117.25888448769347
 21
435.85079511730884
  0
ARC
  8
_1-0_
  6
CONTINUOUS
 62
    7
 10
75.008884487694331
 20
452.36307715897584
 40
0.4999999999995
 50
77.00000000000098
 51
179.99999999998402
  0
ARC
  8
_1-0_
  6
CONTINUOUS
 62
    7
 10
75.008884487694331
 20
452.15781633741681
 40
0.4999999999995
 50
179.99999999998701
 51
256.99999999999698
  0
LINE
  8
_1-0_
  6
CONTINUOUS
 62
    7
 10
74.508884487693421
 20
452.15781633741681
 11
74.508884487693421
 21
452.36307715897584
  0
LINE
  8
_1-0_
  6
CONTINUOUS
 62
    7
 10
74.896408960521398
 20
451.6706313050243
 11
79.774514671005363
 21
450.01441375230535
  0
ARC
  8
_1-0_
  6
CONTINUOUS
 62
    7
 10
78.167035552668437
 20
445.27985876961531
 40
4.9999999999994999
 50
12.250000000000001
 51
71.246589897256001
  0
LINE
  8
_1-0_
  6
CONTINUOUS
 62
    7
 10
75.121360014865842
 20
452.85026219136835
 11
127.59640896052241
 21
452.85026219136835
  0
ARC
  8
_1-0_
  6
CONTINUOUS
 62
    7
 10
127.70888448769397
 20
452.36307715897584
 40
0.4999999999995
 50
0.0000000000160045
 51
102.99999999999697
  0
ARC
  8
_1-0_
  6
CONTINUOUS
 62
    7
 10
127.70888448769397
 20
452.15781633741681
 40
0.4999999999995
 50
283.00000000000397
 51
0.0000000000130148
  0
LINE
  8
_1-0_
  6
CONTINUOUS
 62
    7
 10
128.20888448769341
 20
452.15781633741681
 11
128.20888448769341
 21
452.36307715897584
  0
LINE
  8
_1-0_
  6
CONTINUOUS
 62
    7
 10
127.82136001486543
 20
451.6706313050243
 11
122.94325430438294
 21
450.01441375230535
  0
ARC
  8
_1-0_
  6
CONTINUOUS
 62
    7
 10
124.55073342271992
 20
445.27985876961531
 40
4.9999999999994999
 50
108.75341010274401
 51
167.75000000000005
  0
LINE
  8
_1-0_
  6
CONTINUOUS
 62
    7
 10
85.45888448769341
 20
435.85079511730884
 11
83.053191084981335
 21
446.34074713039728
  0
LINE
  8
_1-0_
  6
CONTINUOUS
 62
    7
 10
117.25888448769347
 20
435.85079511730884
 11
119.66457789040538
 21
446.34074713039728
  0
LINE
  8
_1-0_
  6
CONTINUOUS
 62
    4
 10
79.774514671005363
 20
450.01441375230535
 11
122.94325430438294
 21
450.01441375230535
  0
LINE
  8
_1-0_
  6
CONTINUOUS
 62
    4
 10
74.896408960521398
 20
451.6706313050243
 11
127.82136001486543
 21
451.6706313050243
  0
LINE
  8
_1-0_
  6
CONTINUOUS
 62
    4
 10
117.25888448769347
 20
435.85079511730884
 11
85.45888448769341
 21
435.85079511730884
  0
LINE
  8
_1-0_
  6
CONTINUOUS
 62
    4
 10
85.45888448769341
 20
354.35026219136778
 11
117.25888448769336
 21
355.18297449726793
  0
LINE
  8
_1-0_
  6
CONTINUOUS
 62
    4
 10
85.45888448769341
 20
434.37768559063727
 11
113.0733232142843
 21
435.10079511730884
  0
LINE
  8
_1-0_
  6
CONTINUOUS
 62
    7
 10
85.45888448769341
 20
434.37768559063727
 11
86.70888448769341
 21
433.41007520010782
  0
LINE
  8
_1-0_
  6
CONTINUOUS
 62
    7
 10
86.70888448769341
 20
433.41007520010782
 11
85.45888448769341
 21
432.37700000565547
  0
LINE
  8
_1-0_
  6
CONTINUOUS
 62
    7
 10
85.45888448769341
 20
432.37700000565547
 11
86.70888448769341
 21
431.40938961512608
  0
LINE
  8
_1-0_
  6
CONTINUOUS
 62
    7
 10
86.70888448769341
 20
431.40938961512608
 11
85.45888448769341
 21
430.37631442067379
  0
LINE
  8
_1-0_
  6
CONTINUOUS
 62
    7
 10
85.45888448769341
 20
430.37631442067379
 11
86.70888448769341
 21
429.40870403014446
  0
LINE
  8
_1-0_
  6
CONTINUOUS
 62
    7
 10
86.70888448769341
 20
429.40870403014446
 11
85.45888448769341
 21
428.37562883569205
  0
LINE
  8
_1-0_
  6
CONTINUOUS
 62
    7
 10
85.45888448769341
 20
428.37562883569205
 11
86.70888448769341
 21
427.40801844516272
  0
LINE
  8
_1-0_
  6
CONTINUOUS
 62
    7
 10
86.70888448769341
 20
427.40801844516272
 11
85.45888448769341
 21
426.37494325071043
  0
LINE
  8
_1-0_
  6
CONTINUOUS
 62
    7
 10
85.45888448769341
 20
426.37494325071043
 11
86.70888448769341
 21
425.40733286018098
  0
LINE
  8
_1-0_
  6
CONTINUOUS
 62
    7
 10
86.70888448769341
 20
425.40733286018098
 11
85.45888448769341
 21
424.37425766572857
  0
LINE
  8
_1-0_
  6
CONTINUOUS
 62
    7
 10
85.45888448769341
 20
424.37425766572857
 11
86.70888448769341
 21
423.40664727519936
  0
LINE
  8
_1-0_
  6
CONTINUOUS
 62
    7
 10
86.70888448769341
 20
423.40664727519936
 11
85.45888448769341
 21
422.37357208074701
  0
LINE
  8
_1-0_
  6
CONTINUOUS
 62
    7
 10
85.45888448769341
 20
422.37357208074701
 11
86.70888448769341
 21
421.40596169021756
  0
LINE
  8
_1-0_
  6
CONTINUOUS
 62
    7
 10
86.70888448769341
 20
421.40596169021756
 11
85.45888448769341
 21
420.37288649576521
  0
LINE
  8
_1-0_
  6
CONTINUOUS
 62
    7
 10
85.45888448769341
 20
420.37288649576521
 11
86.70888448769341
 21
419.40527610523588
  0
LINE
  8
_1-0_
  6
CONTINUOUS
 62
    7
 10
86.70888448769341
 20
419.40527610523588
 11
85.45888448769341
 21
418.37220091078353
  0
LINE
  8
_1-0_
  6
CONTINUOUS
 62
    7
 10
85.45888448769341
 20
418.37220091078353
 11
86.70888448769341
 21
417.40459052025414
  0
LINE
  8
_1-0_
  6
CONTINUOUS
 62
    7
 10
86.70888448769341
 20
417.40459052025414
 11
85.45888448769341
 21
416.37151532580185
  0
LINE
  8
_1-0_
  6
CONTINUOUS
 62
    7
 10
85.45888448769341
 20
416.37151532580185
 11
86.70888448769341
 21
415.40390493527246
  0
LINE
  8
_1-0_
  6
CONTINUOUS
 62
    7
 10
86.70888448769341
 20
415.40390493527246
 11
85.45888448769341
 21
414.37082974082011
  0
LINE
  8
_1-0_
  6
CONTINUOUS
 62
    7
 10
85.45888448769341
 20
414.37082974082011
 11
86.70888448769341
 21
413.40321935029066
  0
LINE
  8
_1-0_
  6
CONTINUOUS
 62
    7
 10
86.70888448769341
 20
413.40321935029066
 11
85.45888448769341
 21
412.37014415583837
  0
LINE
  8
_1-0_
  6
CONTINUOUS
 62
    7
 10
85.45888448769341
 20
412.37014415583837
 11
86.70888448769341
 21
411.4025337653091
  0
LINE
  8
_1-0_
  6
CONTINUOUS
 62
    7
 10
86.70888448769341
 20
411.4025337653091
 11
85.45888448769341
 21
410.36945857085663
  0
LINE
  8
_1-0_
  6
CONTINUOUS
 62
    7
 10
85.45888448769341
 20
410.36945857085663
 11
86.70888448769341
 21
409.40184818032724
  0
LINE
  8
_1-0_
  6
CONTINUOUS
 62
    7
 10
86.70888448769341
 20
409.40184818032724
 11
85.45888448769341
 21
408.36877298587495
  0
LINE
  8
_1-0_
  6
CONTINUOUS
 62
    7
 10
85.45888448769341
 20
408.36877298587495
 11
86.70888448769341
 21
407.40116259534562
  0
LINE
  8
_1-0_
  6
CONTINUOUS
 62
    7
 10
86.70888448769341
 20
407.40116259534562
 11
85.45888448769341
 21
406.36808740089321
  0
LINE
  8
_1-0_
  6
CONTINUOUS
 62
    7
 10
85.45888448769341
 20
406.36808740089321
 11
86.70888448769341
 21
405.40047701036382
  0
LINE
  8
_1-0_
  6
CONTINUOUS
 62
    7
 10
86.70888448769341
 20
405.40047701036382
 11
85.45888448769341
 21
404.36740181591153
  0
LINE
  8
_1-0_
  6
CONTINUOUS
 62
    7
 10
85.45888448769341
 20
404.36740181591153
 11
86.70888448769341
 21
403.3997914253822
  0
LINE
  8
_1-0_
  6
CONTINUOUS
 62
    7
 10
86.70888448769341
 20
403.3997914253822
 11
85.45888448769341
 21
402.36671623092985
  0
LINE
  8
_1-0_
  6
CONTINUOUS
 62
    7
 10
85.45888448769341
 20
402.36671623092985
 11
86.70888448769341
 21
401.39910584040046
  0
LINE
  8
_1-0_
  6
CONTINUOUS
 62
    7
 10
86.70888448769341
 20
401.39910584040046
 11
85.45888448769341
 21
400.36603064594805
  0
LINE
  8
_1-0_
  6
CONTINUOUS
 62
    7
 10
85.45888448769341
 20
400.36603064594805
 11
86.70888448769341
 21
399.39842025541878
  0
LINE
  8
_1-0_
  6
CONTINUOUS
 62
    7
 10
86.70888448769341
 20
399.39842025541878
 11
85.45888448769341
 21
398.36534506096643
  0
LINE
  8
_1-0_
  6
CONTINUOUS
 62
    7
 10
85.45888448769341
 20
398.36534506096643
 11
86.70888448769341
 21
397.39773467043704
  0
LINE
  8
_1-0_
  6
CONTINUOUS
 62
    7
 10
86.70888448769341
 20
397.39773467043704
 11
85.45888448769341
 21
396.36465947598469
  0
LINE
  8
_1-0_
  6
CONTINUOUS
 62
    7
 10
85.45888448769341
 20
396.36465947598469
 11
86.70888448769341
 21
395.39704908545536
  0
LINE
  8
_1-0_
  6
CONTINUOUS
 62
    7
 10
86.70888448769341
 20
395.39704908545536
 11
85.45888448769341
 21
394.36397389100301
  0
LINE
  8
_1-0_
  6
CONTINUOUS
 62
    7
 10
85.45888448769341
 20
394.36397389100301
 11
86.70888448769341
 21
393.39636350047362
  0
LINE
  8
_1-0_
  6
CONTINUOUS
 62
    7
 10
86.70888448769341
 20
393.39636350047362
 11
85.45888448769341
 21
392.36328830602127
  0
LINE
  8
_1-0_
  6
CONTINUOUS
 62
    7
 10
85.45888448769341
 20
392.36328830602127
 11
86.70888448769341
 21
391.39567791549194
  0
LINE
  8
_1-0_
  6
CONTINUOUS
 62
    7
 10
86.70888448769341
 20
391.39567791549194
 11
85.45888448769341
 21
390.36260272103959
  0
LINE
  8
_1-0_
  6
CONTINUOUS
 62
    7
 10
85.45888448769341
 20
390.36260272103959
 11
86.70888448769341
 21
389.3949923305102
  0
LINE
  8
_1-0_
  6
CONTINUOUS
 62
    7
 10
86.70888448769341
 20
389.3949923305102
 11
85.45888448769341
 21
388.36191713605785
  0
LINE
  8
_1-0_
  6
CONTINUOUS
 62
    7
 10
85.45888448769341
 20
388.36191713605785
 11
86.70888448769341
 21
387.39430674552852
  0
LINE
  8
_1-0_
  6
CONTINUOUS
 62
    7
 10
86.70888448769341
 20
387.39430674552852
 11
85.45888448769341
 21
386.36123155107617
  0
LINE
  8
_1-0_
  6
CONTINUOUS
 62
    7
 10
85.45888448769341
 20
386.36123155107617
 11
86.70888448769341
 21
385.39362116054678
  0
LINE
  8
_1-0_
  6
CONTINUOUS
 62
    7
 10
86.70888448769341
 20
385.39362116054678
 11
85.45888448769341
 21
384.36054596609443
  0
LINE
  8
_1-0_
  6
CONTINUOUS
 62
    7
 10
85.45888448769341
 20
384.36054596609443
 11
86.70888448769341
 21
383.3929355755651
  0
LINE
  8
_1-0_
  6
CONTINUOUS
 62
    7
 10
86.70888448769341
 20
383.3929355755651
 11
85.45888448769341
 21
382.35986038111275
  0
LINE
  8
_1-0_
  6
CONTINUOUS
 62
    7
 10
85.45888448769341
 20
382.35986038111275
 11
86.70888448769341
 21
381.39224999058336
  0
LINE
  8
_1-0_
  6
CONTINUOUS
 62
    7
 10
86.70888448769341
 20
381.39224999058336
 11
85.45888448769341
 21
380.35917479613101
  0
LINE
  8
_1-0_
  6
CONTINUOUS
 62
    7
 10
85.45888448769341
 20
380.35917479613101
 11
86.70888448769341
 21
379.39156440560168
  0
LINE
  8
_1-0_
  6
CONTINUOUS
 62
    7
 10
86.70888448769341
 20
379.39156440560168
 11
85.45888448769341
 21
378.35848921114933
  0
LINE
  8
_1-0_
  6
CONTINUOUS
 62
    7
 10
85.45888448769341
 20
378.35848921114933
 11
86.70888448769341
 21
377.39087882061994
  0
LINE
  8
_1-0_
  6
CONTINUOUS
 62
    7
 10
86.70888448769341
 20
377.39087882061994
 11
85.45888448769341
 21
376.35780362616759
  0
LINE
  8
_1-0_
  6
CONTINUOUS
 62
    7
 10
85.45888448769341
 20
376.35780362616759
 11
86.70888448769341
 21
375.39019323563826
  0
LINE
  8
_1-0_
  6
CONTINUOUS
 62
    7
 10
86.70888448769341
 20
375.39019323563826
 11
85.45888448769341
 21
374.35711804118591
  0
LINE
  8
_1-0_
  6
CONTINUOUS
 62
    7
 10
85.45888448769341
 20
374.35711804118591
 11
86.70888448769341
 21
373.38950765065652
  0
LINE
  8
_1-0_
  6
CONTINUOUS
 62
    7
 10
86.70888448769341
 20
373.38950765065652
 11
85.45888448769341
 21
372.35643245620417
  0
LINE
  8
_1-0_
  6
CONTINUOUS
 62
    7
 10
85.45888448769341
 20
372.35643245620417
 11
86.70888448769341
 21
371.38882206567484
  0
LINE
  8
_1-0_
  6
CONTINUOUS
 62
    7
 10
86.70888448769341
 20
371.38882206567484
 11
85.45888448769341
 21
370.35574687122249
  0
LINE
  8
_1-0_
  6
CONTINUOUS
 62
    7
 10
85.45888448769341
 20
370.35574687122249
 11
86.70888448769341
 21
369.3881364806931
  0
LINE
  8
_1-0_
  6
CONTINUOUS
 62
    7
 10
86.70888448769341
 20
369.3881364806931
 11
85.45888448769341
 21
368.35506128624075
  0
LINE
  8
_1-0_
  6
CONTINUOUS
 62
    7
 10
85.45888448769341
 20
368.35506128624075
 11
86.70888448769341
 21
367.38745089571142
  0
LINE
  8
_1-0_
  6
CONTINUOUS
 62
    7
 10
86.70888448769341
 20
367.38745089571142
 11
85.45888448769341
 21
366.35437570125907
  0
LINE
  8
_1-0_
  6
CONTINUOUS
 62
    7
 10
85.45888448769341
 20
366.35437570125907
 11
86.70888448769341
 21
365.38676531072968
  0
LINE
  8
_1-0_
  6
CONTINUOUS
 62
    7
 10
86.70888448769341
 20
365.38676531072968
 11
85.45888448769341
 21
364.35369011627733
  0
LINE
  8
_1-0_
  6
CONTINUOUS
 62
    7
 10
85.45888448769341
 20
364.35369011627733
 11
86.70888448769341
 21
363.386079725748
  0
LINE
  8
_1-0_
  6
CONTINUOUS
 62
    7
 10
86.70888448769341
 20
363.386079725748
 11
85.45888448769341
 21
362.35300453129565
  0
LINE
  8
_1-0_
  6
CONTINUOUS
 62
    7
 10
85.45888448769341
 20
362.35300453129565
 11
86.70888448769341
 21
361.38539414076626
  0
LINE
  8
_1-0_
  6
CONTINUOUS
 62
    7
 10
86.70888448769341
 20
361.38539414076626
 11
85.45888448769341
 21
360.35231894631391
  0
LINE
  8
_1-0_
  6
CONTINUOUS
 62
    7
 10
85.45888448769341
 20
360.35231894631391
 11
86.70888448769341
 21
359.38470855578458
  0
LINE
  8
_1-0_
  6
CONTINUOUS
 62
    7
 10
86.70888448769341
 20
359.38470855578458
 11
85.45888448769341
 21
358.35163336133223
  0
LINE
  8
_1-0_
  6
CONTINUOUS
 62
    7
 10
85.45888448769341
 20
358.35163336133223
 11
86.70888448769341
 21
357.38402297080284
  0
LINE
  8
_1-0_
  6
CONTINUOUS
 62
    7
 10
86.70888448769341
 20
357.38402297080284
 11
85.45888448769341
 21
356.35094777635049
  0
LINE
  8
_1-0_
  6
CONTINUOUS
 62
    7
 10
85.45888448769341
 20
356.35094777635049
 11
86.70888448769341
 21
355.38333738582116
  0
LINE
  8
_1-0_
  6
CONTINUOUS
 62
    7
 10
116.00888448769336
 20
432.17663711710326
 11
117.25888448769336
 21
431.20902672657393
  0
LINE
  8
_1-0_
  6
CONTINUOUS
 62
    7
 10
117.25888448769336
 20
431.20902672657393
 11
116.00888448769336
 21
430.17595153212164
  0
LINE
  8
_1-0_
  6
CONTINUOUS
 62
    7
 10
116.00888448769336
 20
430.17595153212164
 11
117.25888448769336
 21
429.20834114159225
  0
LINE
  8
_1-0_
  6
CONTINUOUS
 62
    7
 10
117.25888448769336
 20
429.20834114159225
 11
116.00888448769336
 21
428.1752659471399
  0
LINE
  8
_1-0_
  6
CONTINUOUS
 62
    7
 10
116.00888448769336
 20
428.1752659471399
 11
117.25888448769336
 21
427.20765555661057
  0
LINE
  8
_1-0_
  6
CONTINUOUS
 62
    7
 10
117.25888448769336
 20
427.20765555661057
 11
116.00888448769336
 21
426.17458036215816
  0
LINE
  8
_1-0_
  6
CONTINUOUS
 62
    7
 10
116.00888448769336
 20
426.17458036215816
 11
117.25888448769336
 21
425.20696997162878
  0
LINE
  8
_1-0_
  6
CONTINUOUS
 62
    7
 10
117.25888448769336
 20
425.20696997162878
 11
116.00888448769336
 21
424.17389477717654
  0
LINE
  8
_1-0_
  6
CONTINUOUS
 62
    7
 10
116.00888448769336
 20
424.17389477717654
 11
117.25888448769336
 21
423.20628438664709
  0
LINE
  8
_1-0_
  6
CONTINUOUS
 62
    7
 10
117.25888448769336
 20
423.20628438664709
 11
116.00888448769336
 21
422.17320919219474
  0
LINE
  8
_1-0_
  6
CONTINUOUS
 62
    7
 10
116.00888448769336
 20
422.17320919219474
 11
117.25888448769336
 21
421.20559880166536
  0
LINE
  8
_1-0_
  6
CONTINUOUS
 62
    7
 10
117.25888448769336
 20
421.20559880166536
 11
116.00888448769336
 21
420.17252360721306
  0
LINE
  8
_1-0_
  6
CONTINUOUS
 62
    7
 10
116.00888448769336
 20
420.17252360721306
 11
117.25888448769336
 21
419.20491321668367
  0
LINE
  8
_1-0_
  6
CONTINUOUS
 62
    7
 10
117.25888448769336
 20
419.20491321668367
 11
116.00888448769336
 21
418.17183802223132
  0
LINE
  8
_1-0_
  6
CONTINUOUS
 62
    7
 10
116.00888448769336
 20
418.17183802223132
 11
117.25888448769336
 21
417.20422763170188
  0
LINE
  8
_1-0_
  6
CONTINUOUS
 62
    7
 10
117.25888448769336
 20
417.20422763170188
 11
116.00888448769336
 21
416.17115243724964
  0
LINE
  8
_1-0_
  6
CONTINUOUS
 62
    7
 10
116.00888448769325
 20
416.17115243724964
 11
117.25888448769325
 21
415.2035420467202
  0
LINE
  8
_1-0_
  6
CONTINUOUS
 62
    7
 10
117.25888448769325
 20
415.2035420467202
 11
116.00888448769325
 21
414.17046685226785
  0
LINE
  8
_1-0_
  6
CONTINUOUS
 62
    7
 10
116.00888448769325
 20
414.17046685226785
 11
117.25888448769325
 21
413.20285646173852
  0
LINE
  8
_1-0_
  6
CONTINUOUS
 62
    7
 10
117.25888448769325
 20
413.20285646173852
 11
116.00888448769325
 21
412.16978126728628
  0
LINE
  8
_1-0_
  6
CONTINUOUS
 62
    7
 10
116.00888448769325
 20
412.16978126728628
 11
117.25888448769325
 21
411.20217087675683
  0
LINE
  8
_1-0_
  6
CONTINUOUS
 62
    7
 10
117.25888448769325
 20
411.20217087675683
 11
116.00888448769325
 21
410.16909568230448
  0
LINE
  8
_1-0_
  6
CONTINUOUS
 62
    7
 10
116.00888448769325
 20
410.16909568230448
 11
117.25888448769325
 21
409.20148529177509
  0
LINE
  8
_1-0_
  6
CONTINUOUS
 62
    7
 10
117.25888448769325
 20
409.20148529177509
 11
116.00888448769325
 21
408.16841009732274
  0
LINE
  8
_1-0_
  6
CONTINUOUS
 62
    7
 10
116.00888448769325
 20
408.16841009732274
 11
117.25888448769325
 21
407.20079970679341
  0
LINE
  8
_1-0_
  6
CONTINUOUS
 62
    7
 10
117.25888448769325
 20
407.20079970679341
 11
116.00888448769325
 21
406.16772451234106
  0
LINE
  8
_1-0_
  6
CONTINUOUS
 62
    7
 10
116.00888448769325
 20
406.16772451234106
 11
117.25888448769325
 21
405.20011412181167
  0
LINE
  8
_1-0_
  6
CONTINUOUS
 62
    7
 10
117.25888448769325
 20
405.20011412181167
 11
116.00888448769325
 21
404.16703892735938
  0
LINE
  8
_1-0_
  6
CONTINUOUS
 62
    7
 10
116.00888448769325
 20
404.16703892735938
 11
117.25888448769325
 21
403.19942853682999
  0
LINE
  8
_1-0_
  6
CONTINUOUS
 62
    7
 10
117.25888448769325
 20
403.19942853682999
 11
116.00888448769325
 21
402.16635334237759
  0
LINE
  8
_1-0_
  6
CONTINUOUS
 62
    7
 10
116.00888448769325
 20
402.16635334237759
 11
117.25888448769325
 21
401.1987429518482
  0
LINE
  8
_1-0_
  6
CONTINUOUS
 62
    7
 10
117.25888448769325
 20
401.1987429518482
 11
116.00888448769325
 21
400.16566775739596
  0
LINE
  8
_1-0_
  6
CONTINUOUS
 62
    7
 10
116.00888448769325
 20
400.16566775739596
 11
117.25888448769325
 21
399.19805736686657
  0
LINE
  8
_1-0_
  6
CONTINUOUS
 62
    7
 10
117.25888448769325
 20
399.19805736686657
 11
116.00888448769325
 21
398.16498217241422
  0
LINE
  8
_1-0_
  6
CONTINUOUS
 62
    7
 10
116.00888448769325
 20
398.16498217241422
 11
117.25888448769325
 21
397.19737178188483
  0
LINE
  8
_1-0_
  6
CONTINUOUS
 62
    7
 10
117.25888448769325
 20
397.19737178188483
 11
116.00888448769325
 21
396.16429658743254
  0
LINE
  8
_1-0_
  6
CONTINUOUS
 62
    7
 10
116.00888448769325
 20
396.16429658743254
 11
117.25888448769325
 21
395.19668619690315
  0
LINE
  8
_1-0_
  6
CONTINUOUS
 62
    7
 10
117.25888448769325
 20
395.19668619690315
 11
116.00888448769325
 21
394.1636110024508
  0
LINE
  8
_1-0_
  6
CONTINUOUS
 62
    7
 10
116.00888448769325
 20
394.1636110024508
 11
117.25888448769325
 21
393.19600061192141
  0
LINE
  8
_1-0_
  6
CONTINUOUS
 62
    7
 10
117.25888448769325
 20
393.19600061192141
 11
116.00888448769325
 21
392.16292541746912
  0
LINE
  8
_1-0_
  6
CONTINUOUS
 62
    7
 10
116.00888448769325
 20
392.16292541746912
 11
117.25888448769325
 21
391.19531502693973
  0
LINE
  8
_1-0_
  6
CONTINUOUS
 62
    7
 10
117.25888448769325
 20
391.19531502693973
 11
116.00888448769325
 21
390.16223983248738
  0
LINE
  8
_1-0_
  6
CONTINUOUS
 62
    7
 10
116.00888448769313
 20
390.16223983248738
 11
117.25888448769325
 21
389.19462944195799
  0
LINE
  8
_1-0_
  6
CONTINUOUS
 62
    7
 10
117.25888448769325
 20
389.19462944195799
 11
116.00888448769313
 21
388.1615542475057
  0
LINE
  8
_1-0_
  6
CONTINUOUS
 62
    7
 10
116.00888448769313
 20
388.1615542475057
 11
117.25888448769313
 21
387.19394385697631
  0
LINE
  8
_1-0_
  6
CONTINUOUS
 62
    7
 10
117.25888448769313
 20
387.19394385697631
 11
116.00888448769313
 21
386.16086866252396
  0
LINE
  8
_1-0_
  6
CONTINUOUS
 62
    7
 10
116.00888448769313
 20
386.16086866252396
 11
117.25888448769313
 21
385.19325827199457
  0
LINE
  8
_1-0_
  6
CONTINUOUS
 62
    7
 10
117.25888448769313
 20
385.19325827199457
 11
116.00888448769313
 21
384.16018307754228
  0
LINE
  8
_1-0_
  6
CONTINUOUS
 62
    7
 10
116.00888448769313
 20
384.16018307754228
 11
117.25888448769313
 21
383.19257268701289
  0
LINE
  8
_1-0_
  6
CONTINUOUS
 62
    7
 10
117.25888448769313
 20
383.19257268701289
 11
116.00888448769313
 21
382.15949749256054
  0
LINE
  8
_1-0_
  6
CONTINUOUS
 62
    7
 10
116.00888448769313
 20
382.15949749256054
 11
117.25888448769313
 21
381.19188710203115
  0
LINE
  8
_1-0_
  6
CONTINUOUS
 62
    7
 10
117.25888448769313
 20
381.19188710203115
 11
116.00888448769313
 21
380.15881190757886
  0
LINE
  8
_1-0_
  6
CONTINUOUS
 62
    7
 10
116.00888448769313
 20
380.15881190757886
 11
117.25888448769313
 21
379.19120151704947
  0
LINE
  8
_1-0_
  6
CONTINUOUS
 62
    7
 10
117.25888448769313
 20
379.19120151704947
 11
116.00888448769313
 21
378.15812632259712
  0
LINE
  8
_1-0_
  6
CONTINUOUS
 62
    7
 10
116.00888448769313
 20
378.15812632259712
 11
117.25888448769313
 21
377.19051593206773
  0
LINE
  8
_1-0_
  6
CONTINUOUS
 62
    7
 10
117.25888448769313
 20
377.19051593206773
 11
116.00888448769313
 21
376.15744073761544
  0
LINE
  8
_1-0_
  6
CONTINUOUS
 62
    7
 10
116.00888448769313
 20
376.15744073761544
 11
117.25888448769313
 21
375.18983034708605
  0
LINE
  8
_1-0_
  6
CONTINUOUS
 62
    7
 10
117.25888448769313
 20
375.18983034708605
 11
116.00888448769313
 21
374.1567551526337
  0
LINE
  8
_1-0_
  6
CONTINUOUS
 62
    7
 10
116.00888448769302
 20
374.1567551526337
 11
117.25888448769313
 21
373.18914476210431
  0
LINE
  8
_1-0_
  6
CONTINUOUS
 62
    7
 10
117.25888448769313
 20
373.18914476210431
 11
116.00888448769302
 21
372.15606956765202
  0
LINE
  8
_1-0_
  6
CONTINUOUS
 62
    7
 10
116.00888448769302
 20
372.15606956765202
 11
117.25888448769302
 21
371.18845917712263
  0
LINE
  8
_1-0_
  6
CONTINUOUS
 62
    7
 10
117.25888448769302
 20
371.18845917712263
 11
116.00888448769302
 21
370.15538398267028
  0
LINE
  8
_1-0_
  6
CONTINUOUS
 62
    7
 10
116.00888448769302
 20
370.15538398267028
 11
117.25888448769302
 21
369.18777359214089
  0
LINE
  8
_1-0_
  6
CONTINUOUS
 62
    7
 10
117.25888448769302
 20
369.18777359214089
 11
116.00888448769302
 21
368.1546983976886
  0
LINE
  8
_1-0_
  6
CONTINUOUS
 62
    7
 10
116.00888448769302
 20
368.1546983976886
 11
117.25888448769302
 21
367.18708800715921
  0
LINE
  8
_1-0_
  6
CONTINUOUS
 62
    7
 10
117.25888448769302
 20
367.18708800715921
 11
116.00888448769302
 21
366.15401281270686
  0
LINE
  8
_1-0_
  6
CONTINUOUS
 62
    7
 10
116.00888448769302
 20
366.15401281270686
 11
117.25888448769302
 21
365.18640242217747
  0
LINE
  8
_1-0_
  6
CONTINUOUS
 62
    7
 10
117.25888448769302
 20
365.18640242217747
 11
116.00888448769302
 21
364.15332722772518
  0
LINE
  8
_1-0_
  6
CONTINUOUS
 62
    7
 10
116.00888448769302
 20
364.15332722772518
 11
117.25888448769302
 21
363.18571683719579
  0
LINE
  8
_1-0_
  6
CONTINUOUS
 62
    7
 10
117.25888448769302
 20
363.18571683719579
 11
116.00888448769302
 21
362.15264164274344
  0
LINE
  8
_1-0_
  6
CONTINUOUS
 62
    7
 10
116.00888448769302
 20
362.15264164274344
 11
117.25888448769302
 21
361.18503125221405
  0
LINE
  8
_1-0_
  6
CONTINUOUS
 62
    7
 10
117.25888448769302
 20
361.18503125221405
 11
116.00888448769302
 21
360.15195605776176
  0
LINE
  8
_1-0_
  6
CONTINUOUS
 62
    7
 10
116.00888448769302
 20
360.15195605776176
 11
117.25888448769302
 21
359.18434566723237
  0
LINE
  8
_1-0_
  6
CONTINUOUS
 62
    7
 10
117.25888448769302
 20
359.18434566723237
 11
116.00888448769302
 21
358.15127047278002
  0
LINE
  8
_1-0_
  6
CONTINUOUS
 62
    7
 10
116.00888448769302
 20
358.15127047278002
 11
117.25888448769302
 21
357.18366008225063
  0
LINE
  8
_1-0_
  6
CONTINUOUS
 62
    7
 10
117.25888448769302
 20
357.18366008225063
 11
116.00888448769302
 21
356.15058488779834
  0
LINE
  8
_1-0_
  6
CONTINUOUS
 62
    7
 10
116.00888448769302
 20
356.15058488779834
 11
117.25888448769302
 21
355.18297449726895
  0
LINE
  8
_1-0_
  6
CONTINUOUS
 62
    7
 10
85.45888448769341
 20
434.37768559063727
 11
86.20888448769341
 21
434.99753070729718
  0
LINE
  8
_1-0_
  6
CONTINUOUS
 62
    7
 10
86.70888448769341
 20
433.41007520010782
 11
116.00888448769347
 21
434.177322702085
  0
LINE
  8
_1-0_
  6
CONTINUOUS
 62
    7
 10
86.70888448769341
 20
431.40938961512608
 11
116.00888448769347
 21
432.17663711710326
  0
LINE
  8
_1-0_
  6
CONTINUOUS
 62
    7
 10
86.70888448769341
 20
429.40870403014434
 11
116.00888448769347
 21
430.17595153212153
  0
LINE
  8
_1-0_
  6
CONTINUOUS
 62
    7
 10
86.70888448769341
 20
427.40801844516261
 11
116.00888448769347
 21
428.17526594713979
  0
LINE
  8
_1-0_
  6
CONTINUOUS
 62
    7
 10
86.70888448769341
 20
425.40733286018087
 11
116.00888448769347
 21
426.17458036215805
  0
LINE
  8
_1-0_
  6
CONTINUOUS
 62
    7
 10
86.70888448769341
 20
423.40664727519913
 11
116.00888448769347
 21
424.17389477717631
  0
LINE
  8
_1-0_
  6
CONTINUOUS
 62
    7
 10
86.70888448769341
 20
421.40596169021739
 11
116.00888448769347
 21
422.17320919219457
  0
LINE
  8
_1-0_
  6
CONTINUOUS
 62
    7
 10
86.70888448769341
 20
419.40527610523565
 11
116.00888448769347
 21
420.17252360721283
  0
LINE
  8
_1-0_
  6
CONTINUOUS
 62
    7
 10
86.70888448769341
 20
417.40459052025397
 11
116.00888448769347
 21
418.17183802223115
  0
LINE
  8
_1-0_
  6
CONTINUOUS
 62
    7
 10
86.70888448769341
 20
415.40390493527218
 11
116.00888448769347
 21
416.17115243724936
  0
LINE
  8
_1-0_
  6
CONTINUOUS
 62
    7
 10
86.70888448769341
 20
413.40321935029044
 11
116.00888448769347
 21
414.17046685226762
  0
LINE
  8
_1-0_
  6
CONTINUOUS
 62
    7
 10
86.70888448769341
 20
411.4025337653087
 11
116.00888448769347
 21
412.16978126728588
  0
LINE
  8
_1-0_
  6
CONTINUOUS
 62
    7
 10
86.70888448769341
 20
409.40184818032696
 11
116.00888448769347
 21
410.1690956823042
  0
LINE
  8
_1-0_
  6
CONTINUOUS
 62
    7
 10
86.70888448769341
 20
407.40116259534522
 11
116.00888448769347
 21
408.1684100973224
  0
LINE
  8
_1-0_
  6
CONTINUOUS
 62
    7
 10
86.70888448769341
 20
405.40047701036348
 11
116.00888448769347
 21
406.16772451234072
  0
LINE
  8
_1-0_
  6
CONTINUOUS
 62
    7
 10
86.70888448769341
 20
403.3997914253818
 11
116.00888448769347
 21
404.16703892735893
  0
LINE
  8
_1-0_
  6
CONTINUOUS
 62
    7
 10
86.70888448769341
 20
401.39910584040001
 11
116.00888448769347
 21
402.16635334237724
  0
LINE
  8
_1-0_
  6
CONTINUOUS
 62
    7
 10
86.70888448769341
 20
399.39842025541832
 11
116.00888448769347
 21
400.16566775739551
  0
LINE
  8
_1-0_
  6
CONTINUOUS
 62
    7
 10
86.70888448769341
 20
397.39773467043659
 11
116.00888448769347
 21
398.16498217241377
  0
LINE
  8
_1-0_
  6
CONTINUOUS
 62
    7
 10
86.70888448769341
 20
395.39704908545485
 11
116.00888448769347
 21
396.16429658743197
  0
LINE
  8
_1-0_
  6
CONTINUOUS
 62
    7
 10
86.70888448769341
 20
393.39636350047311
 11
116.00888448769347
 21
394.16361100245029
  0
LINE
  8
_1-0_
  6
CONTINUOUS
 62
    7
 10
86.70888448769341
 20
391.39567791549143
 11
116.00888448769347
 21
392.16292541746861
  0
LINE
  8
_1-0_
  6
CONTINUOUS
 62
    7
 10
86.70888448769341
 20
389.39499233050963
 11
116.00888448769347
 21
390.16223983248681
  0
LINE
  8
_1-0_
  6
CONTINUOUS
 62
    7
 10
86.70888448769341
 20
387.39430674552784
 11
116.00888448769347
 21
388.16155424750502
  0
LINE
  8
_1-0_
  6
CONTINUOUS
 62
    7
 10
86.70888448769341
 20
385.39362116054616
 11
116.00888448769347
 21
386.16086866252334
  0
LINE
  8
_1-0_
  6
CONTINUOUS
 62
    7
 10
86.70888448769341
 20
383.39293557556447
 11
116.00888448769347
 21
384.16018307754166
  0
LINE
  8
_1-0_
  6
CONTINUOUS
 62
    7
 10
86.70888448769341
 20
381.39224999058268
 11
116.00888448769347
 21
382.15949749255986
  0
LINE
  8
_1-0_
  6
CONTINUOUS
 62
    7
 10
86.70888448769341
 20
379.39156440560094
 11
116.00888448769347
 21
380.15881190757812
  0
LINE
  8
_1-0_
  6
CONTINUOUS
 62
    7
 10
86.70888448769341
 20
377.3908788206192
 11
116.00888448769347
 21
378.15812632259638
  0
LINE
  8
_1-0_
  6
CONTINUOUS
 62
    7
 10
86.70888448769341
 20
375.39019323563752
 11
116.00888448769347
 21
376.15744073761464
  0
LINE
  8
_1-0_
  6
CONTINUOUS
 62
    7
 10
86.70888448769341
 20
373.38950765065578
 11
116.00888448769347
 21
374.15675515263296
  0
LINE
  8
_1-0_
  6
CONTINUOUS
 62
    7
 10
86.70888448769341
 20
371.38882206567404
 11
116.00888448769347
 21
372.15606956765122
  0
LINE
  8
_1-0_
  6
CONTINUOUS
 62
    7
 10
86.70888448769341
 20
369.38813648069225
 11
116.00888448769347
 21
370.15538398266943
  0
LINE
  8
_1-0_
  6
CONTINUOUS
 62
    7
 10
86.70888448769341
 20
367.38745089571051
 11
116.00888448769347
 21
368.15469839768769
  0
LINE
  8
_1-0_
  6
CONTINUOUS
 62
    7
 10
86.70888448769341
 20
365.38676531072883
 11
116.00888448769347
 21
366.15401281270601
  0
LINE
  8
_1-0_
  6
CONTINUOUS
 62
    7
 10
86.70888448769341
 20
363.38607972574709
 11
116.00888448769347
 21
364.15332722772427
  0
LINE
  8
_1-0_
  6
CONTINUOUS
 62
    7
 10
86.70888448769341
 20
361.38539414076529
 11
116.00888448769347
 21
362.15264164274248
  0
LINE
  8
_1-0_
  6
CONTINUOUS
 62
    7
 10
86.70888448769341
 20
359.38470855578356
 11
116.00888448769347
 21
360.15195605776074
  0
LINE
  8
_1-0_
  6
CONTINUOUS
 62
    7
 10
86.70888448769341
 20
357.38402297080187
 11
116.00888448769347
 21
358.15127047277906
  0
LINE
  8
_1-0_
  6
CONTINUOUS
 62
    4
 10
86.20888448769341
 20
435.10079511730884
 11
116.50888448769347
 21
435.10079511730884
  0
LINE
  8
_1-0_
  6
CONTINUOUS
 62
    7
 10
117.25888448769347
 20
435.2103978965373
 11
116.00888448769347
 21
434.177322702085
  0
LINE
  8
_1-0_
  6
CONTINUOUS
 62
    7
 10
116.89791191587329
 20
435.48982254548877
 11
117.25888448769347
 21
435.2103978965373
  0
LINE
  8
_1-0_
  6
CONTINUOUS
 62
    7
 10
115.87012434718445
 20
354.03521957550611
 11
115.34821129529308
 21
352.85026219136778
  0
LINE
  8
_1-0_
  6
CONTINUOUS
 62
    7
 10
117.25888448769302
 20
355.18297449726895
 11
115.87012434718445
 21
354.03521957550611
  0
LINE
  8
_1-0_
  6
CONTINUOUS
 62
    7
 10
86.70888448769341
 20
355.38333738582116
 11
85.458884487692159
 21
354.35026219136778
  0
LINE
  8
_1-0_
  6
CONTINUOUS
 62
    7
 10
116.25131951278495
 20
354.35026219136778
 11
85.458884487692159
 21
354.35026219136778
  0
LINE
  8
_1-0_
  6
CONTINUOUS
 62
    7
 10
86.708884487693353
 20
354.35026219136778
 11
87.369557680093691
 21
352.85026219136778
  0
LINE
  8
_1-0_
  6
CONTINUOUS
 62
    7
 10
115.34821129529308
 20
352.85026219136778
 11
87.369557680093691
 21
352.85026219136778
  0
LINE
  8
_1-0_
  6
CONTINUOUS
 62
    7
 10
86.708884487692102
 20
355.38333738582008
 11
116.00888448769347
 21
356.15058488779732
  0
LINE
  8
_1-0_
  6
CONTINUOUS
 62
    4
 10
85.45888448769341
 20
432.37700000565547
 11
117.25888448769347
 21
433.20971231155567
  0
LINE
  8
_1-0_
  6
CONTINUOUS
 62
    4
 10
85.45888448769341
 20
356.35094777634947
 11
117.25888448769302
 21
357.18366008224961
  0
LINE
  8
_1-0_
  6
CONTINUOUS
 62
    4
 10
85.45888448769341
 20
358.35163336133126
 11
117.25888448769302
 21
359.18434566723141
  0
LINE
  8
_1-0_
  6
CONTINUOUS
 62
    4
 10
85.45888448769341
 20
360.35231894631306
 11
117.25888448769302
 21
361.1850312522132
  0
LINE
  8
_1-0_
  6
CONTINUOUS
 62
    4
 10
85.45888448769341
 20
362.35300453129474
 11
117.25888448769302
 21
363.18571683719488
  0
LINE
  8
_1-0_
  6
CONTINUOUS
 62
    4
 10
85.45888448769341
 20
364.35369011627642
 11
117.25888448769302
 21
365.18640242217657
  0
LINE
  8
_1-0_
  6
CONTINUOUS
 62
    4
 10
85.45888448769341
 20
366.35437570125822
 11
117.25888448769302
 21
367.18708800715836
  0
LINE
  8
_1-0_
  6
CONTINUOUS
 62
    4
 10
85.45888448769341
 20
368.3550612862399
 11
117.25888448769302
 21
369.18777359214004
  0
LINE
  8
_1-0_
  6
CONTINUOUS
 62
    4
 10
85.45888448769341
 20
370.35574687122169
 11
117.25888448769302
 21
371.18845917712184
  0
LINE
  8
_1-0_
  6
CONTINUOUS
 62
    4
 10
85.45888448769341
 20
372.35643245620343
 11
117.25888448769302
 21
373.18914476210358
  0
LINE
  8
_1-0_
  6
CONTINUOUS
 62
    4
 10
85.45888448769341
 20
374.35711804118511
 11
117.25888448769313
 21
375.18983034708526
  0
LINE
  8
_1-0_
  6
CONTINUOUS
 62
    4
 10
85.45888448769341
 20
376.35780362616685
 11
117.25888448769313
 21
377.190515932067
  0
LINE
  8
_1-0_
  6
CONTINUOUS
 62
    4
 10
85.45888448769341
 20
378.35848921114865
 11
117.25888448769313
 21
379.19120151704873
  0
LINE
  8
_1-0_
  6
CONTINUOUS
 62
    4
 10
85.45888448769341
 20
380.35917479613038
 11
117.25888448769313
 21
381.19188710203053
  0
LINE
  8
_1-0_
  6
CONTINUOUS
 62
    4
 10
85.45888448769341
 20
382.35986038111207
 11
117.25888448769313
 21
383.19257268701221
  0
LINE
  8
_1-0_
  6
CONTINUOUS
 62
    4
 10
85.45888448769341
 20
384.3605459660938
 11
117.25888448769313
 21
385.19325827199395
  0
LINE
  8
_1-0_
  6
CONTINUOUS
 62
    4
 10
85.45888448769341
 20
386.3612315510756
 11
117.25888448769313
 21
387.19394385697574
  0
LINE
  8
_1-0_
  6
CONTINUOUS
 62
    4
 10
85.45888448769341
 20
388.36191713605728
 11
117.25888448769325
 21
389.19462944195743
  0
LINE
  8
_1-0_
  6
CONTINUOUS
 62
    4
 10
85.45888448769341
 20
390.36260272103902
 11
117.25888448769325
 21
391.19531502693916
  0
LINE
  8
_1-0_
  6
CONTINUOUS
 62
    4
 10
85.45888448769341
 20
392.36328830602082
 11
117.25888448769325
 21
393.1960006119209
  0
LINE
  8
_1-0_
  6
CONTINUOUS
 62
    4
 10
85.45888448769341
 20
394.3639738910025
 11
117.25888448769325
 21
395.19668619690264
  0
LINE
  8
_1-0_
  6
CONTINUOUS
 62
    4
 10
85.45888448769341
 20
396.36465947598424
 11
117.25888448769325
 21
397.19737178188438
  0
LINE
  8
_1-0_
  6
CONTINUOUS
 62
    4
 10
85.45888448769341
 20
398.36534506096592
 11
117.25888448769325
 21
399.19805736686606
  0
LINE
  8
_1-0_
  6
CONTINUOUS
 62
    4
 10
85.45888448769341
 20
400.36603064594771
 11
117.25888448769325
 21
401.19874295184786
  0
LINE
  8
_1-0_
  6
CONTINUOUS
 62
    4
 10
85.45888448769341
 20
402.36671623092939
 11
117.25888448769325
 21
403.1994285368296
  0
LINE
  8
_1-0_
  6
CONTINUOUS
 62
    4
 10
85.45888448769341
 20
404.36740181591119
 11
117.25888448769325
 21
405.20011412181133
  0
LINE
  8
_1-0_
  6
CONTINUOUS
 62
    4
 10
85.45888448769341
 20
406.36808740089287
 11
117.25888448769325
 21
407.20079970679302
  0
LINE
  8
_1-0_
  6
CONTINUOUS
 62
    4
 10
85.45888448769341
 20
408.36877298587461
 11
117.25888448769325
 21
409.20148529177475
  0
LINE
  8
_1-0_
  6
CONTINUOUS
 62
    4
 10
85.45888448769341
 20
410.3694585708564
 11
117.25888448769325
 21
411.20217087675655
  0
LINE
  8
_1-0_
  6
CONTINUOUS
 62
    4
 10
85.45888448769341
 20
412.37014415583814
 11
117.25888448769325
 21
413.20285646173834
  0
LINE
  8
_1-0_
  6
CONTINUOUS
 62
    4
 10
85.45888448769341
 20
414.37082974081988
 11
117.25888448769325
 21
415.20354204672003
  0
LINE
  8
_1-0_
  6
CONTINUOUS
 62
    4
 10
85.45888448769341
 20
416.37151532580156
 11
117.25888448769336
 21
417.20422763170171
  0
LINE
  8
_1-0_
  6
CONTINUOUS
 62
    4
 10
85.45888448769341
 20
418.37220091078336
 11
117.25888448769336
 21
419.20491321668339
  0
LINE
  8
_1-0_
  6
CONTINUOUS
 62
    4
 10
85.45888448769341
 20
420.3728864957651
 11
117.25888448769336
 21
421.2055988016653
  0
LINE
  8
_1-0_
  6
CONTINUOUS
 62
    4
 10
85.45888448769341
 20
422.37357208074683
 11
117.25888448769336
 21
423.20628438664698
  0
LINE
  8
_1-0_
  6
CONTINUOUS
 62
    4
 10
85.45888448769341
 20
424.37425766572852
 11
117.25888448769336
 21
425.20696997162872
  0
LINE
  8
_1-0_
  6
CONTINUOUS
 62
    4
 10
85.45888448769341
 20
426.37494325071031
 11
117.25888448769336
 21
427.20765555661034
  0
LINE
  8
_1-0_
  6
CONTINUOUS
 62
    4
 10
85.45888448769341
 20
428.37562883569199
 11
117.25888448769336
 21
429.2083411415922
  0
LINE
  8
_1-0_
  6
CONTINUOUS
 62
    4
 10
85.45888448769341
 20
430.37631442067379
 11
117.25888448769336
 21
431.20902672657393
  0
LINE
  8
_1-0_
  6
CONTINUOUS
 62
    4
 10
147.95493317583833
 20
452.85026219136835
 11
147.95493317583833
 21
352.85026219136778
  0
LINE
  8
_1-0_
  6
CONTINUOUS
 62
    7
 10
147.95493317583833
 20
452.85026219136835
 11
148.73139031114584
 21
449.95248471250107
  0
LINE
  8
_1-0_
  6
CONTINUOUS
 62
    7
 10
147.95493317583833
 20
452.85026219136835
 11
147.17847604053071
 21
449.95248471250107
  0
LINE
  8
_1-0_
  6
CONTINUOUS
 62
    7
 10
147.95493317583833
 20
352.85026219136778
 11
147.17847604053071
 21
355.74803967023501
  0
LINE
  8
_1-0_
  6
CONTINUOUS
 62
    7
 10
147.95493317583833
 20
352.85026219136778
 11
148.73139031114584
 21
355.74803967023501
  0
LINE
  8
_1-0_
  6
CONTINUOUS
 62
    4
 10
147.95493317583833
 20
452.85026219136835
 11
131.5121795369094
 21
452.85026219136835
  0
LINE
  8
_1-0_
  6
CONTINUOUS
 62
    4
 10
147.95493317583833
 20
352.85026219136778
 11
131.5121795369094
 21
352.85026219136778
  0
LINE
  8
_1-0_
  6
CONTINUOUS
 62
    4
 10
136.70462805446578
 20
435.85079511730884
 11
136.70462805446578
 21
352.85026219136778
  0
LINE
  8
_1-0_
  6
CONTINUOUS
 62
    7
 10
136.70462805446578
 20
435.85079511730884
 11
137.4810851897734
 21
432.95301763844167
  0
LINE
  8
_1-0_
  6
CONTINUOUS
 62
    7
 10
136.70462805446578
 20
435.85079511730884
 11
135.92817091915827
 21
432.95301763844167
  0
LINE
  8
_1-0_
  6
CONTINUOUS
 62
    7
 10
136.70462805446578
 20
352.85026219136778
 11
135.92817091915827
 21
355.74803967023501
  0
LINE
  8
_1-0_
  6
CONTINUOUS
 62
    7
 10
136.70462805446578
 20
352.85026219136778
 11
137.4810851897734
 21
355.74803967023501
  0
LINE
  8
_1-0_
  6
CONTINUOUS
 62
    4
 10
136.70462805446578
 20
435.85079511730884
 11
126.31973101935278
 21
435.85079511730884
  0
LINE
  8
_1-0_
  6
CONTINUOUS
 62
    4
 10
136.70462805446578
 20
352.85026219136778
 11
126.31973101935278
 21
352.85026219136778
  0
LINE
  8
_1-0_
  6
CONTINUOUS
 62
    7
 10
88.158885980509751
 20
336.31888392656594
 11
91.056663459376977
 21
337.09534106187351
  0
LINE
  8
_1-0_
  6
CONTINUOUS
 62
    7
 10
88.158885980509751
 20
336.31888392656594
 11
91.056663459376977
 21
335.54242679125837
  0
LINE
  8
_1-0_
  6
CONTINUOUS
 62
    7
 10
114.55888369169139
 20
336.31888392656594
 11
111.66110621282422
 21
335.54242679125837
  0
LINE
  8
_1-0_
  6
CONTINUOUS
 62
    7
 10
114.55888369169139
 20
336.31888392656594
 11
111.66110621282422
 21
337.09534106187351
  0
LINE
  8
_1-0_
  6
CONTINUOUS
 62
    4
 10
88.158885980509751
 20
348.19656737633772
 11
88.158885980509751
 21
336.31888392656594
  0
LINE
  8
_1-0_
  6
CONTINUOUS
 62
    4
 10
114.55888369169139
 20
348.19656737633772
 11
114.55888369169139
 21
336.31888392656594
  0
LINE
  8
_1-0_
  6
CENTER1
 62
    4
 10
101.35888448769333
 20
527.45873332818882
 11
101.35888448769333
 21
345.7839129256028
  0
TEXT
  8
_1-0_
 62
    7
 10
78.35888448769333
 20
320.5074548350592
 40
4
 41
1.0000000000000013
 50
0
  1
排水栓（排水目皿）100mm
  0
LINE
  8
_1-0_
  6
CONTINUOUS
 62
    7
 10
128.85888448769338
 20
326.0074548350592
 11
73.85888448769333
 21
326.0074548350592
  0
LINE
  8
_1-0_
  6
CONTINUOUS
 62
    7
 10
128.85888448769338
 20
319.0074548350592
 11
128.85888448769338
 21
326.0074548350592
  0
LINE
  8
_1-0_
  6
CONTINUOUS
 62
    7
 10
73.85888448769333
 20
319.0074548350592
 11
128.85888448769338
 21
319.0074548350592
  0
LINE
  8
_1-0_
  6
CONTINUOUS
 62
    7
 10
73.85888448769333
 20
326.0074548350592
 11
73.85888448769333
 21
319.0074548350592
  0
TEXT
  8
_1-0_
 62
    7
 10
93.858884836100514
 20
337.31888392656594
 40
5
 41
1
 50
0
  1
φ26.4
  0
TEXT
  8
_1-0_
 62
    7
 10
135.70462805446578
 20
391.85052865433829
 40
5
 41
1
 50
90
  1
83
  0
TEXT
  8
_1-0_
 62
    7
 10
146.95493317583833
 20
399.10026219136807
 40
5
 41
1
 50
90
  1
100
  0
CIRCLE
  8
_1-0_
  6
CONTINUOUS
 62
    7
 10
227.64554962860395
 20
495.61453256272238
 40
24.5
  0
CIRCLE
  8
_1-0_
  6
CONTINUOUS
 62
    4
 10
227.64554962860395
 20
495.61453256272238
 40
17
  0
CIRCLE
  8
_1-0_
  6
CONTINUOUS
 62
    7
 10
227.64554962860395
 20
495.61453256272238
 40
15
  0
ARC
  8
_1-0_
  6
CONTINUOUS
 62
    4
 10
217.83059505238045
 20
512.61453256272238
 40
2
 50
90
 51
149.99999999999994
  0
LINE
  8
_1-0_
  6
CONTINUOUS
 62
    4
 10
237.46050420482768
 20
514.61453256272238
 11
217.83059505238045
 21
514.61453256272238
  0
ARC
  8
_1-0_
  6
CONTINUOUS
 62
    4
 10
237.46050420482768
 20
512.61453256272238
 40
2
 50
29.999999999999864
 51
90
  0
LINE
  8
_1-0_
  6
CONTINUOUS
 62
    4
 10
249.00750958862025
 20
496.61453256272238
 11
239.19255501239652
 21
513.61453256272238
  0
ARC
  8
_1-0_
  6
CONTINUOUS
 62
    4
 10
247.27545878105132
 20
495.61453256272238
 40
2
 50
329.99999999999994
 51
29.999999999999875
  0
LINE
  8
_1-0_
  6
CONTINUOUS
 62
    4
 10
239.19255501239652
 20
477.61453256272238
 11
249.00750958862025
 21
494.61453256272238
  0
ARC
  8
_1-0_
  6
CONTINUOUS
 62
    4
 10
237.46050420482768
 20
478.61453256272238
 40
2
 50
270
 51
329.99999999999994
  0
LINE
  8
_1-0_
  6
CONTINUOUS
 62
    4
 10
217.83059505238045
 20
476.61453256272238
 11
237.46050420482768
 21
476.61453256272238
  0
ARC
  8
_1-0_
  6
CONTINUOUS
 62
    4
 10
217.83059505238045
 20
478.61453256272238
 40
2
 50
209.99999999999997
 51
270
  0
LINE
  8
_1-0_
  6
CONTINUOUS
 62
    4
 10
206.28358966858789
 20
496.61453256272244
 11
216.09854424481153
 21
513.61453256272238
  0
LINE
  8
_1-0_
  6
CONTINUOUS
 62
    4
 10
206.28358966858789
 20
494.61453256272244
 11
216.09854424481153
 21
477.61453256272238
  0
ARC
  8
_1-0_
  6
CONTINUOUS
 62
    4
 10
208.01564047615673
 20
495.61453256272244
 40
2
 50
149.99999999999994
 51
209.99999999999997
  0
LINE
  8
_1-0_
  6
CENTER1
 62
    4
 10
183.21481746041825
 20
495.61453256272238
 11
267.62247711866461
 21
495.61453256272238
  0
LINE
  8
_1-0_
  6
CONTINUOUS
 62
    7
 10
203.14554962860395
 20
446.18447856237128
 11
252.14554962860395
 21
446.18447856237128
  0
LINE
  8
_1-0_
  6
CONTINUOUS
 62
    7
 10
203.14554962860395
 20
446.18447856237128
 11
203.14554962860395
 21
443.68447856237128
  0
LINE
  8
_1-0_
  6
CONTINUOUS
 62
    7
 10
203.14554962860395
 20
443.68447856237128
 11
252.14554962860395
 21
443.68447856237128
  0
LINE
  8
_1-0_
  6
CONTINUOUS
 62
    7
 10
252.14554962860395
 20
446.18447856237128
 11
252.14554962860395
 21
443.68447856237128
  0
LINE
  8
_1-0_
  6
CONTINUOUS
 62
    7
 10
208.64554962860395
 20
443.68447856237128
 11
208.64554962860395
 21
437.7844785623713
  0
LINE
  8
_1-0_
  6
CONTINUOUS
 62
    7
 10
208.64554962860395
 20
437.7844785623713
 11
246.64554962860395
 21
437.7844785623713
  0
LINE
  8
_1-0_
  6
CONTINUOUS
 62
    7
 10
246.64554962860395
 20
443.68447856237128
 11
246.64554962860395
 21
437.7844785623713
  0
LINE
  8
_1-0_
  6
CONTINUOUS
 62
    4
 10
227.64554962860395
 20
443.68447856237128
 11
227.64554962860395
 21
437.7844785623713
  0
LINE
  8
_1-0_
  6
CONTINUOUS
 62
    7
 10
190.1455496286041
 20
416.86480011794162
 11
190.1455496286041
 21
409.86480011794162
  0
LINE
  8
_1-0_
  6
CONTINUOUS
 62
    7
 10
265.1455496286041
 20
416.86480011794162
 11
190.1455496286041
 21
416.86480011794162
  0
LINE
  8
_1-0_
  6
CONTINUOUS
 62
    7
 10
265.1455496286041
 20
409.86480011794162
 11
265.1455496286041
 21
416.86480011794162
  0
LINE
  8
_1-0_
  6
CONTINUOUS
 62
    7
 10
190.1455496286041
 20
409.86480011794162
 11
265.1455496286041
 21
409.86480011794162
  0
LINE
  8
_1-0_
  6
CONTINUOUS
 62
    4
 10
187.44475844796869
 20
451.18447856237128
 11
187.44475844796869
 21
432.7844785623713
  0
LINE
  8
_1-0_
  6
CONTINUOUS
 62
    7
 10
187.44475844796869
 20
437.7844785623713
 11
188.22121558327629
 21
434.88670108350402
  0
LINE
  8
_1-0_
  6
CONTINUOUS
 62
    7
 10
187.44475844796869
 20
437.7844785623713
 11
186.66830131266104
 21
434.88670108350402
  0
LINE
  8
_1-0_
  6
CONTINUOUS
 62
    7
 10
187.44475844796869
 20
446.18447856237128
 11
186.66830131266104
 21
449.08225604123845
  0
LINE
  8
_1-0_
  6
CONTINUOUS
 62
    7
 10
187.44475844796869
 20
446.18447856237128
 11
188.22121558327629
 21
449.08225604123845
  0
LINE
  8
_1-0_
  6
CONTINUOUS
 62
    4
 10
187.44475844796869
 20
437.7844785623713
 11
198.19134106721642
 21
437.7844785623713
  0
LINE
  8
_1-0_
  6
CONTINUOUS
 62
    4
 10
187.44475844796869
 20
446.18447856237128
 11
198.19134106721642
 21
446.18447856237128
  0
LINE
  8
_1-0_
  6
CONTINUOUS
 62
    4
 10
263.61906466087157
 20
451.18447856237128
 11
263.61906466087157
 21
438.68447856237128
  0
LINE
  8
_1-0_
  6
CONTINUOUS
 62
    7
 10
263.61906466087157
 20
443.68447856237128
 11
264.39552179617925
 21
440.78670108350411
  0
LINE
  8
_1-0_
  6
CONTINUOUS
 62
    7
 10
263.61906466087157
 20
443.68447856237128
 11
262.84260752556406
 21
440.78670108350411
  0
LINE
  8
_1-0_
  6
CONTINUOUS
 62
    7
 10
263.61906466087157
 20
446.18447856237128
 11
262.84260752556406
 21
449.08225604123845
  0
LINE
  8
_1-0_
  6
CONTINUOUS
 62
    7
 10
263.61906466087157
 20
446.18447856237128
 11
264.39552179617925
 21
449.08225604123845
  0
LINE
  8
_1-0_
  6
CONTINUOUS
 62
    4
 10
263.61906466087157
 20
443.68447856237128
 11
256.66539355429949
 21
443.68447856237128
  0
LINE
  8
_1-0_
  6
CONTINUOUS
 62
    4
 10
263.61906466087157
 20
446.18447856237128
 11
256.66539355429949
 21
446.18447856237128
  0
TEXT
  8
_1-0_
 62
    7
 10
191.6455496286041
 20
411.36480011794162
 40
4
 41
1
 50
0
  1
排水口パイプ用ナット（座付きナット）
  0
TEXT
  8
_1-0_
 62
    7
 10
186.44475844796869
 20
438.23447856237123
 40
5
 41
1
 50
90
  1
8.4
  0
TEXT
  8
_1-0_
 62
    7
 10
262.61906466087157
 20
447.43447856237128
 40
5
 41
1.0000000000000037
 50
90
  1
2.5
  0
CIRCLE
  8
_1-0_
  6
CONTINUOUS
 62
    7
 10
344.5465354974595
 20
495.61453256272238
 40
25
  0
CIRCLE
  8
_1-0_
  6
CONTINUOUS
 62
    7
 10
344.5465354974595
 20
495.61453256272238
 40
18
  0
CIRCLE
  8
_1-0_
  6
CONTINUOUS
 62
    7
 10
443.35160169907487
 20
495.61453256272238
 40
26
  0
CIRCLE
  8
_1-0_
  6
CONTINUOUS
 62
    7
 10
443.35160169907487
 20
495.61453256272238
 40
15.75
  0
CIRCLE
  8
_1-0_
  6
CONTINUOUS
 62
    7
 10
542.15666790069008
 20
495.61453256272238
 40
25
  0
CIRCLE
  8
_1-0_
  6
CONTINUOUS
 62
    7
 10
542.15666790069008
 20
495.61453256272238
 40
17.5
  0
LINE
  8
_1-0_
  6
CONTINUOUS
 62
    4
 10
331.81861343610165
 20
508.34245462408017
 11
357.27445755881734
 21
482.88661050136454
  0
LINE
  8
_1-0_
  6
CONTINUOUS
 62
    7
 10
331.81861343610165
 20
508.34245462408017
 11
334.41668964745502
 21
506.84245462408017
  0
LINE
  8
_1-0_
  6
CONTINUOUS
 62
    7
 10
331.81861343610165
 20
508.34245462408017
 11
333.31861343610165
 21
505.74437841272703
  0
LINE
  8
_1-0_
  6
CONTINUOUS
 62
    7
 10
357.27445755881734
 20
482.88661050136454
 11
354.67638134746408
 21
484.38661050136454
  0
LINE
  8
_1-0_
  6
CONTINUOUS
 62
    7
 10
357.27445755881734
 20
482.88661050136454
 11
355.77445755881734
 21
485.48468671271791
  0
LINE
  8
_1-0_
  6
CONTINUOUS
 62
    4
 10
432.21466989538674
 20
506.75146436641063
 11
454.48853350276306
 21
484.47760075903431
  0
LINE
  8
_1-0_
  6
CONTINUOUS
 62
    7
 10
432.21466989538674
 20
506.75146436641063
 11
434.81274610674
 21
505.25146436641063
  0
LINE
  8
_1-0_
  6
CONTINUOUS
 62
    7
 10
432.21466989538674
 20
506.75146436641063
 11
433.71466989538674
 21
504.1533881550572
  0
LINE
  8
_1-0_
  6
CONTINUOUS
 62
    7
 10
454.48853350276306
 20
484.47760075903431
 11
451.89045729140963
 21
485.97760075903431
  0
LINE
  8
_1-0_
  6
CONTINUOUS
 62
    7
 10
454.48853350276306
 20
484.47760075903431
 11
452.98853350276306
 21
487.07567697038757
  0
LINE
  8
_1-0_
  6
CONTINUOUS
 62
    4
 10
529.78229922992545
 20
507.98890123348701
 11
554.5310365714547
 21
483.24016389195787
  0
LINE
  8
_1-0_
  6
CONTINUOUS
 62
    7
 10
529.78229922992545
 20
507.98890123348701
 11
532.38037544127882
 21
506.48890123348701
  0
LINE
  8
_1-0_
  6
CONTINUOUS
 62
    7
 10
529.78229922992545
 20
507.98890123348701
 11
531.28229922992545
 21
505.39082502213369
  0
LINE
  8
_1-0_
  6
CONTINUOUS
 62
    7
 10
554.5310365714547
 20
483.24016389195787
 11
551.93296036010133
 21
484.74016389195787
  0
LINE
  8
_1-0_
  6
CONTINUOUS
 62
    7
 10
554.5310365714547
 20
483.24016389195787
 11
553.0310365714547
 21
485.83824010331119
  0
LINE
  8
_1-0_
  6
CONTINUOUS
 62
    4
 10
554.5310365714547
 20
483.24016389195787
 11
565.36241577444275
 21
472.40878468896971
  0
LINE
  8
_1-0_
  6
CONTINUOUS
 62
    4
 10
357.27445755881734
 20
482.88661050136454
 11
367.57913401314959
 21
472.5819340470324
  0
LINE
  8
_1-0_
  6
CONTINUOUS
 62
    4
 10
454.48853350276306
 20
484.47760075903431
 11
470.96667453369093
 21
467.99945972810644
  0
LINE
  8
_1-0_
  6
CONTINUOUS
 62
    7
 10
369.5465354974595
 20
446.18447856237128
 11
369.5465354974595
 21
440.18447856237128
  0
LINE
  8
_1-0_
  6
CONTINUOUS
 62
    7
 10
319.5465354974595
 20
446.18447856237128
 11
319.5465354974595
 21
440.18447856237128
  0
LINE
  8
_1-0_
  6
CONTINUOUS
 62
    7
 10
369.5465354974595
 20
446.18447856237128
 11
319.5465354974595
 21
446.18447856237128
  0
LINE
  8
_1-0_
  6
CONTINUOUS
 62
    7
 10
319.5465354974595
 20
440.18447856237128
 11
369.5465354974595
 21
440.18447856237128
  0
LINE
  8
_1-0_
  6
CONTINUOUS
 62
    7
 10
469.35160169907487
 20
440.18447856237128
 11
469.35160169907487
 21
441.68447856237128
  0
LINE
  8
_1-0_
  6
CONTINUOUS
 62
    7
 10
459.10160169907487
 20
447.68447856237128
 11
427.60160169907493
 21
447.68447856237128
  0
LINE
  8
_1-0_
  6
CONTINUOUS
 62
    7
 10
417.35160169907493
 20
441.68447856237128
 11
417.35160169907493
 21
440.18447856237128
  0
LINE
  8
_1-0_
  6
CONTINUOUS
 62
    7
 10
417.35160169907493
 20
440.18447856237128
 11
469.35160169907487
 21
440.18447856237128
  0
LINE
  8
_1-0_
  6
CONTINUOUS
 62
    7
 10
427.60160169907493
 20
447.68447856237128
 11
417.35160169907493
 21
441.68447856237128
  0
LINE
  8
_1-0_
  6
CONTINUOUS
 62
    7
 10
459.10160169907487
 20
447.68447856237128
 11
469.35160169907487
 21
441.68447856237128
  0
LINE
  8
_1-0_
  6
CONTINUOUS
 62
    4
 10
417.35160169907493
 20
441.68447856237128
 11
469.35160169907487
 21
441.68447856237128
  0
LINE
  8
_1-0_
  6
CONTINUOUS
 62
    7
 10
517.15666790069008
 20
440.68447856237128
 11
517.15666790069008
 21
440.18447856237128
  0
LINE
  8
_1-0_
  6
CONTINUOUS
 62
    7
 10
517.15666790069008
 20
440.18447856237128
 11
567.15666790069008
 21
440.18447856237128
  0
LINE
  8
_1-0_
  6
CONTINUOUS
 62
    7
 10
567.15666790069008
 20
440.18447856237128
 11
567.15666790069008
 21
440.68447856237128
  0
LINE
  8
_1-0_
  6
CONTINUOUS
 62
    7
 10
517.15666790069008
 20
440.68447856237128
 11
567.15666790069008
 21
440.68447856237128
  0
LINE
  8
_1-0_
  6
CONTINUOUS
 62
    4
 10
307.91972835320626
 20
440.18447856237128
 11
307.91972835320626
 21
435.18447856237128
  0
LINE
  8
_1-0_
  6
CONTINUOUS
 62
    4
 10
307.91972835320626
 20
446.18447856237128
 11
307.91972835320626
 21
451.18447856237128
  0
LINE
  8
_1-0_
  6
CONTINUOUS
 62
    4
 10
307.91972835320626
 20
440.18447856237128
 11
307.91972835320626
 21
446.18447856237128
  0
LINE
  8
_1-0_
  6
CONTINUOUS
 62
    7
 10
307.91972835320626
 20
440.18447856237128
 11
308.69618548851389
 21
437.28670108350411
  0
LINE
  8
_1-0_
  6
CONTINUOUS
 62
    7
 10
307.91972835320626
 20
440.18447856237128
 11
307.14327121789875
 21
437.28670108350411
  0
LINE
  8
_1-0_
  6
CONTINUOUS
 62
    7
 10
307.91972835320626
 20
446.18447856237128
 11
307.14327121789875
 21
449.08225604123856
  0
LINE
  8
_1-0_
  6
CONTINUOUS
 62
    7
 10
307.91972835320626
 20
446.18447856237128
 11
308.69618548851389
 21
449.08225604123856
  0
LINE
  8
_1-0_
  6
CONTINUOUS
 62
    4
 10
307.91972835320626
 20
440.18447856237128
 11
315.01648436038993
 21
440.18447856237128
  0
LINE
  8
_1-0_
  6
CONTINUOUS
 62
    4
 10
307.91972835320626
 20
446.18447856237128
 11
315.01648436038993
 21
446.18447856237128
  0
LINE
  8
_1-0_
  6
CONTINUOUS
 62
    4
 10
406.70524307295318
 20
440.18447856237128
 11
406.70524307295318
 21
435.18447856237128
  0
LINE
  8
_1-0_
  6
CONTINUOUS
 62
    4
 10
406.70524307295318
 20
447.68447856237128
 11
406.70524307295318
 21
452.68447856237128
  0
LINE
  8
_1-0_
  6
CONTINUOUS
 62
    4
 10
406.70524307295318
 20
440.18447856237128
 11
406.70524307295318
 21
447.68447856237128
  0
LINE
  8
_1-0_
  6
CONTINUOUS
 62
    7
 10
406.70524307295318
 20
440.18447856237128
 11
407.48170020826074
 21
437.28670108350411
  0
LINE
  8
_1-0_
  6
CONTINUOUS
 62
    7
 10
406.70524307295318
 20
440.18447856237128
 11
405.92878593764555
 21
437.28670108350411
  0
LINE
  8
_1-0_
  6
CONTINUOUS
 62
    7
 10
406.70524307295318
 20
447.68447856237128
 11
405.92878593764555
 21
450.58225604123856
  0
LINE
  8
_1-0_
  6
CONTINUOUS
 62
    7
 10
406.70524307295318
 20
447.68447856237128
 11
407.48170020826074
 21
450.58225604123856
  0
LINE
  8
_1-0_
  6
CONTINUOUS
 62
    4
 10
406.70524307295318
 20
440.18447856237128
 11
413.80596434700885
 21
440.18447856237128
  0
LINE
  8
_1-0_
  6
CONTINUOUS
 62
    4
 10
406.70524307295318
 20
447.68447856237128
 11
413.80596434700885
 21
447.68447856237128
  0
LINE
  8
_1-0_
  6
CONTINUOUS
 62
    4
 10
508.52236507042891
 20
440.18447856237128
 11
508.52236507042891
 21
435.18447856237128
  0
LINE
  8
_1-0_
  6
CONTINUOUS
 62
    4
 10
508.52236507042891
 20
440.68447856237128
 11
508.52236507042891
 21
445.68447856237128
  0
LINE
  8
_1-0_
  6
CONTINUOUS
 62
    4
 10
508.52236507042891
 20
440.18447856237128
 11
508.52236507042891
 21
440.68447856237128
  0
LINE
  8
_1-0_
  6
CONTINUOUS
 62
    7
 10
508.52236507042891
 20
440.18447856237128
 11
509.29882220573665
 21
437.28670108350411
  0
LINE
  8
_1-0_
  6
CONTINUOUS
 62
    7
 10
508.52236507042891
 20
440.18447856237128
 11
507.74590793512135
 21
437.28670108350411
  0
LINE
  8
_1-0_
  6
CONTINUOUS
 62
    7
 10
508.52236507042891
 20
440.68447856237128
 11
507.74590793512135
 21
443.58225604123856
  0
LINE
  8
_1-0_
  6
CONTINUOUS
 62
    7
 10
508.52236507042891
 20
440.68447856237128
 11
509.29882220573665
 21
443.58225604123856
  0
LINE
  8
_1-0_
  6
CONTINUOUS
 62
    4
 10
508.52236507042891
 20
440.18447856237128
 11
513.57711580789214
 21
440.18447856237128
  0
LINE
  8
_1-0_
  6
CONTINUOUS
 62
    4
 10
508.52236507042891
 20
440.68447856237128
 11
513.57711580789214
 21
440.68447856237128
  0
LINE
  8
_1-0_
  6
DASHED2
 62
    4
 10
326.5465354974595
 20
446.18447856237128
 11
326.5465354974595
 21
440.18447856237128
  0
LINE
  8
_1-0_
  6
DASHED2
 62
    4
 10
362.5465354974595
 20
446.18447856237128
 11
362.5465354974595
 21
440.18447856237128
  0
LINE
  8
_1-0_
  6
DASHED2
 62
    4
 10
427.60160169907493
 20
447.68447856237128
 11
427.60160169907493
 21
440.18447856237128
  0
LINE
  8
_1-0_
  6
DASHED2
 62
    4
 10
459.10160169907487
 20
447.68447856237128
 11
459.10160169907487
 21
440.18447856237128
  0
LINE
  8
_1-0_
  6
DASHED2
 62
    4
 10
524.65666790069008
 20
440.68447856237128
 11
524.65666790069008
 21
440.18447856237128
  0
LINE
  8
_1-0_
  6
DASHED2
 62
    4
 10
559.65666790069008
 20
440.68447856237128
 11
559.65666790069008
 21
440.18447856237128
  0
LINE
  8
_1-0_
  6
CONTINUOUS
 62
    7
 10
322.0465354974595
 20
416.86480011794162
 11
322.0465354974595
 21
409.86480011794162
  0
LINE
  8
_1-0_
  6
CONTINUOUS
 62
    7
 10
322.0465354974595
 20
409.86480011794162
 11
367.0465354974595
 21
409.86480011794162
  0
LINE
  8
_1-0_
  6
CONTINUOUS
 62
    7
 10
367.0465354974595
 20
409.86480011794162
 11
367.0465354974595
 21
416.86480011794162
  0
LINE
  8
_1-0_
  6
CONTINUOUS
 62
    7
 10
367.0465354974595
 20
416.86480011794162
 11
322.0465354974595
 21
416.86480011794162
  0
LINE
  8
_1-0_
  6
CONTINUOUS
 62
    7
 10
420.85160169907493
 20
416.86480011794162
 11
420.85160169907493
 21
409.86480011794162
  0
LINE
  8
_1-0_
  6
CONTINUOUS
 62
    7
 10
420.85160169907493
 20
409.86480011794162
 11
465.85160169907487
 21
409.86480011794162
  0
LINE
  8
_1-0_
  6
CONTINUOUS
 62
    7
 10
465.85160169907487
 20
409.86480011794162
 11
465.85160169907487
 21
416.86480011794162
  0
LINE
  8
_1-0_
  6
CONTINUOUS
 62
    7
 10
465.85160169907487
 20
416.86480011794162
 11
420.85160169907493
 21
416.86480011794162
  0
LINE
  8
_1-0_
  6
CONTINUOUS
 62
    7
 10
519.65666790069008
 20
416.86480011794162
 11
519.65666790069008
 21
409.86480011794162
  0
LINE
  8
_1-0_
  6
CONTINUOUS
 62
    7
 10
519.65666790069008
 20
409.86480011794162
 11
564.65666790069008
 21
409.86480011794162
  0
LINE
  8
_1-0_
  6
CONTINUOUS
 62
    7
 10
564.65666790069008
 20
409.86480011794162
 11
564.65666790069008
 21
416.86480011794162
  0
LINE
  8
_1-0_
  6
CONTINUOUS
 62
    7
 10
564.65666790069008
 20
416.86480011794162
 11
519.65666790069008
 21
416.86480011794162
  0
TEXT
  8
_1-0_
 62
    7
 10
328.5465354974595
 20
411.36480011794162
 40
4
 41
1
 50
0
  1
スポンジパッキン
  0
TEXT
  8
_1-0_
 62
    7
 10
431.35160169907487
 20
411.36480011794162
 40
4
 41
1
 50
0
  1
三角パッキン
  0
TEXT
  8
_1-0_
 62
    7
 10
526.15666790069008
 20
411.36480011794162
 40
4
 41
1
 50
0
  1
スリップパッキン
  0
CIRCLE
  8
_1-0_
  6
CONTINUOUS
 62
    7
 10
736.83743055504896
 20
495.61453256272238
 40
31.75
  0
CIRCLE
  8
_1-0_
  6
CONTINUOUS
 62
    7
 10
736.83743055504896
 20
495.61453256272238
 40
29.75
  0
CIRCLE
  8
_1-0_
  6
CONTINUOUS
 62
    7
 10
648.60513475359766
 20
495.61453256272238
 40
26.75
  0
CIRCLE
  8
_1-0_
  6
CONTINUOUS
 62
    7
 10
648.60513475359766
 20
495.61453256272238
 40
24.75
  0
LINE
  8
_1-0_
  6
CONTINUOUS
 62
    4
 10
128.20888521757029
 20
541.44631880283668
 11
74.508884454630845
 21
541.44631880283668
  0
LINE
  8
_1-0_
  6
CONTINUOUS
 62
    7
 10
128.20888521757029
 20
541.44631880283668
 11
125.31110773870312
 21
540.66986166752906
  0
LINE
  8
_1-0_
  6
CONTINUOUS
 62
    7
 10
128.20888521757029
 20
541.44631880283668
 11
125.31110773870312
 21
542.22277593814419
  0
LINE
  8
_1-0_
  6
CONTINUOUS
 62
    7
 10
74.508884454630845
 20
541.44631880283668
 11
77.406661933498071
 21
542.22277593814419
  0
LINE
  8
_1-0_
  6
CONTINUOUS
 62
    7
 10
74.508884454630845
 20
541.44631880283668
 11
77.406661933498071
 21
540.66986166752906
  0
LINE
  8
_1-0_
  6
CONTINUOUS
 62
    4
 10
128.20888521757029
 20
514.65469792882458
 11
128.20888521757029
 21
541.44631880283668
  0
LINE
  8
_1-0_
  6
CONTINUOUS
 62
    4
 10
74.508884454630845
 20
514.65469792882458
 11
74.508884454630845
 21
541.44631880283668
  0
TEXT
  8
_1-0_
 62
    7
 10
93.858884836100514
 20
542.44631880283668
 40
5
 41
1
 50
0
  1
φ53.7
  0
LINE
  8
_1-0_
  6
CONTINUOUS
 62
    4
 10
252.1455479768222
 20
541.44631880283668
 11
203.1455479768222
 21
541.44631880283668
  0
LINE
  8
_1-0_
  6
CONTINUOUS
 62
    7
 10
252.1455479768222
 20
541.44631880283668
 11
249.24777049795514
 21
540.66986166752917
  0
LINE
  8
_1-0_
  6
CONTINUOUS
 62
    7
 10
252.1455479768222
 20
541.44631880283668
 11
249.24777049795514
 21
542.22277593814442
  0
LINE
  8
_1-0_
  6
CONTINUOUS
 62
    7
 10
203.1455479768222
 20
541.44631880283668
 11
206.04332545568948
 21
542.22277593814442
  0
LINE
  8
_1-0_
  6
CONTINUOUS
 62
    7
 10
203.1455479768222
 20
541.44631880283668
 11
206.04332545568948
 21
540.66986166752917
  0
LINE
  8
_1-0_
  6
CONTINUOUS
 62
    4
 10
252.1455479768222
 20
509.30370572603334
 11
252.1455479768222
 21
541.44631880283668
  0
LINE
  8
_1-0_
  6
CONTINUOUS
 62
    4
 10
203.1455479768222
 20
509.30370572603334
 11
203.1455479768222
 21
541.44631880283668
  0
TEXT
  8
_1-0_
 62
    7
 10
222.6455479768222
 20
542.44631880283668
 40
5
 41
1
 50
0
  1
φ49
  0
LINE
  8
_1-0_
  6
CONTINUOUS
 62
    4
 10
319.54653639760766
 20
541.44631880283668
 11
369.54653639760766
 21
541.44631880283668
  0
LINE
  8
_1-0_
  6
CONTINUOUS
 62
    7
 10
319.54653639760766
 20
541.44631880283668
 11
322.44431387647483
 21
542.22277593814442
  0
LINE
  8
_1-0_
  6
CONTINUOUS
 62
    7
 10
319.54653639760766
 20
541.44631880283668
 11
322.44431387647483
 21
540.66986166752917
  0
LINE
  8
_1-0_
  6
CONTINUOUS
 62
    7
 10
369.54653639760766
 20
541.44631880283668
 11
366.64875891874038
 21
540.66986166752917
  0
LINE
  8
_1-0_
  6
CONTINUOUS
 62
    7
 10
369.54653639760766
 20
541.44631880283668
 11
366.64875891874038
 21
542.22277593814442
  0
LINE
  8
_1-0_
  6
CONTINUOUS
 62
    4
 10
319.54653639760766
 20
508.63630745368527
 11
319.54653639760766
 21
541.44631880283668
  0
LINE
  8
_1-0_
  6
CONTINUOUS
 62
    4
 10
369.54653639760766
 20
508.63630745368527
 11
369.54653639760766
 21
541.44631880283668
  0
LINE
  8
_1-0_
  6
CONTINUOUS
 62
    4
 10
469.35160155263685
 20
541.44631880283668
 11
417.3516015526369
 21
541.44631880283668
  0
LINE
  8
_1-0_
  6
CONTINUOUS
 62
    7
 10
469.35160155263685
 20
541.44631880283668
 11
466.45382407376985
 21
540.66986166752917
  0
LINE
  8
_1-0_
  6
CONTINUOUS
 62
    7
 10
469.35160155263685
 20
541.44631880283668
 11
466.45382407376985
 21
542.22277593814442
  0
LINE
  8
_1-0_
  6
CONTINUOUS
 62
    7
 10
417.3516015526369
 20
541.44631880283668
 11
420.24937903150413
 21
542.22277593814442
  0
LINE
  8
_1-0_
  6
CONTINUOUS
 62
    7
 10
417.3516015526369
 20
541.44631880283668
 11
420.24937903150413
 21
540.66986166752917
  0
LINE
  8
_1-0_
  6
CONTINUOUS
 62
    4
 10
469.35160155263685
 20
508.63630745368527
 11
469.35160155263685
 21
541.44631880283668
  0
LINE
  8
_1-0_
  6
CONTINUOUS
 62
    4
 10
417.3516015526369
 20
508.63630745368527
 11
417.3516015526369
 21
541.44631880283668
  0
LINE
  8
_1-0_
  6
CONTINUOUS
 62
    4
 10
567.15666670766609
 20
541.44631880283668
 11
517.15666670766609
 21
541.44631880283668
  0
LINE
  8
_1-0_
  6
CONTINUOUS
 62
    7
 10
567.15666670766609
 20
541.44631880283668
 11
564.2588892287988
 21
540.66986166752917
  0
LINE
  8
_1-0_
  6
CONTINUOUS
 62
    7
 10
567.15666670766609
 20
541.44631880283668
 11
564.2588892287988
 21
542.22277593814442
  0
LINE
  8
_1-0_
  6
CONTINUOUS
 62
    7
 10
517.15666670766609
 20
541.44631880283668
 11
520.05444418653337
 21
542.22277593814442
  0
LINE
  8
_1-0_
  6
CONTINUOUS
 62
    7
 10
517.15666670766609
 20
541.44631880283668
 11
520.05444418653337
 21
540.66986166752917
  0
LINE
  8
_1-0_
  6
CONTINUOUS
 62
    4
 10
567.15666670766609
 20
508.63630745368527
 11
567.15666670766609
 21
541.44631880283668
  0
LINE
  8
_1-0_
  6
CONTINUOUS
 62
    4
 10
517.15666670766609
 20
508.63630745368527
 11
517.15666670766609
 21
541.44631880283668
  0
TEXT
  8
_1-0_
 62
    7
 10
339.54653639760766
 20
542.44631880283668
 40
5
 41
1.0000000000000013
 50
0
  1
φ50
  0
TEXT
  8
_1-0_
 62
    7
 10
438.3516015526369
 20
542.44631880283668
 40
5
 41
1
 50
0
  1
φ52
  0
TEXT
  8
_1-0_
 62
    7
 10
537.15666670766609
 20
542.44631880283668
 40
5
 41
1
 50
0
  1
φ50
  0
LINE
  8
_1-0_
  6
CONTINUOUS
 62
    4
 10
621.85513401504908
 20
541.44631880283668
 11
675.35513401504908
 21
541.44631880283668
  0
TEXT
  8
_1-0_
 62
    7
 10
641.10513401504908
 20
542.44631880283668
 40
5
 41
1
 50
0
  1
φ53.5
  0
LINE
  8
_1-0_
  6
CONTINUOUS
 62
    7
 10
621.85513401504908
 20
541.44631880283668
 11
624.75291149391637
 21
542.22277593814419
  0
LINE
  8
_1-0_
  6
CONTINUOUS
 62
    7
 10
621.85513401504908
 20
541.44631880283668
 11
624.75291149391637
 21
540.66986166752917
  0
LINE
  8
_1-0_
  6
CONTINUOUS
 62
    7
 10
675.35513401504908
 20
541.44631880283668
 11
672.45735653618203
 21
540.66986166752917
  0
LINE
  8
_1-0_
  6
CONTINUOUS
 62
    7
 10
675.35513401504908
 20
541.44631880283668
 11
672.45735653618203
 21
542.22277593814419
  0
LINE
  8
_1-0_
  6
CONTINUOUS
 62
    4
 10
621.85513401504908
 20
508.63630745368527
 11
621.85513401504908
 21
541.44631880283668
  0
LINE
  8
_1-0_
  6
CONTINUOUS
 62
    4
 10
675.35513401504908
 20
508.63630745368527
 11
675.35513401504908
 21
541.44631880283668
  0
LINE
  8
_1-0_
  6
CONTINUOUS
 62
    4
 10
768.58743381973658
 20
541.44631880283668
 11
705.08743381973658
 21
541.44631880283668
  0
TEXT
  8
_1-0_
 62
    7
 10
729.33743381973658
 20
542.44631880283668
 40
5
 41
1
 50
0
  1
φ63.5
  0
LINE
  8
_1-0_
  6
CONTINUOUS
 62
    7
 10
768.58743381973658
 20
541.44631880283668
 11
765.68965634086953
 21
540.66986166752917
  0
LINE
  8
_1-0_
  6
CONTINUOUS
 62
    7
 10
768.58743381973658
 20
541.44631880283668
 11
765.68965634086953
 21
542.22277593814419
  0
LINE
  8
_1-0_
  6
CONTINUOUS
 62
    7
 10
705.08743381973658
 20
541.44631880283668
 11
707.98521129860387
 21
542.22277593814419
  0
LINE
  8
_1-0_
  6
CONTINUOUS
 62
    7
 10
705.08743381973658
 20
541.44631880283668
 11
707.98521129860387
 21
540.66986166752917
  0
LINE
  8
_1-0_
  6
CONTINUOUS
 62
    4
 10
768.58743381973658
 20
508.63630745368527
 11
768.58743381973658
 21
541.44631880283668
  0
LINE
  8
_1-0_
  6
CONTINUOUS
 62
    4
 10
705.08743381973658
 20
508.63630745368527
 11
705.08743381973658
 21
541.44631880283668
  0
LINE
  8
_1-0_
  6
CENTER1
 62
    4
 10
227.64554962860395
 20
530.63802340424001
 11
227.64554962860395
 21
426.67229208113826
  0
LINE
  8
_1-0_
  6
CENTER1
 62
    4
 10
344.5465354974595
 20
528.56308291539107
 11
344.5465354974595
 21
426.67229208113826
  0
LINE
  8
_1-0_
  6
CENTER1
 62
    4
 10
443.35160169907487
 20
528.56308291539107
 11
443.35160169907487
 21
426.67229208113826
  0
LINE
  8
_1-0_
  6
CENTER1
 62
    4
 10
542.15666790069008
 20
528.56308291539107
 11
542.15666790069008
 21
426.67229208113826
  0
LINE
  8
_1-0_
  6
CONTINUOUS
 62
    4
 10
627.49752283214979
 20
479.93401100741249
 11
606.18224671312441
 21
462.56600824376243
  0
TEXT
  8
_1-0_
 62
    7
 10
593.55097197592499
 20
459.07918990491862
 40
5
 41
1
 50
0
  1
乳白
  0
LINE
  8
_1-0_
  6
CONTINUOUS
 62
    4
 10
714.20882513649439
 20
474.44709250060225
 11
692.89354901746901
 21
457.07908973695231
  0
TEXT
  8
_1-0_
 62
    7
 10
685.2636769233436
 20
453.67931744079794
 40
5
 41
1
 50
0
  1
黒
  0
LINE
  8
_1-0_
  6
CONTINUOUS
 62
    7
 10
642.28641729624973
 20
436.17085903280189
 11
642.28641729624973
 21
429.17085903280189
  0
LINE
  8
_1-0_
  6
CONTINUOUS
 62
    7
 10
642.28641729624973
 20
429.17085903280189
 11
719.28641729624973
 21
429.17085903280189
  0
LINE
  8
_1-0_
  6
CONTINUOUS
 62
    7
 10
719.28641729624973
 20
429.17085903280189
 11
719.28641729624973
 21
436.17085903280189
  0
LINE
  8
_1-0_
  6
CONTINUOUS
 62
    7
 10
642.28641729624973
 20
436.17085903280189
 11
719.28641729624973
 21
436.17085903280189
  0
TEXT
  8
_1-0_
 62
    7
 10
721.28641729624973
 20
430.67085903280189
 40
4
 41
1
 50
0
  1
S=1/2
  0
TEXT
  8
_1-0_
 62
    7
 10
658.78641729624973
 20
430.67085903280189
 40
4
 41
1
 50
0
  1
Оリング　乳白・黒　各1
  0
TEXT
  8
_1-0_
 62
    7
 10
566.65666790069008
 20
411.36480011794162
 40
4
 41
1
 50
0
  1
S=1/2
  0
TEXT
  8
_1-0_
 62
    7
 10
467.85160169907487
 20
411.36480011794162
 40
4
 41
1
 50
0
  1
S=1/2
  0
TEXT
  8
_1-0_
 62
    7
 10
369.0465354974595
 20
411.36480011794162
 40
4
 41
1
 50
0
  1
S=1/2
  0
TEXT
  8
_1-0_
 62
    7
 10
267.1455496286041
 20
411.36480011794162
 40
4
 41
1
 50
0
  1
S=1/2
  0
TEXT
  8
_1-0_
 62
    7
 10
130.85888448769338
 20
320.5074548350592
 40
4
 41
1
 50
0
  1
S=1/2
  0
LINE
  8
_1-0_
  6
CENTER1
 62
    4
 10
60.475700250435181
 20
495.61453256272238
 11
155.70674430277955
 21
495.61453256272238
  0
LINE
  8
_1-0_
  6
CENTER1
 62
    4
 10
169.3722040275766
 20
495.61453256272238
 11
248.96024612795238
 21
495.61453256272238
  0
LINE
  8
_1-0_
  6
CENTER1
 62
    4
 10
302.07663202602037
 20
495.61453256272238
 11
388.56617801332282
 21
495.61453256272238
  0
LINE
  8
_1-0_
  6
CENTER1
 62
    4
 10
401.13840096013615
 20
495.61453256272238
 11
484.22439608690262
 21
495.61453256272238
  0
LINE
  8
_1-0_
  6
CENTER1
 62
    4
 10
495.15676386674039
 20
495.61453256272238
 11
576.8892238267922
 21
495.61453256272238
  0
TEXT
  8
_1-0_
 62
    7
 10
306.91972835320626
 20
441.93447856237128
 40
5
 41
1
 50
90
  1
6
  0
TEXT
  8
_1-0_
 62
    7
 10
405.70524307295318
 20
440.18447856237128
 40
5
 41
1
 50
90
  1
7.5
  0
TEXT
  8
_1-0_
 62
    7
 10
507.52236507042891
 20
436.68447856237128
 40
5
 41
1
 50
90
  1
0.5
  0
TEXT
  8
_1-0_
 62
    7
 10
364.21992056412506
 20
477.11587323692191
 40
5.0000000000000053
 41
0.9999999999999976
 50
-44.999999999999623
  1
φ36
  0
TEXT
  8
_1-0_
 62
    7
 10
464.00414780103676
 20
476.83346534083295
 40
5
 41
1
 50
-45
  1
φ31.5
  0
TEXT
  8
_1-0_
 62
    7
 10
560.10263255542622
 20
478.38754851195818
 40
4.9999999999999804
 41
1.0000000000000039
 50
-45.000000000000689
  1
φ35
  0
TEXT
  8
_1-0_
 62
    7
 10
15.391117101246891
 20
565.83435115941801
 40
12
 41
1.0000000000000002
 50
0
  1
Mimi用コンプリートセット（100mm：天板厚15～55㎜用）Pトラップ
  0
TEXT
  8
_1-0_
 62
    7
 10
649.65919743791459
 20
98.954198795357285
 40
6
 41
1.0000000000000002
 50
0
  1
※1　（　）内寸法は参考寸法である。
  0
TEXT
  8
_1-0_
 62
    7
 10
649.65919743791459
 20
78.954198795357285
 40
6
 41
1.0000000000000002
 50
0
  1
※3　壁排水管の差込代は、40mm以上を確保すること。
  0
TEXT
  8
_1-0_
 62
    7
 10
649.65919743791459
 20
88.954198795357285
 40
6
 41
1.0000000000000002
 50
0
  1
※2　テール管の差込代は、15mm以上を確保すること。
  0
ARC
  8
_1-0_
  6
CENTER1
 62
    4
 10
589.80700416850277
 20
226.69909513004745
 40
30
 50
180
 51
0
  0
ARC
  8
_1-0_
  6
CENTER1
 62
    4
 10
649.80700416850277
 20
247.19909513004745
 40
30
 50
90
 51
180
  0
LINE
  8
_1-0_
  6
CONTINUOUS
 62
    7
 10
544.82300416850284
 20
264.69909513004745
 11
544.82300416850284
 21
265.84353913004741
  0
LINE
  8
_1-0_
  6
CONTINUOUS
 62
    7
 10
574.79100416850292
 20
264.69909513004745
 11
574.79100416850292
 21
265.84353913004741
  0
LINE
  8
_1-0_
  6
CENTER1
 62
    4
 10
619.80700416850277
 20
226.69909513004745
 11
619.80700416850277
 21
247.19909513004745
  0
LINE
  8
_1-0_
  6
CENTER1
 62
    4
 10
559.80700416850277
 20
362.15471064841727
 11
559.80700416850277
 21
226.69909513004745
  0
LINE
  8
_1-0_
  6
CENTER1
 62
    4
 10
649.80700416850277
 20
277.19909513004745
 11
783.90500728995675
 21
277.19909513004745
  0
LINE
  8
_1-0_
  6
CONTINUOUS
 62
    4
 10
547.1570041685029
 20
232.69023513004739
 11
572.45700416850286
 21
232.69023513004739
  0
LINE
  8
_1-0_
  6
CONTINUOUS
 62
    4
 10
548.1570041685029
 20
227.94803713004739
 11
571.45700416850286
 21
227.94803713004739
  0
ARC
  8
_1-0_
  6
CONTINUOUS
 62
    7
 10
738.80700416850277
 20
293.19909513004745
 40
14
 50
90
 51
180
  0
ARC
  8
_1-0_
  6
CONTINUOUS
 62
    7
 10
738.80700416850277
 20
261.19909513004745
 40
14
 50
180
 51
270
  0
LINE
  8
_1-0_
  6
CONTINUOUS
 62
    7
 10
724.80700416850277
 20
261.19909513004745
 11
724.80700416850277
 21
293.19909513004745
  0
LINE
  8
_1-0_
  6
CONTINUOUS
 62
    7
 10
635.39546016850272
 20
241.33901190847365
 11
634.68976420307558
 21
241.26396347267663
  0
LINE
  8
_1-0_
  6
CONTINUOUS
 62
    7
 10
634.68976420307558
 20
241.26396347267663
 11
634.00551045245867
 21
241.04109847403105
  0
LINE
  8
_1-0_
  6
CONTINUOUS
 62
    7
 10
634.00551045245867
 20
241.04109847403105
 11
633.36348962061515
 21
240.67718855274551
  0
LINE
  8
_1-0_
  6
CONTINUOUS
 62
    7
 10
633.36348962061515
 20
240.67718855274551
 11
632.78320918564259
 21
240.18329092763104
  0
LINE
  8
_1-0_
  6
CONTINUOUS
 62
    7
 10
632.78320918564259
 20
240.18329092763104
 11
632.28230067492143
 21
239.57441242810244
  0
LINE
  8
_1-0_
  6
CONTINUOUS
 62
    7
 10
632.28230067492143
 20
239.57441242810244
 11
631.87598394007795
 21
238.86905351926057
  0
LINE
  8
_1-0_
  6
CONTINUOUS
 62
    7
 10
631.87598394007795
 20
238.86905351926057
 11
631.5766047094944
 21
238.08864617462162
  0
LINE
  8
_1-0_
  6
CONTINUOUS
 62
    7
 10
631.5766047094944
 20
238.08864617462162
 11
631.39325946959866
 21
237.25690267644745
  0
LINE
  8
_1-0_
  6
CONTINUOUS
 62
    7
 10
631.39325946959866
 20
237.25690267644745
 11
631.33151907272781
 21
236.39909513004744
  0
LINE
  8
_1-0_
  6
CONTINUOUS
 62
    7
 10
631.33151907272781
 20
236.39909513004744
 11
631.39325946959866
 21
235.54128758364745
  0
LINE
  8
_1-0_
  6
CONTINUOUS
 62
    7
 10
631.39325946959866
 20
235.54128758364745
 11
631.5766047094944
 21
234.70954408547328
  0
LINE
  8
_1-0_
  6
CONTINUOUS
 62
    7
 10
631.5766047094944
 20
234.70954408547328
 11
631.87598394007795
 21
233.92913674083433
  0
LINE
  8
_1-0_
  6
CONTINUOUS
 62
    7
 10
631.87598394007795
 20
233.92913674083433
 11
632.28230067492143
 21
233.22377783199243
  0
LINE
  8
_1-0_
  6
CONTINUOUS
 62
    7
 10
632.28230067492143
 20
233.22377783199243
 11
632.78320918564259
 21
232.61489933246383
  0
LINE
  8
_1-0_
  6
CONTINUOUS
 62
    7
 10
632.78320918564259
 20
232.61489933246383
 11
633.36348962061515
 21
232.12100170734936
  0
LINE
  8
_1-0_
  6
CONTINUOUS
 62
    7
 10
633.36348962061515
 20
232.12100170734936
 11
634.00551045245867
 21
231.75709178606382
  0
LINE
  8
_1-0_
  6
CONTINUOUS
 62
    7
 10
634.00551045245867
 20
231.75709178606382
 11
634.68976420307558
 21
231.53422678741827
  0
LINE
  8
_1-0_
  6
CONTINUOUS
 62
    7
 10
634.68976420307558
 20
231.53422678741827
 11
635.39546016850272
 21
231.45917835162126
  0
LINE
  8
_1-0_
  6
CONTINUOUS
 62
    7
 10
635.39546016850272
 20
231.45917835162126
 11
636.10115613392986
 21
231.53422678741827
  0
LINE
  8
_1-0_
  6
CONTINUOUS
 62
    7
 10
636.10115613392986
 20
231.53422678741827
 11
636.78540988454676
 21
231.75709178606382
  0
LINE
  8
_1-0_
  6
CONTINUOUS
 62
    7
 10
636.78540988454676
 20
231.75709178606382
 11
637.42743071639029
 21
232.12100170734936
  0
LINE
  8
_1-0_
  6
CONTINUOUS
 62
    7
 10
637.42743071639029
 20
232.12100170734936
 11
638.00771115136285
 21
232.61489933246383
  0
LINE
  8
_1-0_
  6
CONTINUOUS
 62
    7
 10
638.00771115136285
 20
232.61489933246383
 11
638.50861966208401
 21
233.22377783199243
  0
LINE
  8
_1-0_
  6
CONTINUOUS
 62
    7
 10
638.50861966208401
 20
233.22377783199243
 11
638.91493639692748
 21
233.92913674083433
  0
LINE
  8
_1-0_
  6
CONTINUOUS
 62
    7
 10
638.91493639692748
 20
233.92913674083433
 11
639.21431562751104
 21
234.70954408547322
  0
LINE
  8
_1-0_
  6
CONTINUOUS
 62
    7
 10
639.21431562751104
 20
234.70954408547322
 11
639.39766086740678
 21
235.54128758364745
  0
LINE
  8
_1-0_
  6
CONTINUOUS
 62
    7
 10
639.39766086740678
 20
235.54128758364745
 11
639.45940126427763
 21
236.39909513004744
  0
LINE
  8
_1-0_
  6
CONTINUOUS
 62
    7
 10
639.45940126427763
 20
236.39909513004744
 11
639.39766086740678
 21
237.25690267644745
  0
LINE
  8
_1-0_
  6
CONTINUOUS
 62
    7
 10
639.39766086740678
 20
237.25690267644745
 11
639.21431562751104
 21
238.08864617462162
  0
LINE
  8
_1-0_
  6
CONTINUOUS
 62
    7
 10
639.21431562751104
 20
238.08864617462162
 11
638.91493639692748
 21
238.86905351926051
  0
LINE
  8
_1-0_
  6
CONTINUOUS
 62
    7
 10
638.91493639692748
 20
238.86905351926051
 11
638.50861966208401
 21
239.57441242810244
  0
LINE
  8
_1-0_
  6
CONTINUOUS
 62
    7
 10
638.50861966208401
 20
239.57441242810244
 11
638.00771115136285
 21
240.18329092763102
  0
LINE
  8
_1-0_
  6
CONTINUOUS
 62
    7
 10
638.00771115136285
 20
240.18329092763102
 11
637.42743071639029
 21
240.67718855274551
  0
LINE
  8
_1-0_
  6
CONTINUOUS
 62
    7
 10
637.42743071639029
 20
240.67718855274551
 11
636.78540988454676
 21
241.04109847403105
  0
LINE
  8
_1-0_
  6
CONTINUOUS
 62
    7
 10
636.78540988454676
 20
241.04109847403105
 11
636.10115613392986
 21
241.26396347267663
  0
LINE
  8
_1-0_
  6
CONTINUOUS
 62
    7
 10
636.10115613392986
 20
241.26396347267663
 11
635.39546016850272
 21
241.33901190847365
  0
LINE
  8
_1-0_
  6
CONTINUOUS
 62
    7
 10
619.80700416850277
 20
231.45917849692415
 11
621.21839643136434
 21
231.53422693051365
  0
LINE
  8
_1-0_
  6
CONTINUOUS
 62
    7
 10
621.21839643136434
 20
231.53422693051365
 11
622.58690425451777
 21
231.75709192260387
  0
LINE
  8
_1-0_
  6
CONTINUOUS
 62
    7
 10
622.58690425451777
 20
231.75709192260387
 11
623.87094622025495
 21
232.12100183318534
  0
LINE
  8
_1-0_
  6
CONTINUOUS
 62
    7
 10
623.87094622025495
 20
232.12100183318534
 11
625.03150736320367
 21
232.61489944377228
  0
LINE
  8
_1-0_
  6
CONTINUOUS
 62
    7
 10
625.03150736320367
 20
232.61489944377228
 11
626.03332462030743
 21
233.22377792539131
  0
LINE
  8
_1-0_
  6
CONTINUOUS
 62
    7
 10
626.03332462030743
 20
233.22377792539131
 11
626.84595828115334
 21
233.92913681348576
  0
LINE
  8
_1-0_
  6
CONTINUOUS
 62
    7
 10
626.84595828115334
 20
233.92913681348576
 11
627.444716883169
 21
234.70954413516975
  0
LINE
  8
_1-0_
  6
CONTINUOUS
 62
    7
 10
627.444716883169
 20
234.70954413516975
 11
627.81140744921867
 21
235.54128760887903
  0
LINE
  8
_1-0_
  6
CONTINUOUS
 62
    7
 10
627.81140744921867
 20
235.54128760887903
 11
627.93488827200724
 21
236.39909513004744
  0
LINE
  8
_1-0_
  6
CONTINUOUS
 62
    7
 10
627.93488827200724
 20
236.39909513004744
 11
627.81140744921867
 21
237.25690265121588
  0
LINE
  8
_1-0_
  6
CONTINUOUS
 62
    7
 10
627.81140744921867
 20
237.25690265121588
 11
627.444716883169
 21
238.08864612492516
  0
LINE
  8
_1-0_
  6
CONTINUOUS
 62
    7
 10
627.444716883169
 20
238.08864612492516
 11
626.84595828115334
 21
238.86905344660914
  0
LINE
  8
_1-0_
  6
CONTINUOUS
 62
    7
 10
626.84595828115334
 20
238.86905344660914
 11
626.03332462030743
 21
239.57441233470359
  0
LINE
  8
_1-0_
  6
CONTINUOUS
 62
    7
 10
626.03332462030743
 20
239.57441233470359
 11
625.03150736320367
 21
240.18329081632259
  0
LINE
  8
_1-0_
  6
CONTINUOUS
 62
    7
 10
625.03150736320367
 20
240.18329081632259
 11
623.87094622025495
 21
240.67718842690956
  0
LINE
  8
_1-0_
  6
CONTINUOUS
 62
    7
 10
623.87094622025495
 20
240.67718842690956
 11
622.58690425451777
 21
241.04109833749103
  0
LINE
  8
_1-0_
  6
CONTINUOUS
 62
    7
 10
622.58690425451777
 20
241.04109833749103
 11
621.21839643136434
 21
241.26396332958125
  0
LINE
  8
_1-0_
  6
CONTINUOUS
 62
    7
 10
621.21839643136434
 20
241.26396332958125
 11
619.80700416850277
 21
241.33901176317075
  0
ARC
  8
_1-0_
  6
CONTINUOUS
 62
    7
 10
631.70978216850289
 20
236.39909513004744
 40
7.8472220000000012
 50
315.50195299999995
 51
44.498046999999957
  0
LINE
  8
_1-0_
  6
CONTINUOUS
 62
    7
 10
637.30700416850277
 20
230.89909513004744
 11
602.30700416850277
 21
230.89909513004744
  0
LINE
  8
_1-0_
  6
CONTINUOUS
 62
    7
 10
602.30700416850277
 20
241.89909513004744
 11
637.30700416850277
 21
241.89909513004744
  0
LINE
  8
_1-0_
  6
CONTINUOUS
 62
    7
 10
649.80700416850277
 20
264.69909513004745
 11
724.80700416850277
 21
264.69909513004745
  0
ARC
  8
_1-0_
  6
CONTINUOUS
 62
    7
 10
649.80700416850277
 20
247.19909513004745
 40
42.5
 50
90
 51
180
  0
ARC
  8
_1-0_
  6
CONTINUOUS
 62
    7
 10
649.80700416850277
 20
247.19909513004745
 40
17.5
 50
90
 51
180
  0
LINE
  8
_1-0_
  6
CONTINUOUS
 62
    7
 10
607.30700416850277
 20
247.19909513004745
 11
607.30700416850277
 21
241.89909513004744
  0
LINE
  8
_1-0_
  6
CONTINUOUS
 62
    7
 10
632.30700416850277
 20
247.19909513004745
 11
632.30700416850277
 21
241.89909513004744
  0
LINE
  8
_1-0_
  6
CONTINUOUS
 62
    7
 10
544.21854616850282
 20
276.28345590847362
 11
543.51285020307579
 21
276.20840747267664
  0
LINE
  8
_1-0_
  6
CONTINUOUS
 62
    7
 10
543.51285020307579
 20
276.20840747267664
 11
542.82859645245878
 21
275.98554247403103
  0
LINE
  8
_1-0_
  6
CONTINUOUS
 62
    7
 10
542.82859645245878
 20
275.98554247403103
 11
542.18657562061537
 21
275.62163255274549
  0
LINE
  8
_1-0_
  6
CONTINUOUS
 62
    7
 10
542.18657562061537
 20
275.62163255274549
 11
541.60629518564269
 21
275.12773492763102
  0
LINE
  8
_1-0_
  6
CONTINUOUS
 62
    7
 10
541.60629518564269
 20
275.12773492763102
 11
541.10538667492153
 21
274.51885642810242
  0
LINE
  8
_1-0_
  6
CONTINUOUS
 62
    7
 10
541.10538667492153
 20
274.51885642810242
 11
540.69906994007817
 21
273.81349751926052
  0
LINE
  8
_1-0_
  6
CONTINUOUS
 62
    7
 10
540.69906994007817
 20
273.81349751926052
 11
540.3996907094945
 21
273.03309017462163
  0
LINE
  8
_1-0_
  6
CONTINUOUS
 62
    7
 10
540.3996907094945
 20
273.03309017462163
 11
540.21634546959876
 21
272.20134667644742
  0
LINE
  8
_1-0_
  6
CONTINUOUS
 62
    7
 10
540.21634546959876
 20
272.20134667644742
 11
540.15460507272791
 21
271.34353913004741
  0
LINE
  8
_1-0_
  6
CONTINUOUS
 62
    7
 10
540.15460507272791
 20
271.34353913004741
 11
540.21634546959876
 21
270.4857315836474
  0
LINE
  8
_1-0_
  6
CONTINUOUS
 62
    7
 10
540.21634546959876
 20
270.4857315836474
 11
540.3996907094945
 21
269.65398808547325
  0
LINE
  8
_1-0_
  6
CONTINUOUS
 62
    7
 10
540.3996907094945
 20
269.65398808547325
 11
540.69906994007817
 21
268.87358074083431
  0
LINE
  8
_1-0_
  6
CONTINUOUS
 62
    7
 10
540.69906994007817
 20
268.87358074083431
 11
541.10538667492153
 21
268.16822183199241
  0
LINE
  8
_1-0_
  6
CONTINUOUS
 62
    7
 10
541.10538667492153
 20
268.16822183199241
 11
541.60629518564269
 21
267.55934333246381
  0
LINE
  8
_1-0_
  6
CONTINUOUS
 62
    7
 10
541.60629518564269
 20
267.55934333246381
 11
542.18657562061537
 21
267.06544570734934
  0
LINE
  8
_1-0_
  6
CONTINUOUS
 62
    7
 10
542.18657562061537
 20
267.06544570734934
 11
542.82859645245878
 21
266.7015357860638
  0
LINE
  8
_1-0_
  6
CONTINUOUS
 62
    7
 10
542.82859645245878
 20
266.7015357860638
 11
543.51285020307579
 21
266.47867078741825
  0
LINE
  8
_1-0_
  6
CONTINUOUS
 62
    7
 10
543.51285020307579
 20
266.47867078741825
 11
544.21854616850282
 21
266.40362235162126
  0
LINE
  8
_1-0_
  6
CONTINUOUS
 62
    7
 10
544.21854616850282
 20
266.40362235162126
 11
544.92424213392996
 21
266.47867078741825
  0
LINE
  8
_1-0_
  6
CONTINUOUS
 62
    7
 10
544.92424213392996
 20
266.47867078741825
 11
545.60849588454698
 21
266.7015357860638
  0
LINE
  8
_1-0_
  6
CONTINUOUS
 62
    7
 10
545.60849588454698
 20
266.7015357860638
 11
546.25051671639039
 21
267.06544570734934
  0
LINE
  8
_1-0_
  6
CONTINUOUS
 62
    7
 10
546.25051671639039
 20
267.06544570734934
 11
546.83079715136295
 21
267.55934333246381
  0
LINE
  8
_1-0_
  6
CONTINUOUS
 62
    7
 10
546.83079715136295
 20
267.55934333246381
 11
547.33170566208423
 21
268.16822183199241
  0
LINE
  8
_1-0_
  6
CONTINUOUS
 62
    7
 10
547.33170566208423
 20
268.16822183199241
 11
547.73802239692759
 21
268.87358074083431
  0
LINE
  8
_1-0_
  6
CONTINUOUS
 62
    7
 10
547.73802239692759
 20
268.87358074083431
 11
548.03740162751114
 21
269.6539880854732
  0
LINE
  8
_1-0_
  6
CONTINUOUS
 62
    7
 10
548.03740162751114
 20
269.6539880854732
 11
548.220746867407
 21
270.4857315836474
  0
LINE
  8
_1-0_
  6
CONTINUOUS
 62
    7
 10
548.220746867407
 20
270.4857315836474
 11
548.28248726427784
 21
271.34353913004741
  0
LINE
  8
_1-0_
  6
CONTINUOUS
 62
    7
 10
548.28248726427784
 20
271.34353913004741
 11
548.220746867407
 21
272.20134667644742
  0
LINE
  8
_1-0_
  6
CONTINUOUS
 62
    7
 10
548.220746867407
 20
272.20134667644742
 11
548.03740162751114
 21
273.03309017462163
  0
LINE
  8
_1-0_
  6
CONTINUOUS
 62
    7
 10
548.03740162751114
 20
273.03309017462163
 11
547.73802239692759
 21
273.81349751926052
  0
LINE
  8
_1-0_
  6
CONTINUOUS
 62
    7
 10
547.73802239692759
 20
273.81349751926052
 11
547.33170566208423
 21
274.51885642810242
  0
LINE
  8
_1-0_
  6
CONTINUOUS
 62
    7
 10
547.33170566208423
 20
274.51885642810242
 11
546.83079715136295
 21
275.12773492763096
  0
LINE
  8
_1-0_
  6
CONTINUOUS
 62
    7
 10
546.83079715136295
 20
275.12773492763096
 11
546.25051671639039
 21
275.62163255274549
  0
LINE
  8
_1-0_
  6
CONTINUOUS
 62
    7
 10
546.25051671639039
 20
275.62163255274549
 11
545.60849588454698
 21
275.98554247403103
  0
LINE
  8
_1-0_
  6
CONTINUOUS
 62
    7
 10
545.60849588454698
 20
275.98554247403103
 11
544.92424213392996
 21
276.20840747267664
  0
LINE
  8
_1-0_
  6
CONTINUOUS
 62
    7
 10
544.92424213392996
 20
276.20840747267664
 11
544.21854616850282
 21
276.28345590847362
  0
LINE
  8
_1-0_
  6
CONTINUOUS
 62
    7
 10
559.80700416850277
 20
276.28345576317076
 11
561.21839643136434
 21
276.20840732958123
  0
LINE
  8
_1-0_
  6
CONTINUOUS
 62
    7
 10
561.21839643136434
 20
276.20840732958123
 11
562.58690425451777
 21
275.98554233749098
  0
LINE
  8
_1-0_
  6
CONTINUOUS
 62
    7
 10
562.58690425451777
 20
275.98554233749098
 11
563.87094622025495
 21
275.62163242690951
  0
LINE
  8
_1-0_
  6
CONTINUOUS
 62
    7
 10
563.87094622025495
 20
275.62163242690951
 11
565.03150736320355
 21
275.12773481632257
  0
LINE
  8
_1-0_
  6
CONTINUOUS
 62
    7
 10
565.03150736320355
 20
275.12773481632257
 11
566.03332462030743
 21
274.51885633470357
  0
LINE
  8
_1-0_
  6
CONTINUOUS
 62
    7
 10
566.03332462030743
 20
274.51885633470357
 11
566.84595828115334
 21
273.81349744660911
  0
LINE
  8
_1-0_
  6
CONTINUOUS
 62
    7
 10
566.84595828115334
 20
273.81349744660911
 11
567.444716883169
 21
273.03309012492513
  0
LINE
  8
_1-0_
  6
CONTINUOUS
 62
    7
 10
567.444716883169
 20
273.03309012492513
 11
567.81140744921867
 21
272.20134665121588
  0
LINE
  8
_1-0_
  6
CONTINUOUS
 62
    7
 10
567.81140744921867
 20
272.20134665121588
 11
567.93488827200724
 21
271.34353913004741
  0
LINE
  8
_1-0_
  6
CONTINUOUS
 62
    7
 10
567.93488827200724
 20
271.34353913004741
 11
567.81140744921867
 21
270.485731608879
  0
LINE
  8
_1-0_
  6
CONTINUOUS
 62
    7
 10
567.81140744921867
 20
270.485731608879
 11
567.444716883169
 21
269.65398813516969
  0
LINE
  8
_1-0_
  6
CONTINUOUS
 62
    7
 10
567.444716883169
 20
269.65398813516969
 11
566.84595828115334
 21
268.87358081348577
  0
LINE
  8
_1-0_
  6
CONTINUOUS
 62
    7
 10
566.84595828115334
 20
268.87358081348577
 11
566.03332462030743
 21
268.16822192539132
  0
LINE
  8
_1-0_
  6
CONTINUOUS
 62
    7
 10
566.03332462030743
 20
268.16822192539132
 11
565.03150736320367
 21
267.55934344377226
  0
LINE
  8
_1-0_
  6
CONTINUOUS
 62
    7
 10
565.03150736320367
 20
267.55934344377226
 11
563.87094622025495
 21
267.06544583318532
  0
LINE
  8
_1-0_
  6
CONTINUOUS
 62
    7
 10
563.87094622025495
 20
267.06544583318532
 11
562.58690425451777
 21
266.70153592260385
  0
LINE
  8
_1-0_
  6
CONTINUOUS
 62
    7
 10
562.58690425451777
 20
266.70153592260385
 11
561.21839643136434
 21
266.47867093051365
  0
LINE
  8
_1-0_
  6
CONTINUOUS
 62
    7
 10
561.21839643136434
 20
266.47867093051365
 11
559.80700416850277
 21
266.40362249692412
  0
ARC
  8
_1-0_
  6
CONTINUOUS
 62
    7
 10
547.90422616850287
 20
271.34353913004741
 40
7.8472220000000012
 50
135.50195299999998
 51
224.49804700000001
  0
LINE
  8
_1-0_
  6
CONTINUOUS
 62
    7
 10
542.30700416850277
 20
265.84353913004741
 11
577.30700416850277
 21
265.84353913004741
  0
LINE
  8
_1-0_
  6
CONTINUOUS
 62
    7
 10
577.30700416850277
 20
276.84353913004741
 11
542.30700416850277
 21
276.84353913004741
  0
LINE
  8
_1-0_
  6
CONTINUOUS
 62
    7
 10
559.80700416850277
 20
355.32354776317072
 11
558.3956119056412
 21
355.24849932958125
  0
LINE
  8
_1-0_
  6
CONTINUOUS
 62
    7
 10
558.3956119056412
 20
355.24849932958125
 11
557.02710408248776
 21
355.02563433749099
  0
LINE
  8
_1-0_
  6
CONTINUOUS
 62
    7
 10
557.02710408248776
 20
355.02563433749099
 11
555.74306211675059
 21
354.66172442690952
  0
LINE
  8
_1-0_
  6
CONTINUOUS
 62
    7
 10
555.74306211675059
 20
354.66172442690952
 11
554.58250097380187
 21
354.16782681632258
  0
LINE
  8
_1-0_
  6
CONTINUOUS
 62
    7
 10
554.58250097380187
 20
354.16782681632258
 11
553.5806837166981
 21
353.55894833470358
  0
LINE
  8
_1-0_
  6
CONTINUOUS
 62
    7
 10
553.5806837166981
 20
353.55894833470358
 11
552.76805005585219
 21
352.85358944660913
  0
LINE
  8
_1-0_
  6
CONTINUOUS
 62
    7
 10
552.76805005585219
 20
352.85358944660913
 11
552.16929145383653
 21
352.07318212492515
  0
LINE
  8
_1-0_
  6
CONTINUOUS
 62
    7
 10
552.16929145383653
 20
352.07318212492515
 11
551.80260088778686
 21
351.24143865121584
  0
LINE
  8
_1-0_
  6
CONTINUOUS
 62
    7
 10
551.80260088778686
 20
351.24143865121584
 11
551.6791200649983
 21
350.38363113004743
  0
LINE
  8
_1-0_
  6
CONTINUOUS
 62
    7
 10
551.6791200649983
 20
350.38363113004743
 11
551.80260088778686
 21
349.52582360887902
  0
LINE
  8
_1-0_
  6
CONTINUOUS
 62
    7
 10
551.80260088778686
 20
349.52582360887902
 11
552.16929145383653
 21
348.69408013516971
  0
LINE
  8
_1-0_
  6
CONTINUOUS
 62
    7
 10
552.16929145383653
 20
348.69408013516971
 11
552.76805005585219
 21
347.91367281348573
  0
LINE
  8
_1-0_
  6
CONTINUOUS
 62
    7
 10
552.76805005585219
 20
347.91367281348573
 11
553.5806837166981
 21
347.20831392539128
  0
LINE
  8
_1-0_
  6
CONTINUOUS
 62
    7
 10
553.5806837166981
 20
347.20831392539128
 11
554.58250097380187
 21
346.59943544377227
  0
LINE
  8
_1-0_
  6
CONTINUOUS
 62
    7
 10
554.58250097380187
 20
346.59943544377227
 11
555.74306211675059
 21
346.10553783318533
  0
LINE
  8
_1-0_
  6
CONTINUOUS
 62
    7
 10
555.74306211675059
 20
346.10553783318533
 11
557.02710408248776
 21
345.74162792260386
  0
LINE
  8
_1-0_
  6
CONTINUOUS
 62
    7
 10
557.02710408248776
 20
345.74162792260386
 11
558.3956119056412
 21
345.51876293051361
  0
LINE
  8
_1-0_
  6
CONTINUOUS
 62
    7
 10
558.3956119056412
 20
345.51876293051361
 11
559.80700416850277
 21
345.44371449692414
  0
ARC
  8
_1-0_
  6
CONTINUOUS
 62
    7
 10
547.90422616850287
 20
350.38363113004743
 40
7.8472220000000012
 50
135.50195299999998
 51
224.49804700000001
  0
LINE
  8
_1-0_
  6
CONTINUOUS
 62
    7
 10
542.30700416850277
 20
355.88363113004743
 11
577.30700416850277
 21
355.88363113004743
  0
LINE
  8
_1-0_
  6
CONTINUOUS
 62
    7
 10
577.30700416850277
 20
344.88363113004743
 11
542.30700416850277
 21
344.88363113004743
  0
LINE
  8
_1-0_
  6
CONTINUOUS
 62
    7
 10
634.99100416850274
 20
230.89909513004744
 11
634.79100416850269
 21
230.69909513004745
  0
LINE
  8
_1-0_
  6
CONTINUOUS
 62
    7
 10
604.82300416850284
 20
230.69909513004745
 11
634.79100416850269
 21
230.69909513004745
  0
LINE
  8
_1-0_
  6
CONTINUOUS
 62
    7
 10
634.79100416850269
 20
230.69909513004745
 11
634.79100416850269
 21
230.89909513004744
  0
ARC
  8
_1-0_
  6
CONTINUOUS
 62
    7
 10
549.1570041685029
 20
264.13363113004743
 40
3
 50
169.13542899999998
 51
180
  0
LINE
  8
_1-0_
  6
CONTINUOUS
 62
    7
 10
543.80700416850277
 20
265.71509513004741
 11
544.82300416850284
 21
264.69909513004745
  0
LINE
  8
_1-0_
  6
CONTINUOUS
 62
    7
 10
543.80700416850277
 20
265.84353913004741
 11
543.80700416850277
 21
265.71509513004741
  0
LINE
  8
_1-0_
  6
CONTINUOUS
 62
    7
 10
543.80700416850277
 20
265.71509513004741
 11
575.80700416850277
 21
265.71509513004741
  0
LINE
  8
_1-0_
  6
CONTINUOUS
 62
    7
 10
574.79100416850292
 20
264.69909513004745
 11
544.82300416850284
 21
264.69909513004745
  0
ARC
  8
_1-0_
  6
CONTINUOUS
 62
    7
 10
542.30700416850277
 20
227.94803713004739
 40
5
 50
0
 51
23.038559999999996
  0
ARC
  8
_1-0_
  6
CONTINUOUS
 62
    7
 10
551.1570041685029
 20
232.69023513004739
 40
5
 50
180
 51
203.03855999999998
  0
LINE
  8
_1-0_
  6
CONTINUOUS
 62
    7
 10
546.55579616850286
 20
230.73348113004743
 11
546.90821216850281
 21
229.90479113004744
  0
ARC
  8
_1-0_
  6
CONTINUOUS
 62
    7
 10
568.45700416850286
 20
232.60537313004743
 40
5
 50
335.90160500000001
 51
0.0000000000000159
  0
ARC
  8
_1-0_
  6
CONTINUOUS
 62
    7
 10
577.30700416850277
 20
227.89978113004741
 40
5
 50
155.90160499999998
 51
180
  0
LINE
  8
_1-0_
  6
CONTINUOUS
 62
    7
 10
572.74277616850281
 20
229.94130513004745
 11
573.02123216850282
 21
230.5638491300474
  0
LINE
  8
_1-0_
  6
CONTINUOUS
 62
    7
 10
573.45700416850286
 20
232.60537313004743
 11
573.45700416850286
 21
264.69909513004745
  0
LINE
  8
_1-0_
  6
CONTINUOUS
 62
    7
 10
546.1570041685029
 20
232.69023513004739
 11
546.1570041685029
 21
264.13363113004743
  0
LINE
  8
_1-0_
  6
CONTINUOUS
 62
    7
 10
547.30700416850277
 20
226.69909513004745
 11
547.30700416850277
 21
227.94803713004739
  0
LINE
  8
_1-0_
  6
CONTINUOUS
 62
    7
 10
572.30700416850277
 20
226.69909513004745
 11
572.30700416850277
 21
227.89978113004741
  0
ARC
  8
_1-0_
  6
CONTINUOUS
 62
    7
 10
589.80700416850277
 20
226.69909513004745
 40
17.5
 50
180
 51
0
  0
ARC
  8
_1-0_
  6
CONTINUOUS
 62
    7
 10
589.80700416850277
 20
226.69909513004745
 40
42.5
 50
180
 51
0
  0
LINE
  8
_1-0_
  6
CONTINUOUS
 62
    7
 10
607.30700416850277
 20
226.69909513004745
 11
607.30700416850277
 21
230.69909513004745
  0
LINE
  8
_1-0_
  6
CONTINUOUS
 62
    7
 10
632.30700416850277
 20
226.69909513004745
 11
632.30700416850277
 21
230.69909513004745
  0
LINE
  8
_1-0_
  6
CONTINUOUS
 62
    7
 10
572.30700416850277
 20
344.88363113004743
 11
572.30700416850277
 21
276.84353913004741
  0
LINE
  8
_1-0_
  6
CONTINUOUS
 62
    7
 10
547.30700416850277
 20
344.88363113004743
 11
547.30700416850277
 21
276.84353913004741
  0
LINE
  8
_1-0_
  6
CONTINUOUS
 62
    7
 10
559.80700416850277
 20
266.40362249692412
 11
561.21839643136434
 21
266.47867093051365
  0
LINE
  8
_1-0_
  6
CONTINUOUS
 62
    7
 10
561.21839643136434
 20
266.47867093051365
 11
562.58690425451777
 21
266.70153592260385
  0
LINE
  8
_1-0_
  6
CONTINUOUS
 62
    7
 10
562.58690425451777
 20
266.70153592260385
 11
563.87094622025495
 21
267.06544583318532
  0
LINE
  8
_1-0_
  6
CONTINUOUS
 62
    7
 10
563.87094622025495
 20
267.06544583318532
 11
565.03150736320367
 21
267.55934344377226
  0
LINE
  8
_1-0_
  6
CONTINUOUS
 62
    7
 10
565.03150736320367
 20
267.55934344377226
 11
566.03332462030743
 21
268.16822192539132
  0
LINE
  8
_1-0_
  6
CONTINUOUS
 62
    7
 10
566.03332462030743
 20
268.16822192539132
 11
566.84595828115334
 21
268.87358081348577
  0
LINE
  8
_1-0_
  6
CONTINUOUS
 62
    7
 10
566.84595828115334
 20
268.87358081348577
 11
567.444716883169
 21
269.65398813516969
  0
LINE
  8
_1-0_
  6
CONTINUOUS
 62
    7
 10
567.444716883169
 20
269.65398813516969
 11
567.81140744921867
 21
270.485731608879
  0
LINE
  8
_1-0_
  6
CONTINUOUS
 62
    7
 10
567.81140744921867
 20
270.485731608879
 11
567.93488827200724
 21
271.34353913004741
  0
LINE
  8
_1-0_
  6
CONTINUOUS
 62
    7
 10
567.93488827200724
 20
271.34353913004741
 11
567.81140744921867
 21
272.20134665121588
  0
LINE
  8
_1-0_
  6
CONTINUOUS
 62
    7
 10
567.81140744921867
 20
272.20134665121588
 11
567.444716883169
 21
273.03309012492513
  0
LINE
  8
_1-0_
  6
CONTINUOUS
 62
    7
 10
567.444716883169
 20
273.03309012492513
 11
566.84595828115334
 21
273.81349744660911
  0
LINE
  8
_1-0_
  6
CONTINUOUS
 62
    7
 10
566.84595828115334
 20
273.81349744660911
 11
566.03332462030743
 21
274.51885633470357
  0
LINE
  8
_1-0_
  6
CONTINUOUS
 62
    7
 10
566.03332462030743
 20
274.51885633470357
 11
565.03150736320367
 21
275.12773481632257
  0
LINE
  8
_1-0_
  6
CONTINUOUS
 62
    7
 10
565.03150736320367
 20
275.12773481632257
 11
563.87094622025495
 21
275.62163242690951
  0
LINE
  8
_1-0_
  6
CONTINUOUS
 62
    7
 10
563.87094622025495
 20
275.62163242690951
 11
562.58690425451777
 21
275.98554233749098
  0
LINE
  8
_1-0_
  6
CONTINUOUS
 62
    7
 10
562.58690425451777
 20
275.98554233749098
 11
561.21839643136434
 21
276.20840732958123
  0
LINE
  8
_1-0_
  6
CONTINUOUS
 62
    7
 10
561.21839643136434
 20
276.20840732958123
 11
559.80700416850277
 21
276.28345576317076
  0
LINE
  8
_1-0_
  6
CONTINUOUS
 62
    7
 10
575.39546016850272
 20
276.28345590847362
 11
574.68976420307558
 21
276.20840747267664
  0
LINE
  8
_1-0_
  6
CONTINUOUS
 62
    7
 10
574.68976420307558
 20
276.20840747267664
 11
574.00551045245867
 21
275.98554247403103
  0
LINE
  8
_1-0_
  6
CONTINUOUS
 62
    7
 10
574.00551045245867
 20
275.98554247403103
 11
573.36348962061515
 21
275.62163255274549
  0
LINE
  8
_1-0_
  6
CONTINUOUS
 62
    7
 10
573.36348962061515
 20
275.62163255274549
 11
572.78320918564259
 21
275.12773492763102
  0
LINE
  8
_1-0_
  6
CONTINUOUS
 62
    7
 10
572.78320918564259
 20
275.12773492763102
 11
572.28230067492143
 21
274.51885642810242
  0
LINE
  8
_1-0_
  6
CONTINUOUS
 62
    7
 10
572.28230067492143
 20
274.51885642810242
 11
571.87598394007795
 21
273.81349751926052
  0
LINE
  8
_1-0_
  6
CONTINUOUS
 62
    7
 10
571.87598394007795
 20
273.81349751926052
 11
571.5766047094944
 21
273.03309017462163
  0
LINE
  8
_1-0_
  6
CONTINUOUS
 62
    7
 10
571.5766047094944
 20
273.03309017462163
 11
571.39325946959866
 21
272.20134667644742
  0
LINE
  8
_1-0_
  6
CONTINUOUS
 62
    7
 10
571.39325946959866
 20
272.20134667644742
 11
571.33151907272781
 21
271.34353913004741
  0
LINE
  8
_1-0_
  6
CONTINUOUS
 62
    7
 10
571.33151907272781
 20
271.34353913004741
 11
571.39325946959866
 21
270.4857315836474
  0
LINE
  8
_1-0_
  6
CONTINUOUS
 62
    7
 10
571.39325946959866
 20
270.4857315836474
 11
571.5766047094944
 21
269.65398808547325
  0
LINE
  8
_1-0_
  6
CONTINUOUS
 62
    7
 10
571.5766047094944
 20
269.65398808547325
 11
571.87598394007795
 21
268.87358074083431
  0
LINE
  8
_1-0_
  6
CONTINUOUS
 62
    7
 10
571.87598394007795
 20
268.87358074083431
 11
572.28230067492143
 21
268.16822183199241
  0
LINE
  8
_1-0_
  6
CONTINUOUS
 62
    7
 10
572.28230067492143
 20
268.16822183199241
 11
572.78320918564259
 21
267.55934333246381
  0
LINE
  8
_1-0_
  6
CONTINUOUS
 62
    7
 10
572.78320918564259
 20
267.55934333246381
 11
573.36348962061515
 21
267.06544570734934
  0
LINE
  8
_1-0_
  6
CONTINUOUS
 62
    7
 10
573.36348962061515
 20
267.06544570734934
 11
574.00551045245867
 21
266.7015357860638
  0
LINE
  8
_1-0_
  6
CONTINUOUS
 62
    7
 10
574.00551045245867
 20
266.7015357860638
 11
574.68976420307558
 21
266.47867078741825
  0
LINE
  8
_1-0_
  6
CONTINUOUS
 62
    7
 10
574.68976420307558
 20
266.47867078741825
 11
575.39546016850272
 21
266.40362235162126
  0
LINE
  8
_1-0_
  6
CONTINUOUS
 62
    7
 10
575.39546016850272
 20
266.40362235162126
 11
576.10115613392986
 21
266.47867078741825
  0
LINE
  8
_1-0_
  6
CONTINUOUS
 62
    7
 10
576.10115613392986
 20
266.47867078741825
 11
576.78540988454676
 21
266.7015357860638
  0
LINE
  8
_1-0_
  6
CONTINUOUS
 62
    7
 10
576.78540988454676
 20
266.7015357860638
 11
577.42743071639029
 21
267.06544570734934
  0
LINE
  8
_1-0_
  6
CONTINUOUS
 62
    7
 10
577.42743071639029
 20
267.06544570734934
 11
578.00771115136285
 21
267.55934333246381
  0
LINE
  8
_1-0_
  6
CONTINUOUS
 62
    7
 10
578.00771115136285
 20
267.55934333246381
 11
578.50861966208401
 21
268.16822183199241
  0
LINE
  8
_1-0_
  6
CONTINUOUS
 62
    7
 10
578.50861966208401
 20
268.16822183199241
 11
578.91493639692748
 21
268.87358074083431
  0
LINE
  8
_1-0_
  6
CONTINUOUS
 62
    7
 10
578.91493639692748
 20
268.87358074083431
 11
579.21431562751104
 21
269.6539880854732
  0
LINE
  8
_1-0_
  6
CONTINUOUS
 62
    7
 10
579.21431562751104
 20
269.6539880854732
 11
579.39766086740678
 21
270.4857315836474
  0
LINE
  8
_1-0_
  6
CONTINUOUS
 62
    7
 10
579.39766086740678
 20
270.4857315836474
 11
579.45940126427763
 21
271.34353913004741
  0
LINE
  8
_1-0_
  6
CONTINUOUS
 62
    7
 10
579.45940126427763
 20
271.34353913004741
 11
579.39766086740678
 21
272.20134667644742
  0
LINE
  8
_1-0_
  6
CONTINUOUS
 62
    7
 10
579.39766086740678
 20
272.20134667644742
 11
579.21431562751104
 21
273.03309017462163
  0
LINE
  8
_1-0_
  6
CONTINUOUS
 62
    7
 10
579.21431562751104
 20
273.03309017462163
 11
578.91493639692748
 21
273.81349751926052
  0
LINE
  8
_1-0_
  6
CONTINUOUS
 62
    7
 10
578.91493639692748
 20
273.81349751926052
 11
578.50861966208401
 21
274.51885642810242
  0
LINE
  8
_1-0_
  6
CONTINUOUS
 62
    7
 10
578.50861966208401
 20
274.51885642810242
 11
578.00771115136285
 21
275.12773492763096
  0
LINE
  8
_1-0_
  6
CONTINUOUS
 62
    7
 10
578.00771115136285
 20
275.12773492763096
 11
577.42743071639029
 21
275.62163255274549
  0
LINE
  8
_1-0_
  6
CONTINUOUS
 62
    7
 10
577.42743071639029
 20
275.62163255274549
 11
576.78540988454676
 21
275.98554247403103
  0
LINE
  8
_1-0_
  6
CONTINUOUS
 62
    7
 10
576.78540988454676
 20
275.98554247403103
 11
576.10115613392986
 21
276.20840747267664
  0
LINE
  8
_1-0_
  6
CONTINUOUS
 62
    7
 10
576.10115613392986
 20
276.20840747267664
 11
575.39546016850272
 21
276.28345590847362
  0
ARC
  8
_1-0_
  6
CONTINUOUS
 62
    7
 10
571.70978216850289
 20
271.34353913004741
 40
7.8472220000000012
 50
315.50195299999995
 51
44.498046999999957
  0
LINE
  8
_1-0_
  6
CONTINUOUS
 62
    7
 10
575.80700416850277
 20
265.71509513004741
 11
574.79100416850292
 21
264.69909513004745
  0
LINE
  8
_1-0_
  6
CONTINUOUS
 62
    7
 10
575.80700416850277
 20
265.84353913004741
 11
575.80700416850277
 21
265.71509513004741
  0
LINE
  8
_1-0_
  6
CONTINUOUS
 62
    7
 10
559.80700416850277
 20
345.44371449692414
 11
558.3956119056412
 21
345.51876293051361
  0
LINE
  8
_1-0_
  6
CONTINUOUS
 62
    7
 10
558.3956119056412
 20
345.51876293051361
 11
557.02710408248776
 21
345.74162792260386
  0
LINE
  8
_1-0_
  6
CONTINUOUS
 62
    7
 10
557.02710408248776
 20
345.74162792260386
 11
555.74306211675059
 21
346.10553783318533
  0
LINE
  8
_1-0_
  6
CONTINUOUS
 62
    7
 10
555.74306211675059
 20
346.10553783318533
 11
554.58250097380198
 21
346.59943544377227
  0
LINE
  8
_1-0_
  6
CONTINUOUS
 62
    7
 10
554.58250097380198
 20
346.59943544377227
 11
553.5806837166981
 21
347.20831392539128
  0
LINE
  8
_1-0_
  6
CONTINUOUS
 62
    7
 10
553.5806837166981
 20
347.20831392539128
 11
552.76805005585219
 21
347.91367281348573
  0
LINE
  8
_1-0_
  6
CONTINUOUS
 62
    7
 10
552.76805005585219
 20
347.91367281348573
 11
552.16929145383653
 21
348.69408013516971
  0
LINE
  8
_1-0_
  6
CONTINUOUS
 62
    7
 10
552.16929145383653
 20
348.69408013516971
 11
551.80260088778686
 21
349.52582360887902
  0
LINE
  8
_1-0_
  6
CONTINUOUS
 62
    7
 10
551.80260088778686
 20
349.52582360887902
 11
551.6791200649983
 21
350.38363113004743
  0
LINE
  8
_1-0_
  6
CONTINUOUS
 62
    7
 10
551.6791200649983
 20
350.38363113004743
 11
551.80260088778686
 21
351.24143865121584
  0
LINE
  8
_1-0_
  6
CONTINUOUS
 62
    7
 10
551.80260088778686
 20
351.24143865121584
 11
552.16929145383653
 21
352.07318212492515
  0
LINE
  8
_1-0_
  6
CONTINUOUS
 62
    7
 10
552.16929145383653
 20
352.07318212492515
 11
552.76805005585219
 21
352.85358944660913
  0
LINE
  8
_1-0_
  6
CONTINUOUS
 62
    7
 10
552.76805005585219
 20
352.85358944660913
 11
553.5806837166981
 21
353.55894833470358
  0
LINE
  8
_1-0_
  6
CONTINUOUS
 62
    7
 10
553.5806837166981
 20
353.55894833470358
 11
554.58250097380187
 21
354.16782681632258
  0
LINE
  8
_1-0_
  6
CONTINUOUS
 62
    7
 10
554.58250097380187
 20
354.16782681632258
 11
555.74306211675059
 21
354.66172442690952
  0
LINE
  8
_1-0_
  6
CONTINUOUS
 62
    7
 10
555.74306211675059
 20
354.66172442690952
 11
557.02710408248776
 21
355.02563433749099
  0
LINE
  8
_1-0_
  6
CONTINUOUS
 62
    7
 10
557.02710408248776
 20
355.02563433749099
 11
558.3956119056412
 21
355.24849932958125
  0
LINE
  8
_1-0_
  6
CONTINUOUS
 62
    7
 10
558.3956119056412
 20
355.24849932958125
 11
559.80700416850277
 21
355.32354776317072
  0
ARC
  8
_1-0_
  6
CONTINUOUS
 62
    7
 10
571.70978216850289
 20
350.38363113004743
 40
7.8472220000000012
 50
315.50195299999995
 51
44.498046999999957
  0
LINE
  8
_1-0_
  6
CONTINUOUS
 62
    7
 10
575.39546016850272
 20
345.44371435162122
 11
576.10115613392986
 21
345.51876278741826
  0
LINE
  8
_1-0_
  6
CONTINUOUS
 62
    7
 10
576.10115613392986
 20
345.51876278741826
 11
576.78540988454676
 21
345.74162778606381
  0
LINE
  8
_1-0_
  6
CONTINUOUS
 62
    7
 10
576.78540988454676
 20
345.74162778606381
 11
577.42743071639029
 21
346.10553770734935
  0
LINE
  8
_1-0_
  6
CONTINUOUS
 62
    7
 10
577.42743071639029
 20
346.10553770734935
 11
578.00771115136285
 21
346.59943533246382
  0
LINE
  8
_1-0_
  6
CONTINUOUS
 62
    7
 10
578.00771115136285
 20
346.59943533246382
 11
578.50861966208401
 21
347.20831383199242
  0
LINE
  8
_1-0_
  6
CONTINUOUS
 62
    7
 10
578.50861966208401
 20
347.20831383199242
 11
578.91493639692748
 21
347.91367274083432
  0
LINE
  8
_1-0_
  6
CONTINUOUS
 62
    7
 10
578.91493639692748
 20
347.91367274083432
 11
579.21431562751104
 21
348.69408008547327
  0
LINE
  8
_1-0_
  6
CONTINUOUS
 62
    7
 10
579.21431562751104
 20
348.69408008547327
 11
579.39766086740678
 21
349.52582358364742
  0
LINE
  8
_1-0_
  6
CONTINUOUS
 62
    7
 10
579.39766086740678
 20
349.52582358364742
 11
579.45940126427763
 21
350.38363113004743
  0
LINE
  8
_1-0_
  6
CONTINUOUS
 62
    7
 10
579.45940126427763
 20
350.38363113004743
 11
579.39766086740678
 21
351.24143867644744
  0
LINE
  8
_1-0_
  6
CONTINUOUS
 62
    7
 10
579.39766086740678
 20
351.24143867644744
 11
579.21431562751104
 21
352.07318217462159
  0
LINE
  8
_1-0_
  6
CONTINUOUS
 62
    7
 10
579.21431562751104
 20
352.07318217462159
 11
578.91493639692748
 21
352.85358951926053
  0
LINE
  8
_1-0_
  6
CONTINUOUS
 62
    7
 10
578.91493639692748
 20
352.85358951926053
 11
578.50861966208401
 21
353.55894842810243
  0
LINE
  8
_1-0_
  6
CONTINUOUS
 62
    7
 10
578.50861966208401
 20
353.55894842810243
 11
578.00771115136285
 21
354.16782692763104
  0
LINE
  8
_1-0_
  6
CONTINUOUS
 62
    7
 10
578.00771115136285
 20
354.16782692763104
 11
577.42743071639029
 21
354.66172455274551
  0
LINE
  8
_1-0_
  6
CONTINUOUS
 62
    7
 10
577.42743071639029
 20
354.66172455274551
 11
576.78540988454676
 21
355.02563447403105
  0
LINE
  8
_1-0_
  6
CONTINUOUS
 62
    7
 10
576.78540988454676
 20
355.02563447403105
 11
576.10115613392986
 21
355.24849947267659
  0
LINE
  8
_1-0_
  6
CONTINUOUS
 62
    7
 10
576.10115613392986
 20
355.24849947267659
 11
575.39546016850272
 21
355.32354790847364
  0
LINE
  8
_1-0_
  6
CONTINUOUS
 62
    7
 10
575.39546016850272
 20
355.32354790847364
 11
574.68976420307558
 21
355.24849947267659
  0
LINE
  8
_1-0_
  6
CONTINUOUS
 62
    7
 10
574.68976420307558
 20
355.24849947267659
 11
574.00551045245867
 21
355.02563447403105
  0
LINE
  8
_1-0_
  6
CONTINUOUS
 62
    7
 10
574.00551045245867
 20
355.02563447403105
 11
573.36348962061515
 21
354.66172455274551
  0
LINE
  8
_1-0_
  6
CONTINUOUS
 62
    7
 10
573.36348962061515
 20
354.66172455274551
 11
572.78320918564259
 21
354.16782692763104
  0
LINE
  8
_1-0_
  6
CONTINUOUS
 62
    7
 10
572.78320918564259
 20
354.16782692763104
 11
572.28230067492143
 21
353.55894842810243
  0
LINE
  8
_1-0_
  6
CONTINUOUS
 62
    7
 10
572.28230067492143
 20
353.55894842810243
 11
571.87598394007795
 21
352.85358951926053
  0
LINE
  8
_1-0_
  6
CONTINUOUS
 62
    7
 10
571.87598394007795
 20
352.85358951926053
 11
571.5766047094944
 21
352.07318217462164
  0
LINE
  8
_1-0_
  6
CONTINUOUS
 62
    7
 10
571.5766047094944
 20
352.07318217462164
 11
571.39325946959866
 21
351.24143867644744
  0
LINE
  8
_1-0_
  6
CONTINUOUS
 62
    7
 10
571.39325946959866
 20
351.24143867644744
 11
571.33151907272781
 21
350.38363113004743
  0
LINE
  8
_1-0_
  6
CONTINUOUS
 62
    7
 10
571.33151907272781
 20
350.38363113004743
 11
571.39325946959866
 21
349.52582358364742
  0
LINE
  8
_1-0_
  6
CONTINUOUS
 62
    7
 10
571.39325946959866
 20
349.52582358364742
 11
571.5766047094944
 21
348.69408008547327
  0
LINE
  8
_1-0_
  6
CONTINUOUS
 62
    7
 10
571.5766047094944
 20
348.69408008547327
 11
571.87598394007795
 21
347.91367274083438
  0
LINE
  8
_1-0_
  6
CONTINUOUS
 62
    7
 10
571.87598394007795
 20
347.91367274083438
 11
572.28230067492143
 21
347.20831383199242
  0
LINE
  8
_1-0_
  6
CONTINUOUS
 62
    7
 10
572.28230067492143
 20
347.20831383199242
 11
572.78320918564259
 21
346.59943533246388
  0
LINE
  8
_1-0_
  6
CONTINUOUS
 62
    7
 10
572.78320918564259
 20
346.59943533246388
 11
573.36348962061515
 21
346.10553770734935
  0
LINE
  8
_1-0_
  6
CONTINUOUS
 62
    7
 10
573.36348962061515
 20
346.10553770734935
 11
574.00551045245867
 21
345.74162778606381
  0
LINE
  8
_1-0_
  6
CONTINUOUS
 62
    7
 10
574.00551045245867
 20
345.74162778606381
 11
574.68976420307558
 21
345.51876278741826
  0
LINE
  8
_1-0_
  6
CONTINUOUS
 62
    7
 10
574.68976420307558
 20
345.51876278741826
 11
575.39546016850272
 21
345.44371435162122
  0
LINE
  8
_1-0_
  6
CONTINUOUS
 62
    7
 10
619.80700416850277
 20
241.33901176317075
 11
621.21839643136434
 21
241.26396332958128
  0
LINE
  8
_1-0_
  6
CONTINUOUS
 62
    7
 10
621.21839643136434
 20
241.26396332958128
 11
622.58690425451777
 21
241.04109833749103
  0
LINE
  8
_1-0_
  6
CONTINUOUS
 62
    7
 10
622.58690425451777
 20
241.04109833749103
 11
623.87094622025495
 21
240.67718842690956
  0
LINE
  8
_1-0_
  6
CONTINUOUS
 62
    7
 10
623.87094622025495
 20
240.67718842690956
 11
625.03150736320355
 21
240.18329081632259
  0
LINE
  8
_1-0_
  6
CONTINUOUS
 62
    7
 10
625.03150736320355
 20
240.18329081632259
 11
626.03332462030743
 21
239.57441233470359
  0
LINE
  8
_1-0_
  6
CONTINUOUS
 62
    7
 10
626.03332462030743
 20
239.57441233470359
 11
626.84595828115334
 21
238.86905344660914
  0
LINE
  8
_1-0_
  6
CONTINUOUS
 62
    7
 10
626.84595828115334
 20
238.86905344660914
 11
627.444716883169
 21
238.08864612492516
  0
LINE
  8
_1-0_
  6
CONTINUOUS
 62
    7
 10
627.444716883169
 20
238.08864612492516
 11
627.81140744921867
 21
237.25690265121588
  0
LINE
  8
_1-0_
  6
CONTINUOUS
 62
    7
 10
627.81140744921867
 20
237.25690265121588
 11
627.93488827200724
 21
236.39909513004744
  0
LINE
  8
_1-0_
  6
CONTINUOUS
 62
    7
 10
627.93488827200724
 20
236.39909513004744
 11
627.81140744921867
 21
235.54128760887903
  0
LINE
  8
_1-0_
  6
CONTINUOUS
 62
    7
 10
627.81140744921867
 20
235.54128760887903
 11
627.444716883169
 21
234.70954413516975
  0
LINE
  8
_1-0_
  6
CONTINUOUS
 62
    7
 10
627.444716883169
 20
234.70954413516975
 11
626.84595828115334
 21
233.92913681348576
  0
LINE
  8
_1-0_
  6
CONTINUOUS
 62
    7
 10
626.84595828115334
 20
233.92913681348576
 11
626.03332462030743
 21
233.22377792539131
  0
LINE
  8
_1-0_
  6
CONTINUOUS
 62
    7
 10
626.03332462030743
 20
233.22377792539131
 11
625.03150736320367
 21
232.61489944377228
  0
LINE
  8
_1-0_
  6
CONTINUOUS
 62
    7
 10
625.03150736320367
 20
232.61489944377228
 11
623.87094622025495
 21
232.12100183318534
  0
LINE
  8
_1-0_
  6
CONTINUOUS
 62
    7
 10
623.87094622025495
 20
232.12100183318534
 11
622.58690425451777
 21
231.75709192260387
  0
LINE
  8
_1-0_
  6
CONTINUOUS
 62
    7
 10
622.58690425451777
 20
231.75709192260387
 11
621.21839643136434
 21
231.53422693051365
  0
LINE
  8
_1-0_
  6
CONTINUOUS
 62
    7
 10
621.21839643136434
 20
231.53422693051365
 11
619.80700416850277
 21
231.45917849692415
  0
LINE
  8
_1-0_
  6
CONTINUOUS
 62
    7
 10
604.21854616850282
 20
241.33901190847365
 11
603.51285020307579
 21
241.26396347267663
  0
LINE
  8
_1-0_
  6
CONTINUOUS
 62
    7
 10
603.51285020307579
 20
241.26396347267663
 11
602.82859645245878
 21
241.04109847403105
  0
LINE
  8
_1-0_
  6
CONTINUOUS
 62
    7
 10
602.82859645245878
 20
241.04109847403105
 11
602.18657562061537
 21
240.67718855274551
  0
LINE
  8
_1-0_
  6
CONTINUOUS
 62
    7
 10
602.18657562061537
 20
240.67718855274551
 11
601.60629518564269
 21
240.18329092763104
  0
LINE
  8
_1-0_
  6
CONTINUOUS
 62
    7
 10
601.60629518564269
 20
240.18329092763104
 11
601.10538667492153
 21
239.57441242810244
  0
LINE
  8
_1-0_
  6
CONTINUOUS
 62
    7
 10
601.10538667492153
 20
239.57441242810244
 11
600.69906994007817
 21
238.86905351926057
  0
LINE
  8
_1-0_
  6
CONTINUOUS
 62
    7
 10
600.69906994007817
 20
238.86905351926057
 11
600.3996907094945
 21
238.08864617462162
  0
LINE
  8
_1-0_
  6
CONTINUOUS
 62
    7
 10
600.3996907094945
 20
238.08864617462162
 11
600.21634546959876
 21
237.25690267644745
  0
LINE
  8
_1-0_
  6
CONTINUOUS
 62
    7
 10
600.21634546959876
 20
237.25690267644745
 11
600.15460507272791
 21
236.39909513004744
  0
LINE
  8
_1-0_
  6
CONTINUOUS
 62
    7
 10
600.15460507272791
 20
236.39909513004744
 11
600.21634546959876
 21
235.54128758364745
  0
LINE
  8
_1-0_
  6
CONTINUOUS
 62
    7
 10
600.21634546959876
 20
235.54128758364745
 11
600.3996907094945
 21
234.70954408547328
  0
LINE
  8
_1-0_
  6
CONTINUOUS
 62
    7
 10
600.3996907094945
 20
234.70954408547328
 11
600.69906994007817
 21
233.92913674083433
  0
LINE
  8
_1-0_
  6
CONTINUOUS
 62
    7
 10
600.69906994007817
 20
233.92913674083433
 11
601.10538667492153
 21
233.22377783199243
  0
LINE
  8
_1-0_
  6
CONTINUOUS
 62
    7
 10
601.10538667492153
 20
233.22377783199243
 11
601.60629518564269
 21
232.61489933246383
  0
LINE
  8
_1-0_
  6
CONTINUOUS
 62
    7
 10
601.60629518564269
 20
232.61489933246383
 11
602.18657562061537
 21
232.12100170734936
  0
LINE
  8
_1-0_
  6
CONTINUOUS
 62
    7
 10
602.18657562061537
 20
232.12100170734936
 11
602.82859645245878
 21
231.75709178606382
  0
LINE
  8
_1-0_
  6
CONTINUOUS
 62
    7
 10
602.82859645245878
 20
231.75709178606382
 11
603.51285020307579
 21
231.53422678741827
  0
LINE
  8
_1-0_
  6
CONTINUOUS
 62
    7
 10
603.51285020307579
 20
231.53422678741827
 11
604.21854616850282
 21
231.45917835162126
  0
LINE
  8
_1-0_
  6
CONTINUOUS
 62
    7
 10
604.21854616850282
 20
231.45917835162126
 11
604.92424213392996
 21
231.53422678741827
  0
LINE
  8
_1-0_
  6
CONTINUOUS
 62
    7
 10
604.92424213392996
 20
231.53422678741827
 11
605.60849588454698
 21
231.75709178606382
  0
LINE
  8
_1-0_
  6
CONTINUOUS
 62
    7
 10
605.60849588454698
 20
231.75709178606382
 11
606.25051671639039
 21
232.12100170734936
  0
LINE
  8
_1-0_
  6
CONTINUOUS
 62
    7
 10
606.25051671639039
 20
232.12100170734936
 11
606.83079715136295
 21
232.61489933246383
  0
LINE
  8
_1-0_
  6
CONTINUOUS
 62
    7
 10
606.83079715136295
 20
232.61489933246383
 11
607.33170566208423
 21
233.22377783199243
  0
LINE
  8
_1-0_
  6
CONTINUOUS
 62
    7
 10
607.33170566208423
 20
233.22377783199243
 11
607.73802239692759
 21
233.92913674083433
  0
LINE
  8
_1-0_
  6
CONTINUOUS
 62
    7
 10
607.73802239692759
 20
233.92913674083433
 11
608.03740162751114
 21
234.70954408547322
  0
LINE
  8
_1-0_
  6
CONTINUOUS
 62
    7
 10
608.03740162751114
 20
234.70954408547322
 11
608.220746867407
 21
235.54128758364745
  0
LINE
  8
_1-0_
  6
CONTINUOUS
 62
    7
 10
608.220746867407
 20
235.54128758364745
 11
608.28248726427784
 21
236.39909513004744
  0
LINE
  8
_1-0_
  6
CONTINUOUS
 62
    7
 10
608.28248726427784
 20
236.39909513004744
 11
608.220746867407
 21
237.25690267644745
  0
LINE
  8
_1-0_
  6
CONTINUOUS
 62
    7
 10
608.220746867407
 20
237.25690267644745
 11
608.03740162751114
 21
238.08864617462162
  0
LINE
  8
_1-0_
  6
CONTINUOUS
 62
    7
 10
608.03740162751114
 20
238.08864617462162
 11
607.73802239692759
 21
238.86905351926051
  0
LINE
  8
_1-0_
  6
CONTINUOUS
 62
    7
 10
607.73802239692759
 20
238.86905351926051
 11
607.33170566208423
 21
239.57441242810244
  0
LINE
  8
_1-0_
  6
CONTINUOUS
 62
    7
 10
607.33170566208423
 20
239.57441242810244
 11
606.83079715136295
 21
240.18329092763102
  0
LINE
  8
_1-0_
  6
CONTINUOUS
 62
    7
 10
606.83079715136295
 20
240.18329092763102
 11
606.25051671639039
 21
240.67718855274551
  0
LINE
  8
_1-0_
  6
CONTINUOUS
 62
    7
 10
606.25051671639039
 20
240.67718855274551
 11
605.60849588454698
 21
241.04109847403105
  0
LINE
  8
_1-0_
  6
CONTINUOUS
 62
    7
 10
605.60849588454698
 20
241.04109847403105
 11
604.92424213392996
 21
241.26396347267663
  0
LINE
  8
_1-0_
  6
CONTINUOUS
 62
    7
 10
604.92424213392996
 20
241.26396347267663
 11
604.21854616850282
 21
241.33901190847365
  0
ARC
  8
_1-0_
  6
CONTINUOUS
 62
    7
 10
607.90422616850264
 20
236.39909513004744
 40
7.8472220000000012
 50
135.50195299999998
 51
224.49804700000001
  0
LINE
  8
_1-0_
  6
CONTINUOUS
 62
    7
 10
604.82300416850284
 20
230.69909513004745
 11
604.82300416850284
 21
230.89909513004744
  0
LINE
  8
_1-0_
  6
CONTINUOUS
 62
    7
 10
604.6230041685028
 20
230.89909513004744
 11
604.82300416850284
 21
230.69909513004745
  0
LINE
  8
_1-0_
  6
CONTINUOUS
 62
    7
 10
649.80700416850277
 20
289.69909513004745
 11
724.80700416850277
 21
289.69909513004745
  0
LINE
  8
_1-0_
  6
CONTINUOUS
 62
    7
 10
739.80700416850277
 20
264.69909513004745
 11
769.80700416850277
 21
264.69909513004745
  0
LINE
  8
_1-0_
  6
CONTINUOUS
 62
    7
 10
739.80700416850277
 20
247.19909513004745
 11
738.80700416850277
 21
247.19909513004745
  0
LINE
  8
_1-0_
  6
CONTINUOUS
 62
    7
 10
739.80700416850277
 20
307.19909513004745
 11
739.80700416850277
 21
247.19909513004745
  0
LINE
  8
_1-0_
  6
CONTINUOUS
 62
    7
 10
769.80700416850277
 20
289.69909513004745
 11
769.80700416850277
 21
264.69909513004745
  0
LINE
  8
_1-0_
  6
CONTINUOUS
 62
    7
 10
739.80700416850277
 20
307.19909513004745
 11
738.80700416850277
 21
307.19909513004745
  0
LINE
  8
_1-0_
  6
CONTINUOUS
 62
    7
 10
739.80700416850277
 20
289.69909513004745
 11
769.80700416850277
 21
289.69909513004745
  0
LINE
  8
_1-0_
  6
CONTINUOUS
 62
    7
 10
559.80700416850277
 20
345.44371449692414
 11
561.21839643136434
 21
345.51876293051361
  0
LINE
  8
_1-0_
  6
CONTINUOUS
 62
    7
 10
561.21839643136434
 20
345.51876293051361
 11
562.58690425451777
 21
345.74162792260386
  0
LINE
  8
_1-0_
  6
CONTINUOUS
 62
    7
 10
562.58690425451777
 20
345.74162792260386
 11
563.87094622025495
 21
346.10553783318533
  0
LINE
  8
_1-0_
  6
CONTINUOUS
 62
    7
 10
563.87094622025495
 20
346.10553783318533
 11
565.03150736320367
 21
346.59943544377227
  0
LINE
  8
_1-0_
  6
CONTINUOUS
 62
    7
 10
565.03150736320367
 20
346.59943544377227
 11
566.03332462030743
 21
347.20831392539128
  0
LINE
  8
_1-0_
  6
CONTINUOUS
 62
    7
 10
566.03332462030743
 20
347.20831392539128
 11
566.84595828115334
 21
347.91367281348573
  0
LINE
  8
_1-0_
  6
CONTINUOUS
 62
    7
 10
566.84595828115334
 20
347.91367281348573
 11
567.444716883169
 21
348.69408013516971
  0
LINE
  8
_1-0_
  6
CONTINUOUS
 62
    7
 10
567.444716883169
 20
348.69408013516971
 11
567.81140744921867
 21
349.52582360887902
  0
LINE
  8
_1-0_
  6
CONTINUOUS
 62
    7
 10
567.81140744921867
 20
349.52582360887902
 11
567.93488827200724
 21
350.38363113004743
  0
LINE
  8
_1-0_
  6
CONTINUOUS
 62
    7
 10
567.93488827200724
 20
350.38363113004743
 11
567.81140744921867
 21
351.24143865121584
  0
LINE
  8
_1-0_
  6
CONTINUOUS
 62
    7
 10
567.81140744921867
 20
351.24143865121584
 11
567.444716883169
 21
352.07318212492515
  0
LINE
  8
_1-0_
  6
CONTINUOUS
 62
    7
 10
567.444716883169
 20
352.07318212492515
 11
566.84595828115334
 21
352.85358944660913
  0
LINE
  8
_1-0_
  6
CONTINUOUS
 62
    7
 10
566.84595828115334
 20
352.85358944660913
 11
566.03332462030743
 21
353.55894833470358
  0
LINE
  8
_1-0_
  6
CONTINUOUS
 62
    7
 10
566.03332462030743
 20
353.55894833470358
 11
565.03150736320367
 21
354.16782681632258
  0
LINE
  8
_1-0_
  6
CONTINUOUS
 62
    7
 10
565.03150736320367
 20
354.16782681632258
 11
563.87094622025495
 21
354.66172442690952
  0
LINE
  8
_1-0_
  6
CONTINUOUS
 62
    7
 10
563.87094622025495
 20
354.66172442690952
 11
562.58690425451777
 21
355.02563433749099
  0
LINE
  8
_1-0_
  6
CONTINUOUS
 62
    7
 10
562.58690425451777
 20
355.02563433749099
 11
561.21839643136434
 21
355.24849932958125
  0
LINE
  8
_1-0_
  6
CONTINUOUS
 62
    7
 10
561.21839643136434
 20
355.24849932958125
 11
559.80700416850277
 21
355.32354776317072
  0
LINE
  8
_1-0_
  6
CONTINUOUS
 62
    7
 10
559.80700416850277
 20
355.32354776317072
 11
561.21839643136434
 21
355.24849932958125
  0
LINE
  8
_1-0_
  6
CONTINUOUS
 62
    7
 10
561.21839643136434
 20
355.24849932958125
 11
562.58690425451777
 21
355.02563433749099
  0
LINE
  8
_1-0_
  6
CONTINUOUS
 62
    7
 10
562.58690425451777
 20
355.02563433749099
 11
563.87094622025495
 21
354.66172442690952
  0
LINE
  8
_1-0_
  6
CONTINUOUS
 62
    7
 10
563.87094622025495
 20
354.66172442690952
 11
565.03150736320355
 21
354.16782681632258
  0
LINE
  8
_1-0_
  6
CONTINUOUS
 62
    7
 10
565.03150736320355
 20
354.16782681632258
 11
566.03332462030743
 21
353.55894833470358
  0
LINE
  8
_1-0_
  6
CONTINUOUS
 62
    7
 10
566.03332462030743
 20
353.55894833470358
 11
566.84595828115334
 21
352.85358944660913
  0
LINE
  8
_1-0_
  6
CONTINUOUS
 62
    7
 10
566.84595828115334
 20
352.85358944660913
 11
567.444716883169
 21
352.07318212492515
  0
LINE
  8
_1-0_
  6
CONTINUOUS
 62
    7
 10
567.444716883169
 20
352.07318212492515
 11
567.81140744921867
 21
351.24143865121584
  0
LINE
  8
_1-0_
  6
CONTINUOUS
 62
    7
 10
567.81140744921867
 20
351.24143865121584
 11
567.93488827200724
 21
350.38363113004743
  0
LINE
  8
_1-0_
  6
CONTINUOUS
 62
    7
 10
567.93488827200724
 20
350.38363113004743
 11
567.81140744921867
 21
349.52582360887902
  0
LINE
  8
_1-0_
  6
CONTINUOUS
 62
    7
 10
567.81140744921867
 20
349.52582360887902
 11
567.444716883169
 21
348.69408013516971
  0
LINE
  8
_1-0_
  6
CONTINUOUS
 62
    7
 10
567.444716883169
 20
348.69408013516971
 11
566.84595828115334
 21
347.91367281348573
  0
LINE
  8
_1-0_
  6
CONTINUOUS
 62
    7
 10
566.84595828115334
 20
347.91367281348573
 11
566.03332462030743
 21
347.20831392539128
  0
LINE
  8
_1-0_
  6
CONTINUOUS
 62
    7
 10
566.03332462030743
 20
347.20831392539128
 11
565.03150736320367
 21
346.59943544377227
  0
LINE
  8
_1-0_
  6
CONTINUOUS
 62
    7
 10
565.03150736320367
 20
346.59943544377227
 11
563.87094622025495
 21
346.10553783318533
  0
LINE
  8
_1-0_
  6
CONTINUOUS
 62
    7
 10
563.87094622025495
 20
346.10553783318533
 11
562.58690425451777
 21
345.74162792260386
  0
LINE
  8
_1-0_
  6
CONTINUOUS
 62
    7
 10
562.58690425451777
 20
345.74162792260386
 11
561.21839643136434
 21
345.51876293051361
  0
LINE
  8
_1-0_
  6
CONTINUOUS
 62
    7
 10
561.21839643136434
 20
345.51876293051361
 11
559.80700416850277
 21
345.44371449692414
  0
LINE
  8
_1-0_
  6
CONTINUOUS
 62
    7
 10
559.80700416850277
 20
266.40362249692412
 11
558.3956119056412
 21
266.47867093051365
  0
LINE
  8
_1-0_
  6
CONTINUOUS
 62
    7
 10
558.3956119056412
 20
266.47867093051365
 11
557.02710408248776
 21
266.70153592260385
  0
LINE
  8
_1-0_
  6
CONTINUOUS
 62
    7
 10
557.02710408248776
 20
266.70153592260385
 11
555.74306211675059
 21
267.06544583318532
  0
LINE
  8
_1-0_
  6
CONTINUOUS
 62
    7
 10
555.74306211675059
 20
267.06544583318532
 11
554.58250097380198
 21
267.55934344377226
  0
LINE
  8
_1-0_
  6
CONTINUOUS
 62
    7
 10
554.58250097380198
 20
267.55934344377226
 11
553.5806837166981
 21
268.16822192539132
  0
LINE
  8
_1-0_
  6
CONTINUOUS
 62
    7
 10
553.5806837166981
 20
268.16822192539132
 11
552.76805005585219
 21
268.87358081348577
  0
LINE
  8
_1-0_
  6
CONTINUOUS
 62
    7
 10
552.76805005585219
 20
268.87358081348577
 11
552.16929145383653
 21
269.65398813516969
  0
LINE
  8
_1-0_
  6
CONTINUOUS
 62
    7
 10
552.16929145383653
 20
269.65398813516969
 11
551.80260088778686
 21
270.485731608879
  0
LINE
  8
_1-0_
  6
CONTINUOUS
 62
    7
 10
551.80260088778686
 20
270.485731608879
 11
551.6791200649983
 21
271.34353913004741
  0
LINE
  8
_1-0_
  6
CONTINUOUS
 62
    7
 10
551.6791200649983
 20
271.34353913004741
 11
551.80260088778686
 21
272.20134665121588
  0
LINE
  8
_1-0_
  6
CONTINUOUS
 62
    7
 10
551.80260088778686
 20
272.20134665121588
 11
552.16929145383653
 21
273.03309012492513
  0
LINE
  8
_1-0_
  6
CONTINUOUS
 62
    7
 10
552.16929145383653
 20
273.03309012492513
 11
552.76805005585219
 21
273.81349744660911
  0
LINE
  8
_1-0_
  6
CONTINUOUS
 62
    7
 10
552.76805005585219
 20
273.81349744660911
 11
553.5806837166981
 21
274.51885633470357
  0
LINE
  8
_1-0_
  6
CONTINUOUS
 62
    7
 10
553.5806837166981
 20
274.51885633470357
 11
554.58250097380187
 21
275.12773481632257
  0
LINE
  8
_1-0_
  6
CONTINUOUS
 62
    7
 10
554.58250097380187
 20
275.12773481632257
 11
555.74306211675059
 21
275.62163242690951
  0
LINE
  8
_1-0_
  6
CONTINUOUS
 62
    7
 10
555.74306211675059
 20
275.62163242690951
 11
557.02710408248776
 21
275.98554233749098
  0
LINE
  8
_1-0_
  6
CONTINUOUS
 62
    7
 10
557.02710408248776
 20
275.98554233749098
 11
558.3956119056412
 21
276.20840732958123
  0
LINE
  8
_1-0_
  6
CONTINUOUS
 62
    7
 10
558.3956119056412
 20
276.20840732958123
 11
559.80700416850277
 21
276.28345576317076
  0
LINE
  8
_1-0_
  6
CONTINUOUS
 62
    7
 10
559.80700416850277
 20
276.28345576317076
 11
558.3956119056412
 21
276.20840732958123
  0
LINE
  8
_1-0_
  6
CONTINUOUS
 62
    7
 10
558.3956119056412
 20
276.20840732958123
 11
557.02710408248776
 21
275.98554233749098
  0
LINE
  8
_1-0_
  6
CONTINUOUS
 62
    7
 10
557.02710408248776
 20
275.98554233749098
 11
555.74306211675059
 21
275.62163242690951
  0
LINE
  8
_1-0_
  6
CONTINUOUS
 62
    7
 10
555.74306211675059
 20
275.62163242690951
 11
554.58250097380187
 21
275.12773481632257
  0
LINE
  8
_1-0_
  6
CONTINUOUS
 62
    7
 10
554.58250097380187
 20
275.12773481632257
 11
553.5806837166981
 21
274.51885633470357
  0
LINE
  8
_1-0_
  6
CONTINUOUS
 62
    7
 10
553.5806837166981
 20
274.51885633470357
 11
552.76805005585219
 21
273.81349744660911
  0
LINE
  8
_1-0_
  6
CONTINUOUS
 62
    7
 10
552.76805005585219
 20
273.81349744660911
 11
552.16929145383653
 21
273.03309012492513
  0
LINE
  8
_1-0_
  6
CONTINUOUS
 62
    7
 10
552.16929145383653
 20
273.03309012492513
 11
551.80260088778686
 21
272.20134665121588
  0
LINE
  8
_1-0_
  6
CONTINUOUS
 62
    7
 10
551.80260088778686
 20
272.20134665121588
 11
551.6791200649983
 21
271.34353913004741
  0
LINE
  8
_1-0_
  6
CONTINUOUS
 62
    7
 10
551.6791200649983
 20
271.34353913004741
 11
551.80260088778686
 21
270.485731608879
  0
LINE
  8
_1-0_
  6
CONTINUOUS
 62
    7
 10
551.80260088778686
 20
270.485731608879
 11
552.16929145383653
 21
269.65398813516969
  0
LINE
  8
_1-0_
  6
CONTINUOUS
 62
    7
 10
552.16929145383653
 20
269.65398813516969
 11
552.76805005585219
 21
268.87358081348577
  0
LINE
  8
_1-0_
  6
CONTINUOUS
 62
    7
 10
552.76805005585219
 20
268.87358081348577
 11
553.5806837166981
 21
268.16822192539132
  0
LINE
  8
_1-0_
  6
CONTINUOUS
 62
    7
 10
553.5806837166981
 20
268.16822192539132
 11
554.58250097380187
 21
267.55934344377226
  0
LINE
  8
_1-0_
  6
CONTINUOUS
 62
    7
 10
554.58250097380187
 20
267.55934344377226
 11
555.74306211675059
 21
267.06544583318532
  0
LINE
  8
_1-0_
  6
CONTINUOUS
 62
    7
 10
555.74306211675059
 20
267.06544583318532
 11
557.02710408248776
 21
266.70153592260385
  0
LINE
  8
_1-0_
  6
CONTINUOUS
 62
    7
 10
557.02710408248776
 20
266.70153592260385
 11
558.3956119056412
 21
266.47867093051365
  0
LINE
  8
_1-0_
  6
CONTINUOUS
 62
    7
 10
558.3956119056412
 20
266.47867093051365
 11
559.80700416850277
 21
266.40362249692412
  0
LINE
  8
_1-0_
  6
CENTER1
 62
    4
 10
619.80700416850277
 20
226.69909513004745
 11
619.80700416850277
 21
247.19909513004745
  0
LINE
  8
_1-0_
  6
CONTINUOUS
 62
    7
 10
619.80700416850277
 20
241.33901176317075
 11
618.3956119056412
 21
241.26396332958125
  0
LINE
  8
_1-0_
  6
CONTINUOUS
 62
    7
 10
618.3956119056412
 20
241.26396332958125
 11
617.02710408248776
 21
241.04109833749103
  0
LINE
  8
_1-0_
  6
CONTINUOUS
 62
    7
 10
617.02710408248776
 20
241.04109833749103
 11
615.74306211675059
 21
240.67718842690956
  0
LINE
  8
_1-0_
  6
CONTINUOUS
 62
    7
 10
615.74306211675059
 20
240.67718842690956
 11
614.58250097380187
 21
240.18329081632259
  0
LINE
  8
_1-0_
  6
CONTINUOUS
 62
    7
 10
614.58250097380187
 20
240.18329081632259
 11
613.5806837166981
 21
239.57441233470359
  0
LINE
  8
_1-0_
  6
CONTINUOUS
 62
    7
 10
613.5806837166981
 20
239.57441233470359
 11
612.76805005585219
 21
238.86905344660914
  0
LINE
  8
_1-0_
  6
CONTINUOUS
 62
    7
 10
612.76805005585219
 20
238.86905344660914
 11
612.16929145383653
 21
238.08864612492516
  0
LINE
  8
_1-0_
  6
CONTINUOUS
 62
    7
 10
612.16929145383653
 20
238.08864612492516
 11
611.80260088778686
 21
237.25690265121588
  0
LINE
  8
_1-0_
  6
CONTINUOUS
 62
    7
 10
611.80260088778686
 20
237.25690265121588
 11
611.6791200649983
 21
236.39909513004744
  0
LINE
  8
_1-0_
  6
CONTINUOUS
 62
    7
 10
611.6791200649983
 20
236.39909513004744
 11
611.80260088778686
 21
235.54128760887903
  0
LINE
  8
_1-0_
  6
CONTINUOUS
 62
    7
 10
611.80260088778686
 20
235.54128760887903
 11
612.16929145383653
 21
234.70954413516975
  0
LINE
  8
_1-0_
  6
CONTINUOUS
 62
    7
 10
612.16929145383653
 20
234.70954413516975
 11
612.76805005585219
 21
233.92913681348576
  0
LINE
  8
_1-0_
  6
CONTINUOUS
 62
    7
 10
612.76805005585219
 20
233.92913681348576
 11
613.5806837166981
 21
233.22377792539131
  0
LINE
  8
_1-0_
  6
CONTINUOUS
 62
    7
 10
613.5806837166981
 20
233.22377792539131
 11
614.58250097380187
 21
232.61489944377228
  0
LINE
  8
_1-0_
  6
CONTINUOUS
 62
    7
 10
614.58250097380187
 20
232.61489944377228
 11
615.74306211675059
 21
232.12100183318534
  0
LINE
  8
_1-0_
  6
CONTINUOUS
 62
    7
 10
615.74306211675059
 20
232.12100183318534
 11
617.02710408248776
 21
231.75709192260387
  0
LINE
  8
_1-0_
  6
CONTINUOUS
 62
    7
 10
617.02710408248776
 20
231.75709192260387
 11
618.3956119056412
 21
231.53422693051365
  0
LINE
  8
_1-0_
  6
CONTINUOUS
 62
    7
 10
618.3956119056412
 20
231.53422693051365
 11
619.80700416850277
 21
231.45917849692415
  0
LINE
  8
_1-0_
  6
CONTINUOUS
 62
    7
 10
619.80700416850277
 20
231.45917849692415
 11
618.3956119056412
 21
231.53422693051362
  0
LINE
  8
_1-0_
  6
CONTINUOUS
 62
    7
 10
618.3956119056412
 20
231.53422693051362
 11
617.02710408248776
 21
231.75709192260387
  0
LINE
  8
_1-0_
  6
CONTINUOUS
 62
    7
 10
617.02710408248776
 20
231.75709192260387
 11
615.74306211675059
 21
232.12100183318534
  0
LINE
  8
_1-0_
  6
CONTINUOUS
 62
    7
 10
615.74306211675059
 20
232.12100183318534
 11
614.58250097380198
 21
232.61489944377228
  0
LINE
  8
_1-0_
  6
CONTINUOUS
 62
    7
 10
614.58250097380198
 20
232.61489944377228
 11
613.5806837166981
 21
233.22377792539131
  0
LINE
  8
_1-0_
  6
CONTINUOUS
 62
    7
 10
613.5806837166981
 20
233.22377792539131
 11
612.76805005585219
 21
233.92913681348576
  0
LINE
  8
_1-0_
  6
CONTINUOUS
 62
    7
 10
612.76805005585219
 20
233.92913681348576
 11
612.16929145383653
 21
234.70954413516975
  0
LINE
  8
_1-0_
  6
CONTINUOUS
 62
    7
 10
612.16929145383653
 20
234.70954413516975
 11
611.80260088778686
 21
235.54128760887903
  0
LINE
  8
_1-0_
  6
CONTINUOUS
 62
    7
 10
611.80260088778686
 20
235.54128760887903
 11
611.6791200649983
 21
236.39909513004744
  0
LINE
  8
_1-0_
  6
CONTINUOUS
 62
    7
 10
611.6791200649983
 20
236.39909513004744
 11
611.80260088778686
 21
237.25690265121588
  0
LINE
  8
_1-0_
  6
CONTINUOUS
 62
    7
 10
611.80260088778686
 20
237.25690265121588
 11
612.16929145383653
 21
238.08864612492516
  0
LINE
  8
_1-0_
  6
CONTINUOUS
 62
    7
 10
612.16929145383653
 20
238.08864612492516
 11
612.76805005585219
 21
238.86905344660914
  0
LINE
  8
_1-0_
  6
CONTINUOUS
 62
    7
 10
612.76805005585219
 20
238.86905344660914
 11
613.5806837166981
 21
239.57441233470359
  0
LINE
  8
_1-0_
  6
CONTINUOUS
 62
    7
 10
613.5806837166981
 20
239.57441233470359
 11
614.58250097380187
 21
240.18329081632259
  0
LINE
  8
_1-0_
  6
CONTINUOUS
 62
    7
 10
614.58250097380187
 20
240.18329081632259
 11
615.74306211675059
 21
240.67718842690956
  0
LINE
  8
_1-0_
  6
CONTINUOUS
 62
    7
 10
615.74306211675059
 20
240.67718842690956
 11
617.02710408248776
 21
241.04109833749103
  0
LINE
  8
_1-0_
  6
CONTINUOUS
 62
    7
 10
617.02710408248776
 20
241.04109833749103
 11
618.3956119056412
 21
241.26396332958125
  0
LINE
  8
_1-0_
  6
CONTINUOUS
 62
    7
 10
618.3956119056412
 20
241.26396332958125
 11
619.80700416850277
 21
241.33901176317075
  0
ARC
  8
_1-0_
  6
CONTINUOUS
 62
    7
 10
547.90422616850287
 20
350.38363113004743
 40
7.8472220000000012
 50
135.50195300000004
 51
224.49804700000001
  0
LINE
  8
_1-0_
  6
CONTINUOUS
 62
    7
 10
544.21854816850282
 20
345.44371435162122
 11
544.92424413392996
 21
345.51876278741826
  0
LINE
  8
_1-0_
  6
CONTINUOUS
 62
    7
 10
544.92424413392996
 20
345.51876278741826
 11
545.60849788454686
 21
345.74162778606381
  0
LINE
  8
_1-0_
  6
CONTINUOUS
 62
    7
 10
545.60849788454686
 20
345.74162778606381
 11
546.25051871639038
 21
346.10553770734935
  0
LINE
  8
_1-0_
  6
CONTINUOUS
 62
    7
 10
546.25051871639038
 20
346.10553770734935
 11
546.83079915136295
 21
346.59943533246382
  0
LINE
  8
_1-0_
  6
CONTINUOUS
 62
    7
 10
546.83079915136295
 20
346.59943533246382
 11
547.33170766208411
 21
347.20831383199242
  0
LINE
  8
_1-0_
  6
CONTINUOUS
 62
    7
 10
547.33170766208411
 20
347.20831383199242
 11
547.73802439692758
 21
347.91367274083432
  0
LINE
  8
_1-0_
  6
CONTINUOUS
 62
    7
 10
547.73802439692758
 20
347.91367274083432
 11
548.03740362751113
 21
348.69408008547327
  0
LINE
  8
_1-0_
  6
CONTINUOUS
 62
    7
 10
548.03740362751113
 20
348.69408008547327
 11
548.22074886740688
 21
349.52582358364742
  0
LINE
  8
_1-0_
  6
CONTINUOUS
 62
    7
 10
548.22074886740688
 20
349.52582358364742
 11
548.28248926427772
 21
350.38363113004743
  0
LINE
  8
_1-0_
  6
CONTINUOUS
 62
    7
 10
548.28248926427772
 20
350.38363113004743
 11
548.22074886740688
 21
351.24143867644744
  0
LINE
  8
_1-0_
  6
CONTINUOUS
 62
    7
 10
548.22074886740688
 20
351.24143867644744
 11
548.03740362751113
 21
352.07318217462159
  0
LINE
  8
_1-0_
  6
CONTINUOUS
 62
    7
 10
548.03740362751113
 20
352.07318217462159
 11
547.73802439692758
 21
352.85358951926053
  0
LINE
  8
_1-0_
  6
CONTINUOUS
 62
    7
 10
547.73802439692758
 20
352.85358951926053
 11
547.33170766208411
 21
353.55894842810243
  0
LINE
  8
_1-0_
  6
CONTINUOUS
 62
    7
 10
547.33170766208411
 20
353.55894842810243
 11
546.83079915136295
 21
354.16782692763104
  0
LINE
  8
_1-0_
  6
CONTINUOUS
 62
    7
 10
546.83079915136295
 20
354.16782692763104
 11
546.25051871639038
 21
354.66172455274551
  0
LINE
  8
_1-0_
  6
CONTINUOUS
 62
    7
 10
546.25051871639038
 20
354.66172455274551
 11
545.60849788454686
 21
355.02563447403105
  0
LINE
  8
_1-0_
  6
CONTINUOUS
 62
    7
 10
545.60849788454686
 20
355.02563447403105
 11
544.92424413392996
 21
355.24849947267659
  0
LINE
  8
_1-0_
  6
CONTINUOUS
 62
    7
 10
544.92424413392996
 20
355.24849947267659
 11
544.21854816850282
 21
355.32354790847364
  0
LINE
  8
_1-0_
  6
CONTINUOUS
 62
    7
 10
544.21854816850282
 20
355.32354790847364
 11
543.51285220307568
 21
355.24849947267659
  0
LINE
  8
_1-0_
  6
CONTINUOUS
 62
    7
 10
543.51285220307568
 20
355.24849947267659
 11
542.82859845245877
 21
355.02563447403105
  0
LINE
  8
_1-0_
  6
CONTINUOUS
 62
    7
 10
542.82859845245877
 20
355.02563447403105
 11
542.18657762061525
 21
354.66172455274551
  0
LINE
  8
_1-0_
  6
CONTINUOUS
 62
    7
 10
542.18657762061525
 20
354.66172455274551
 11
541.60629718564268
 21
354.16782692763104
  0
LINE
  8
_1-0_
  6
CONTINUOUS
 62
    7
 10
541.60629718564268
 20
354.16782692763104
 11
541.10538867492152
 21
353.55894842810243
  0
LINE
  8
_1-0_
  6
CONTINUOUS
 62
    7
 10
541.10538867492152
 20
353.55894842810243
 11
540.69907194007805
 21
352.85358951926053
  0
LINE
  8
_1-0_
  6
CONTINUOUS
 62
    7
 10
540.69907194007805
 20
352.85358951926053
 11
540.3996927094945
 21
352.07318217462164
  0
LINE
  8
_1-0_
  6
CONTINUOUS
 62
    7
 10
540.3996927094945
 20
352.07318217462164
 11
540.21634746959875
 21
351.24143867644744
  0
LINE
  8
_1-0_
  6
CONTINUOUS
 62
    7
 10
540.21634746959875
 20
351.24143867644744
 11
540.15460707272791
 21
350.38363113004743
  0
LINE
  8
_1-0_
  6
CONTINUOUS
 62
    7
 10
540.15460707272791
 20
350.38363113004743
 11
540.21634746959875
 21
349.52582358364742
  0
LINE
  8
_1-0_
  6
CONTINUOUS
 62
    7
 10
540.21634746959875
 20
349.52582358364742
 11
540.3996927094945
 21
348.69408008547327
  0
LINE
  8
_1-0_
  6
CONTINUOUS
 62
    7
 10
540.3996927094945
 20
348.69408008547327
 11
540.69907194007805
 21
347.91367274083438
  0
LINE
  8
_1-0_
  6
CONTINUOUS
 62
    7
 10
540.69907194007805
 20
347.91367274083438
 11
541.10538867492152
 21
347.20831383199242
  0
LINE
  8
_1-0_
  6
CONTINUOUS
 62
    7
 10
541.10538867492152
 20
347.20831383199242
 11
541.60629718564268
 21
346.59943533246388
  0
LINE
  8
_1-0_
  6
CONTINUOUS
 62
    7
 10
541.60629718564268
 20
346.59943533246388
 11
542.18657762061525
 21
346.10553770734935
  0
LINE
  8
_1-0_
  6
CONTINUOUS
 62
    7
 10
542.18657762061525
 20
346.10553770734935
 11
542.82859845245877
 21
345.74162778606381
  0
LINE
  8
_1-0_
  6
CONTINUOUS
 62
    7
 10
542.82859845245877
 20
345.74162778606381
 11
543.51285220307568
 21
345.51876278741826
  0
LINE
  8
_1-0_
  6
CONTINUOUS
 62
    7
 10
543.51285220307568
 20
345.51876278741826
 11
544.21854816850282
 21
345.44371435162122
  0
LINE
  8
_1-0_
  6
CONTINUOUS
 62
    4
 10
628.88907810846171
 20
333.4704262722725
 11
530.05700416850277
 21
333.4704262722725
  0
LINE
  8
_1-0_
  6
CONTINUOUS
 62
    7
 10
540.05700416850277
 20
333.4704262722725
 11
534.2614492107682
 21
331.91751200165737
  0
LINE
  8
_1-0_
  6
CONTINUOUS
 62
    7
 10
540.05700416850277
 20
333.4704262722725
 11
534.2614492107682
 21
335.02334054288758
  0
LINE
  8
_1-0_
  6
CONTINUOUS
 62
    7
 10
579.55700416850277
 20
333.4704262722725
 11
585.35255912623711
 21
335.02334054288758
  0
LINE
  8
_1-0_
  6
CONTINUOUS
 62
    7
 10
579.55700416850277
 20
333.4704262722725
 11
585.35255912623711
 21
331.91751200165737
  0
LINE
  8
_1-0_
  6
CONTINUOUS
 62
    4
 10
579.55700416850277
 20
333.4704262722725
 11
579.55700416850277
 21
350.38363113004743
  0
LINE
  8
_1-0_
  6
CONTINUOUS
 62
    4
 10
540.05700416850277
 20
333.4704262722725
 11
540.05700416850277
 21
350.38363113004743
  0
LINE
  8
_1-0_
  6
CONTINUOUS
 62
    7
 10
540.05700416850277
 20
289.02629687338776
 11
534.2614492107682
 21
287.47338260277263
  0
LINE
  8
_1-0_
  6
CONTINUOUS
 62
    7
 10
540.05700416850277
 20
289.02629687338776
 11
534.2614492107682
 21
290.57921114400289
  0
LINE
  8
_1-0_
  6
CONTINUOUS
 62
    7
 10
579.55700416850277
 20
289.02629687338776
 11
585.35255912623711
 21
290.57921114400289
  0
LINE
  8
_1-0_
  6
CONTINUOUS
 62
    7
 10
579.55700416850277
 20
289.02629687338776
 11
585.35255912623711
 21
287.47338260277263
  0
LINE
  8
_1-0_
  6
CONTINUOUS
 62
    4
 10
579.55700416850277
 20
289.02629687338776
 11
579.55700416850277
 21
271.34353913004741
  0
LINE
  8
_1-0_
  6
CONTINUOUS
 62
    4
 10
540.05700416850277
 20
289.02629687338776
 11
540.05700416850277
 21
271.34353913004741
  0
LINE
  8
_1-0_
  6
CONTINUOUS
 62
    4
 10
600.15460507272791
 20
311.2483615728301
 11
590.15460507272791
 21
311.2483615728301
  0
LINE
  8
_1-0_
  6
CONTINUOUS
 62
    4
 10
639.55700416850277
 20
311.2483615728301
 11
649.55700416850277
 21
311.2483615728301
  0
LINE
  8
_1-0_
  6
CONTINUOUS
 62
    4
 10
600.15460507272791
 20
311.2483615728301
 11
639.55700416850277
 21
311.2483615728301
  0
LINE
  8
_1-0_
  6
CONTINUOUS
 62
    7
 10
600.15460507272791
 20
311.2483615728301
 11
594.35905011499335
 21
309.69544730221497
  0
LINE
  8
_1-0_
  6
CONTINUOUS
 62
    7
 10
600.15460507272791
 20
311.2483615728301
 11
594.35905011499335
 21
312.80127584344523
  0
LINE
  8
_1-0_
  6
CONTINUOUS
 62
    7
 10
639.55700416850277
 20
311.2483615728301
 11
645.35255912623733
 21
312.80127584344523
  0
LINE
  8
_1-0_
  6
CONTINUOUS
 62
    7
 10
639.55700416850277
 20
311.2483615728301
 11
645.35255912623733
 21
309.69544730221497
  0
LINE
  8
_1-0_
  6
CONTINUOUS
 62
    4
 10
600.15460507272791
 20
311.2483615728301
 11
600.15460507272791
 21
236.39909513004744
  0
LINE
  8
_1-0_
  6
CONTINUOUS
 62
    4
 10
639.55700416850277
 20
311.2483615728301
 11
639.55700416850277
 21
236.39909513004744
  0
LINE
  8
_1-0_
  6
CONTINUOUS
 62
    4
 10
688.98667901268686
 20
311.2483615728301
 11
590.15460507272791
 21
311.2483615728301
  0
LINE
  8
_1-0_
  6
CONTINUOUS
 62
    4
 10
793.36481402409799
 20
289.69909461542033
 11
793.36481402409799
 21
264.69909461542033
  0
LINE
  8
_1-0_
  6
CONTINUOUS
 62
    7
 10
793.36481402409799
 20
289.69909461542033
 11
794.91772829471324
 21
283.90353965768593
  0
LINE
  8
_1-0_
  6
CONTINUOUS
 62
    7
 10
793.36481402409799
 20
289.69909461542033
 11
791.81189975348297
 21
283.90353965768593
  0
LINE
  8
_1-0_
  6
CONTINUOUS
 62
    7
 10
793.36481402409799
 20
264.69909461542033
 11
791.81189975348297
 21
270.49464957315478
  0
LINE
  8
_1-0_
  6
CONTINUOUS
 62
    7
 10
793.36481402409799
 20
264.69909461542033
 11
794.91772829471324
 21
270.49464957315478
  0
LINE
  8
_1-0_
  6
CONTINUOUS
 62
    4
 10
774.97235806058642
 20
289.69909461542033
 11
793.36481402409799
 21
289.69909461542033
  0
LINE
  8
_1-0_
  6
CONTINUOUS
 62
    4
 10
774.97235806058642
 20
264.69909461542033
 11
793.36481402409799
 21
264.69909461542033
  0
LINE
  8
_1-0_
  6
CONTINUOUS
 62
    4
 10
809.04362894381301
 20
247.19909461542033
 11
809.04362894381301
 21
307.19909461542033
  0
LINE
  8
_1-0_
  6
CONTINUOUS
 62
    7
 10
809.04362894381301
 20
247.19909461542033
 11
807.49071467319799
 21
252.99464957315475
  0
LINE
  8
_1-0_
  6
CONTINUOUS
 62
    7
 10
809.04362894381301
 20
247.19909461542033
 11
810.59654321442803
 21
252.99464957315475
  0
LINE
  8
_1-0_
  6
CONTINUOUS
 62
    7
 10
809.04362894381301
 20
307.19909461542033
 11
810.59654321442803
 21
301.40353965768593
  0
LINE
  8
_1-0_
  6
CONTINUOUS
 62
    7
 10
809.04362894381301
 20
307.19909461542033
 11
807.49071467319799
 21
301.40353965768593
  0
LINE
  8
_1-0_
  6
CONTINUOUS
 62
    4
 10
742.40866553502451
 20
247.19909461542039
 11
809.04362894381301
 21
247.19909461542033
  0
LINE
  8
_1-0_
  6
CONTINUOUS
 62
    4
 10
742.40866553502451
 20
307.19909461542039
 11
809.04362894381301
 21
307.19909461542033
  0
LINE
  8
_1-0_
  6
CONTINUOUS
 62
    4
 10
559.80700416850277
 20
150.64238940570169
 11
619.80700416850277
 21
150.64238940570169
  0
LINE
  8
_1-0_
  6
CONTINUOUS
 62
    7
 10
559.80700416850277
 20
150.64238940570169
 11
565.60255912623733
 21
152.19530367631682
  0
LINE
  8
_1-0_
  6
CONTINUOUS
 62
    7
 10
559.80700416850277
 20
150.64238940570169
 11
565.60255912623733
 21
149.08947513508658
  0
LINE
  8
_1-0_
  6
CONTINUOUS
 62
    7
 10
619.80700416850277
 20
150.64238940570169
 11
614.01144921076843
 21
149.08947513508658
  0
LINE
  8
_1-0_
  6
CONTINUOUS
 62
    7
 10
619.80700416850277
 20
150.64238940570169
 11
614.01144921076843
 21
152.19530367631682
  0
LINE
  8
_1-0_
  6
CONTINUOUS
 62
    4
 10
559.80700416850277
 20
150.64238940570169
 11
559.80700416850277
 21
223.25617787879673
  0
LINE
  8
_1-0_
  6
CONTINUOUS
 62
    4
 10
619.80700416850277
 20
150.64238940570169
 11
619.80700416850277
 21
223.25617787879673
  0
LINE
  8
_1-0_
  6
CONTINUOUS
 62
    4
 10
619.80700416850277
 20
150.64238940570169
 11
769.80700416850277
 21
150.64238940570169
  0
LINE
  8
_1-0_
  6
CONTINUOUS
 62
    7
 10
619.80700416850277
 20
150.64238940570169
 11
625.60255912623733
 21
152.19530367631682
  0
LINE
  8
_1-0_
  6
CONTINUOUS
 62
    7
 10
619.80700416850277
 20
150.64238940570169
 11
625.60255912623733
 21
149.08947513508658
  0
LINE
  8
_1-0_
  6
CONTINUOUS
 62
    7
 10
769.80700416850277
 20
150.64238940570169
 11
764.01144921076843
 21
149.08947513508658
  0
LINE
  8
_1-0_
  6
CONTINUOUS
 62
    7
 10
769.80700416850277
 20
150.64238940570169
 11
764.01144921076843
 21
152.19530367631682
  0
LINE
  8
_1-0_
  6
CONTINUOUS
 62
    4
 10
769.80700416850277
 20
150.64238940570169
 11
769.80700416850277
 21
223.25617787879673
  0
LINE
  8
_1-0_
  6
CONTINUOUS
 62
    4
 10
670.08857324897098
 20
196.69909513004745
 11
670.08857324897098
 21
277.19221341618026
  0
LINE
  8
_1-0_
  6
CONTINUOUS
 62
    7
 10
670.08857324897098
 20
196.69909513004745
 11
668.53565897835574
 21
202.49465008778184
  0
LINE
  8
_1-0_
  6
CONTINUOUS
 62
    7
 10
670.08857324897098
 20
196.69909513004745
 11
671.641487519586
 21
202.49465008778184
  0
LINE
  8
_1-0_
  6
CONTINUOUS
 62
    7
 10
670.08857324897098
 20
277.19221341618026
 11
671.641487519586
 21
271.39665845844581
  0
LINE
  8
_1-0_
  6
CONTINUOUS
 62
    7
 10
670.08857324897098
 20
277.19221341618026
 11
668.53565897835574
 21
271.39665845844581
  0
LINE
  8
_1-0_
  6
CONTINUOUS
 62
    4
 10
670.08857324897098
 20
277.19221341618026
 11
649.16431760526756
 21
277.19221341618026
  0
LINE
  8
_1-0_
  6
CONTINUOUS
 62
    7
 10
642.30700416850277
 20
121.04885934568258
 11
642.30700416850277
 21
114.04885934568258
  0
LINE
  8
_1-0_
  6
CONTINUOUS
 62
    7
 10
642.30700416850277
 20
114.04885934568258
 11
687.30700416850277
 21
114.04885934568258
  0
LINE
  8
_1-0_
  6
CONTINUOUS
 62
    7
 10
687.30700416850277
 20
114.04885934568258
 11
687.30700416850277
 21
121.04885934568258
  0
LINE
  8
_1-0_
  6
CONTINUOUS
 62
    7
 10
687.30700416850277
 20
121.04885934568258
 11
642.30700416850277
 21
121.04885934568258
  0
TEXT
  8
_1-0_
 62
    7
 10
655.80700416850277
 20
115.54885934568258
 40
4
 41
1
 50
0
  1
Pトラップ
  0
TEXT
  8
_1-0_
 62
    7
 10
689.30700416850277
 20
115.54885934568258
 40
4
 41
1
 50
0
  1
S=1/2
  0
TEXT
  8
_1-0_
 62
    7
 10
587.40963404816602
 20
334.4704262722725
 40
5
 41
1
 50
0
  1
六角対辺36.0
  0
TEXT
  8
_1-0_
 62
    7
 10
646.62424773983411
 20
312.45633349843728
 40
5
 41
1
 50
0
  1
六角対辺36.0
  0
TEXT
  8
_1-0_
 62
    7
 10
792.36481402409799
 20
266.94909461542033
 40
5
 41
1
 50
90
  1
φ25.0
  0
TEXT
  8
_1-0_
 62
    7
 10
808.04362894381301
 20
266.94909461542033
 40
5
 41
1
 50
90
  1
φ60.0
  0
TEXT
  8
_1-0_
 62
    7
 10
583.05700416850277
 20
151.64238940570169
 40
5
 41
1
 50
0
  1
60.0
  0
TEXT
  8
_1-0_
 62
    7
 10
679.55700416850277
 20
151.64238940570169
 40
5
 41
1
 50
0
  1
（350.0）
  0
TEXT
  8
_1-0_
 62
    7
 10
669.08857324897098
 20
223.44565427311385
 40
5
 41
1
 50
90
  1
（80.5）
  0
TEXT
  8
_1-0_
 62
    7
 10
500.22615420316708
 20
290.1524686899736
 40
5
 41
1
 50
0
  1
六角対辺36.0
  0
LINE
  8
_1-0_
  6
CONTINUOUS
 62
    4
 10
503.37844196709301
 20
289.02629687338776
 11
589.55700416850277
 21
289.02629687338776
  0
LINE
  8
_1-0_
  6
CONTINUOUS
 62
    4
 10
488.36514382280057
 20
355.88363113004743
 11
488.36514382280057
 21
196.69909513004745
  0
LINE
  8
_1-0_
  6
CONTINUOUS
 62
    7
 10
488.36514382280057
 20
355.88363113004743
 11
489.91805809341565
 21
350.08807617231303
  0
LINE
  8
_1-0_
  6
CONTINUOUS
 62
    7
 10
488.36514382280057
 20
355.88363113004743
 11
486.81222955218544
 21
350.08807617231303
  0
LINE
  8
_1-0_
  6
CONTINUOUS
 62
    7
 10
488.36514382280057
 20
196.69909513004745
 11
486.81222955218544
 21
202.49465008778184
  0
LINE
  8
_1-0_
  6
CONTINUOUS
 62
    7
 10
488.36514382280057
 20
196.69909513004745
 11
489.91805809341565
 21
202.49465008778184
  0
LINE
  8
_1-0_
  6
CONTINUOUS
 62
    4
 10
488.36514382280057
 20
196.69909513004745
 11
670.08857324897098
 21
196.69909513004739
  0
LINE
  8
_1-0_
  6
CONTINUOUS
 62
    4
 10
488.36514382280057
 20
355.88363113004743
 11
536.55878394375827
 21
355.88363113004743
  0
TEXT
  8
_1-0_
 62
    7
 10
487.36514382280057
 20
248.79136313004738
 40
4.9999999999999928
 41
1.0000000000000013
 50
90
  1
（152.0～177.0）
  0
LINE
  8
_1-0_
  6
CONTINUOUS
 62
    7
 10
67.69914507566176
 20
142.31543283694168
 11
129.69914507566176
 21
142.31543283694168
  0
CIRCLE
  8
_1-0_
  6
CONTINUOUS
 62
    7
 10
98.69914507566176
 20
238.37346696808231
 40
50
  0
CIRCLE
  8
_1-0_
  6
CONTINUOUS
 62
    7
 10
98.69914507566176
 20
238.37346696808231
 40
18
  0
CIRCLE
  8
_1-0_
  6
CONTINUOUS
 62
    4
 10
98.69914507566176
 20
238.37346696808231
 40
31
  0
CIRCLE
  8
_1-0_
  6
CONTINUOUS
 62
    4
 10
98.69914507566176
 20
238.37346696808231
 40
22.700000000000002
  0
CIRCLE
  8
_1-0_
  6
CONTINUOUS
 62
    4
 10
98.69914507566176
 20
238.37346696808231
 40
27
  0
CIRCLE
  8
_1-0_
  6
DASHED1
 62
    4
 10
98.69914507566176
 20
238.37346696808231
 40
41
  0
CIRCLE
  8
_1-0_
  6
DASHED1
 62
    4
 10
98.69914507566176
 20
238.37346696808231
 40
39
  0
LINE
  8
_1-0_
  6
CENTER1
 62
    4
 10
98.69914507566176
 20
297.07029188988315
 11
98.69914507566176
 21
166.73165817771507
  0
ARC
  8
_1-0_
  6
DASHED1
 62
    4
 10
137.69914507566176
 20
133.31543283694168
 40
0.5
 50
90
 51
180
  0
LINE
  8
_1-0_
  6
CONTINUOUS
 62
    7
 10
67.69914507566176
 20
142.31543283694168
 11
67.69914507566176
 21
137.31543283694168
  0
LINE
  8
_1-0_
  6
CONTINUOUS
 62
    7
 10
129.69914507566176
 20
142.31543283694168
 11
129.69914507566176
 21
137.31543283694168
  0
LINE
  8
_1-0_
  6
CONTINUOUS
 62
    7
 10
53.69914507566176
 20
137.31543283694168
 11
67.69914507566176
 21
137.31543283694168
  0
LINE
  8
_1-0_
  6
CONTINUOUS
 62
    7
 10
143.69914507566176
 20
137.31543283694168
 11
129.69914507566176
 21
137.31543283694168
  0
LINE
  8
_1-0_
  6
DASHED1
 62
    4
 10
123.44914507566176
 20
141.31543283694168
 11
123.44914507566176
 21
142.31543283694168
  0
ARC
  8
_1-0_
  6
DASHED1
 62
    4
 10
123.94914507566176
 20
141.31543283694168
 40
0.5
 50
180
 51
270
  0
LINE
  8
_1-0_
  6
DASHED1
 62
    4
 10
124.94914507566176
 20
140.81543283694168
 11
123.94914507566176
 21
140.81543283694168
  0
LINE
  8
_1-0_
  6
DASHED1
 62
    4
 10
125.44914507566176
 20
141.31543283694168
 11
125.44914507566176
 21
142.31543283694168
  0
ARC
  8
_1-0_
  6
DASHED1
 62
    4
 10
124.94914507566176
 20
141.31543283694168
 40
0.5
 50
270
 51
0
  0
LINE
  8
_1-0_
  6
DASHED1
 62
    4
 10
137.19914507566176
 20
133.31543283694168
 11
137.19914507566176
 21
132.31543283694168
  0
LINE
  8
_1-0_
  6
DASHED1
 62
    4
 10
138.69914507566176
 20
133.81543283694168
 11
137.69914507566176
 21
133.81543283694168
  0
LINE
  8
_1-0_
  6
DASHED1
 62
    4
 10
139.19914507566176
 20
133.31543283694168
 11
139.19914507566176
 21
132.31543283694168
  0
ARC
  8
_1-0_
  6
DASHED1
 62
    4
 10
138.69914507566176
 20
133.31543283694168
 40
0.5
 50
0
 51
90
  0
ARC
  8
_1-0_
  6
DASHED1
 62
    4
 10
59.69914507566176
 20
133.31543283694168
 40
0.5
 50
0
 51
90
  0
LINE
  8
_1-0_
  6
DASHED1
 62
    4
 10
73.94914507566176
 20
141.31543283694168
 11
73.94914507566176
 21
142.31543283694168
  0
ARC
  8
_1-0_
  6
DASHED1
 62
    4
 10
73.44914507566176
 20
141.31543283694168
 40
0.5
 50
270
 51
0
  0
LINE
  8
_1-0_
  6
DASHED1
 62
    4
 10
72.44914507566176
 20
140.81543283694168
 11
73.44914507566176
 21
140.81543283694168
  0
LINE
  8
_1-0_
  6
DASHED1
 62
    4
 10
71.94914507566176
 20
141.31543283694168
 11
71.94914507566176
 21
142.31543283694168
  0
ARC
  8
_1-0_
  6
DASHED1
 62
    4
 10
72.44914507566176
 20
141.31543283694168
 40
0.5
 50
180
 51
270
  0
LINE
  8
_1-0_
  6
DASHED1
 62
    4
 10
60.19914507566176
 20
133.31543283694168
 11
60.19914507566176
 21
132.31543283694168
  0
LINE
  8
_1-0_
  6
DASHED1
 62
    4
 10
58.69914507566176
 20
133.81543283694168
 11
59.69914507566176
 21
133.81543283694168
  0
LINE
  8
_1-0_
  6
DASHED1
 62
    4
 10
58.19914507566176
 20
133.31543283694168
 11
58.19914507566176
 21
132.31543283694168
  0
ARC
  8
_1-0_
  6
DASHED1
 62
    4
 10
58.69914507566176
 20
133.31543283694168
 40
0.5
 50
90
 51
180
  0
LINE
  8
_1-0_
  6
DASHED1
 62
    4
 10
80.435144198575244
 20
138.12153925526365
 11
75.999145075661715
 21
142.31543283694168
  0
LINE
  8
_1-0_
  6
DASHED1
 62
    4
 10
80.314563977037551
 20
136.64272855890715
 11
74.170865983051271
 21
132.31543283694168
  0
ARC
  8
_1-0_
  6
DASHED1
 62
    4
 10
79.706516529673251
 20
137.43662924649584
 40
1
 50
307.44845420909501
 51
43.228530259965914
  0
LINE
  8
_1-0_
  6
DASHED1
 62
    4
 10
116.96314595274822
 20
138.12153925526365
 11
121.3991450756618
 21
142.31543283694168
  0
LINE
  8
_1-0_
  6
DASHED1
 62
    4
 10
117.08372617428591
 20
136.64272855890715
 11
123.2274241682723
 21
132.31543283694168
  0
ARC
  8
_1-0_
  6
DASHED1
 62
    4
 10
117.69177362165027
 20
137.43662924649584
 40
1
 50
136.77146974003412
 51
232.55154579090498
  0
ARC
  8
_1-0_
  6
CONTINUOUS
 62
    7
 10
53.69914507566176
 20
132.31543283694168
 40
5
 50
90
 51
180
  0
LINE
  8
_1-0_
  6
CONTINUOUS
 62
    7
 10
48.69914507566176
 20
132.31543283694168
 11
148.69914507566176
 21
132.31543283694168
  0
ARC
  8
_1-0_
  6
CONTINUOUS
 62
    7
 10
143.69914507566176
 20
132.31543283694168
 40
5
 50
0
 51
90
  0
LINE
  8
_1-0_
  6
CONTINUOUS
 62
    4
 10
48.69914507566176
 20
170.45599124818625
 11
148.69914507566176
 21
170.45599124818625
  0
LINE
  8
_1-0_
  6
CONTINUOUS
 62
    7
 10
48.69914507566176
 20
170.45599124818625
 11
51.596922554528873
 21
171.23244838349387
  0
LINE
  8
_1-0_
  6
CONTINUOUS
 62
    7
 10
48.69914507566176
 20
170.45599124818625
 11
51.596922554528873
 21
169.67953411287874
  0
LINE
  8
_1-0_
  6
CONTINUOUS
 62
    7
 10
148.69914507566176
 20
170.45599124818625
 11
145.80136759679459
 21
169.67953411287874
  0
LINE
  8
_1-0_
  6
CONTINUOUS
 62
    7
 10
148.69914507566176
 20
170.45599124818625
 11
145.80136759679459
 21
171.23244838349387
  0
LINE
  8
_1-0_
  6
CONTINUOUS
 62
    4
 10
75.999145075661715
 20
156.18113871699006
 11
121.3991450756618
 21
156.18113871699006
  0
LINE
  8
_1-0_
  6
CONTINUOUS
 62
    7
 10
75.999145075661715
 20
156.18113871699006
 11
78.896922554528998
 21
156.95759585229757
  0
LINE
  8
_1-0_
  6
CONTINUOUS
 62
    7
 10
75.999145075661715
 20
156.18113871699006
 11
78.896922554528998
 21
155.40468158168243
  0
LINE
  8
_1-0_
  6
CONTINUOUS
 62
    7
 10
121.3991450756618
 20
156.18113871699006
 11
118.50136759679452
 21
155.40468158168243
  0
LINE
  8
_1-0_
  6
CONTINUOUS
 62
    7
 10
121.3991450756618
 20
156.18113871699006
 11
118.50136759679452
 21
156.95759585229757
  0
LINE
  8
_1-0_
  6
CONTINUOUS
 62
    4
 10
75.999145075661715
 20
156.18113871699006
 11
75.999145075661715
 21
146.57563047169912
  0
LINE
  8
_1-0_
  6
CONTINUOUS
 62
    4
 10
121.3991450756618
 20
156.18113871699006
 11
121.3991450756618
 21
146.57563047169912
  0
LINE
  8
_1-0_
  6
CONTINUOUS
 62
    4
 10
34.013259097152001
 20
132.31543283694168
 11
34.013259097152001
 21
142.31543283694168
  0
LINE
  8
_1-0_
  6
CONTINUOUS
 62
    7
 10
34.013259097152001
 20
132.31543283694168
 11
33.236801961844321
 21
135.21321031580885
  0
LINE
  8
_1-0_
  6
CONTINUOUS
 62
    7
 10
34.013259097152001
 20
132.31543283694168
 11
34.789716232459511
 21
135.21321031580885
  0
LINE
  8
_1-0_
  6
CONTINUOUS
 62
    7
 10
34.013259097152001
 20
142.31543283694168
 11
34.789716232459511
 21
139.41765535807439
  0
LINE
  8
_1-0_
  6
CONTINUOUS
 62
    7
 10
34.013259097152001
 20
142.31543283694168
 11
33.236801961844321
 21
139.41765535807439
  0
LINE
  8
_1-0_
  6
CONTINUOUS
 62
    4
 10
34.013259097152001
 20
132.31543283694168
 11
44.284604891432024
 21
132.31543283694168
  0
LINE
  8
_1-0_
  6
CONTINUOUS
 62
    4
 10
34.013259097152001
 20
142.31543283694168
 11
65.424467747101232
 21
142.31543283694168
  0
LINE
  8
_1-0_
  6
CONTINUOUS
 62
    4
 10
48.69914507566176
 20
170.45599124818625
 11
48.69914507566176
 21
140.21779469292437
  0
LINE
  8
_1-0_
  6
CONTINUOUS
 62
    4
 10
148.69914507566176
 20
170.45599124818625
 11
148.69914507566176
 21
140.21779469292437
  0
TEXT
  8
_1-0_
 62
    7
 10
33.013259097152001
 20
134.81543283694168
 40
5
 41
1
 50
90
  1
10
  0
LINE
  8
_1-0_
  6
CONTINUOUS
 62
    4
 10
48.69914224182861
 20
170.45599124818625
 11
148.69914224182861
 21
170.45599124818625
  0
TEXT
  8
_1-0_
 62
    7
 10
92.44914224182861
 20
171.45599124818625
 40
5
 41
1
 50
0
  1
φ100
  0
LINE
  8
_1-0_
  6
CONTINUOUS
 62
    7
 10
48.69914224182861
 20
170.45599124818625
 11
51.596919720695723
 21
171.23244838349387
  0
LINE
  8
_1-0_
  6
CONTINUOUS
 62
    7
 10
48.69914224182861
 20
170.45599124818625
 11
51.596919720695723
 21
169.67953411287874
  0
LINE
  8
_1-0_
  6
CONTINUOUS
 62
    7
 10
148.69914224182861
 20
170.45599124818625
 11
145.80136476296144
 21
169.67953411287874
  0
LINE
  8
_1-0_
  6
CONTINUOUS
 62
    7
 10
148.69914224182861
 20
170.45599124818625
 11
145.80136476296144
 21
171.23244838349387
  0
LINE
  8
_1-0_
  6
CONTINUOUS
 62
    4
 10
48.69914224182861
 20
140.21779469292437
 11
48.69914224182861
 21
170.45599124818625
  0
LINE
  8
_1-0_
  6
CONTINUOUS
 62
    4
 10
148.69914224182861
 20
140.21779469292437
 11
148.69914224182861
 21
170.45599124818625
  0
LINE
  8
_1-0_
  6
CONTINUOUS
 62
    4
 10
121.39914681946532
 20
156.18113871699006
 11
75.999145293586423
 21
156.18113871699006
  0
TEXT
  8
_1-0_
 62
    7
 10
91.199146056525876
 20
157.18113871699006
 40
5
 41
1
 50
0
  1
φ45.4
  0
LINE
  8
_1-0_
  6
CONTINUOUS
 62
    7
 10
121.39914681946532
 20
156.18113871699006
 11
118.50136934059815
 21
155.40468158168243
  0
LINE
  8
_1-0_
  6
CONTINUOUS
 62
    7
 10
121.39914681946532
 20
156.18113871699006
 11
118.50136934059815
 21
156.95759585229757
  0
LINE
  8
_1-0_
  6
CONTINUOUS
 62
    7
 10
75.999145293586423
 20
156.18113871699006
 11
78.896922772453535
 21
156.95759585229757
  0
LINE
  8
_1-0_
  6
CONTINUOUS
 62
    7
 10
75.999145293586423
 20
156.18113871699006
 11
78.896922772453535
 21
155.40468158168243
  0
LINE
  8
_1-0_
  6
CONTINUOUS
 62
    4
 10
121.39914681946532
 20
146.57563047169912
 11
121.39914681946532
 21
156.18113871699006
  0
LINE
  8
_1-0_
  6
CONTINUOUS
 62
    4
 10
75.999145293586423
 20
146.57563047169912
 11
75.999145293586423
 21
156.18113871699006
  0
TEXT
  8
_1-0_
 62
    7
 10
70.69914507566176
 20
109.15641716079835
 40
4
 41
1
 50
0
  1
Mimi用マウンティングディスク
  0
LINE
  8
_1-0_
  6
CENTER1
 62
    4
 10
98.69914507566176
 20
147.83595381417524
 11
98.69914507566176
 21
117.33060308281437
  0
LINE
  8
_1-0_
  6
CONTINUOUS
 62
    7
 10
66.19914507566176
 20
114.65641716079835
 11
66.19914507566176
 21
107.65641716079835
  0
LINE
  8
_1-0_
  6
CONTINUOUS
 62
    7
 10
66.19914507566176
 20
107.65641716079835
 11
131.19914507566176
 21
107.65641716079835
  0
LINE
  8
_1-0_
  6
CONTINUOUS
 62
    7
 10
131.19914507566176
 20
107.65641716079835
 11
131.19914507566176
 21
114.65641716079835
  0
LINE
  8
_1-0_
  6
CONTINUOUS
 62
    7
 10
131.19914507566176
 20
114.65641716079835
 11
66.19914507566176
 21
114.65641716079835
  0
TEXT
  8
_1-0_
 62
    7
 10
133.19914507566176
 20
109.15641716079835
 40
4
 41
1
 50
0
  1
S=1/2
  0
LINE
  8
_1-0_
  6
CONTINUOUS
 62
    7
 10
212.6394045345028
 20
114.65641716079835
 11
212.6394045345028
 21
107.65641716079835
  0
LINE
  8
_1-0_
  6
CONTINUOUS
 62
    7
 10
287.63940453450277
 20
107.65641716079835
 11
287.63940453450277
 21
114.65641716079835
  0
LINE
  8
_1-0_
  6
CONTINUOUS
 62
    7
 10
212.6394045345028
 20
107.65641716079835
 11
287.63940453450277
 21
107.65641716079835
  0
TEXT
  8
_1-0_
 62
    7
 10
214.1394045345028
 20
109.15641716079835
 40
4
 41
1
 50
0
  1
排水口パイプ止め板（バックプレート）
  0
LINE
  8
_1-0_
  6
CENTER1
 62
    4
 10
250.1394045345028
 20
298.68085316632902
 11
250.1394045345028
 21
117.33060308281437
  0
TEXT
  8
_1-0_
 62
    7
 10
289.63940453450277
 20
109.15641716079835
 40
4
 41
1.0000000000000013
 50
0
  1
S=1/2
  0
CIRCLE
  8
_1-0_
  6
CONTINUOUS
 62
    7
 10
250.1394045345028
 20
238.37346696808231
 40
16.5
  0
LINE
  8
_1-0_
  6
CONTINUOUS
 62
    7
 10
290.13940453450277
 20
275.87346696808231
 11
290.13940453450277
 21
200.87346696808231
  0
LINE
  8
_1-0_
  6
CONTINUOUS
 62
    7
 10
210.1394045345028
 20
275.87346696808231
 11
210.1394045345028
 21
200.87346696808231
  0
LINE
  8
_1-0_
  6
CONTINUOUS
 62
    7
 10
212.6394045345028
 20
278.37346696808231
 11
287.63940453450277
 21
278.37346696808231
  0
LINE
  8
_1-0_
  6
CONTINUOUS
 62
    7
 10
212.6394045345028
 20
198.37346696808231
 11
287.63940453450277
 21
198.37346696808231
  0
ARC
  8
_1-0_
  6
CONTINUOUS
 62
    7
 10
287.63940453450277
 20
200.87346696808231
 40
2.5
 50
270
 51
0
  0
ARC
  8
_1-0_
  6
CONTINUOUS
 62
    7
 10
287.63940453450277
 20
275.87346696808231
 40
2.5
 50
0
 51
90
  0
ARC
  8
_1-0_
  6
CONTINUOUS
 62
    7
 10
212.6394045345028
 20
275.87346696808231
 40
2.5
 50
90
 51
180
  0
ARC
  8
_1-0_
  6
CONTINUOUS
 62
    7
 10
212.6394045345028
 20
200.87346696808231
 40
2.5
 50
180
 51
270
  0
LINE
  8
_1-0_
  6
CONTINUOUS
 62
    4
 10
238.47214264492484
 20
226.70620507850424
 11
267.64029736886982
 21
255.87435980244936
  0
LINE
  8
_1-0_
  6
CONTINUOUS
 62
    7
 10
238.47214264492484
 20
226.70620507850424
 11
239.97214264492484
 21
229.30428128985758
  0
LINE
  8
_1-0_
  6
CONTINUOUS
 62
    7
 10
238.47214264492484
 20
226.70620507850424
 11
241.07021885627798
 21
228.20620507850424
  0
LINE
  8
_1-0_
  6
CONTINUOUS
 62
    7
 10
261.80666642408073
 20
250.04072885766035
 11
260.30666642408073
 21
247.44265264630703
  0
LINE
  8
_1-0_
  6
CONTINUOUS
 62
    7
 10
261.80666642408073
 20
250.04072885766035
 11
259.20859021272758
 21
248.54072885766035
  0
LINE
  8
_1-0_
  6
CONTINUOUS
 62
    4
 10
210.1394045345028
 20
300.7808163901933
 11
290.13940453450277
 21
300.7808163901933
  0
LINE
  8
_1-0_
  6
CONTINUOUS
 62
    7
 10
210.1394045345028
 20
300.7808163901933
 11
213.03718201337008
 21
301.55727352550081
  0
LINE
  8
_1-0_
  6
CONTINUOUS
 62
    7
 10
210.1394045345028
 20
300.7808163901933
 11
213.03718201337008
 21
300.00435925488568
  0
LINE
  8
_1-0_
  6
CONTINUOUS
 62
    7
 10
290.13940453450277
 20
300.7808163901933
 11
287.24162705563549
 21
300.00435925488568
  0
LINE
  8
_1-0_
  6
CONTINUOUS
 62
    7
 10
290.13940453450277
 20
300.7808163901933
 11
287.24162705563549
 21
301.55727352550081
  0
LINE
  8
_1-0_
  6
CONTINUOUS
 62
    4
 10
210.1394045345028
 20
300.7808163901933
 11
210.1394045345028
 21
282.56551429776152
  0
LINE
  8
_1-0_
  6
CONTINUOUS
 62
    4
 10
290.13940453450277
 20
300.7808163901933
 11
290.13940453450277
 21
282.56551429776152
  0
TEXT
  8
_1-0_
 62
    7
 10
247.6394045345028
 20
301.7808163901933
 40
5.0000000000000008
 41
0.9999999999999996
 50
0
  1
80
  0
TEXT
  8
_1-0_
 62
    7
 10
260.41300167568198
 20
250.75189148990727
 40
5.0000000000000257
 41
0.9999999999999941
 50
44.999999999999971
  1
φ33
  0
LINE
  8
_1-0_
  6
CONTINUOUS
 62
    7
 10
210.1394045345028
 20
142.31543283694168
 11
210.1394045345028
 21
139.31543283694168
  0
LINE
  8
_1-0_
  6
CONTINUOUS
 62
    7
 10
210.1394045345028
 20
142.31543283694168
 11
290.13940453450277
 21
142.31543283694168
  0
LINE
  8
_1-0_
  6
CONTINUOUS
 62
    7
 10
290.13940453450277
 20
142.31543283694168
 11
290.13940453450277
 21
139.31543283694168
  0
LINE
  8
_1-0_
  6
CONTINUOUS
 62
    7
 10
210.1394045345028
 20
139.31543283694168
 11
290.13940453450277
 21
139.31543283694168
  0
LINE
  8
_1-0_
  6
DASHED1
 62
    4
 10
233.6394045345028
 20
142.31543283694168
 11
233.6394045345028
 21
139.31543283694168
  0
LINE
  8
_1-0_
  6
DASHED1
 62
    4
 10
266.63940453450277
 20
142.31543283694168
 11
266.63940453450277
 21
139.31543283694168
  0
LINE
  8
_1-0_
  6
CONTINUOUS
 62
    4
 10
193.83848779931216
 20
147.31543283694168
 11
193.83848779931216
 21
134.31543283694168
  0
LINE
  8
_1-0_
  6
CONTINUOUS
 62
    7
 10
193.83848779931216
 20
139.31543283694168
 11
194.61494493461967
 21
136.41765535807451
  0
LINE
  8
_1-0_
  6
CONTINUOUS
 62
    7
 10
193.83848779931216
 20
139.31543283694168
 11
193.06203066400465
 21
136.41765535807451
  0
LINE
  8
_1-0_
  6
CONTINUOUS
 62
    7
 10
193.83848779931216
 20
142.31543283694168
 11
193.06203066400465
 21
145.21321031580896
  0
LINE
  8
_1-0_
  6
CONTINUOUS
 62
    7
 10
193.83848779931216
 20
142.31543283694168
 11
194.61494493461967
 21
145.21321031580896
  0
LINE
  8
_1-0_
  6
CONTINUOUS
 62
    4
 10
193.83848779931216
 20
139.31543283694168
 11
206.7308486554173
 21
139.31543283694168
  0
LINE
  8
_1-0_
  6
CONTINUOUS
 62
    4
 10
193.83848779931216
 20
142.31543283694168
 11
206.7308486554173
 21
142.31543283694168
  0
TEXT
  8
_1-0_
 62
    7
 10
192.83848779931216
 20
139.56543283694168
 40
5
 41
1
 50
90
  1
3
  0
LINE
  8
_1-0_
  6
CENTER1
 62
    4
 10
352.64869522263899
 20
239.33177485390214
 11
455.91493069632196
 21
239.33177485390214
  0
LINE
  8
_1-0_
  6
CONTINUOUS
 62
    4
 10
325.33078785243372
 20
278.37346696808231
 11
325.33078785243372
 21
198.37346696808231
  0
LINE
  8
_1-0_
  6
CONTINUOUS
 62
    7
 10
325.33078785243372
 20
278.37346696808231
 11
326.10724498774123
 21
275.47568948921514
  0
LINE
  8
_1-0_
  6
CONTINUOUS
 62
    7
 10
325.33078785243372
 20
278.37346696808231
 11
324.5543307171261
 21
275.47568948921514
  0
LINE
  8
_1-0_
  6
CONTINUOUS
 62
    7
 10
325.33078785243372
 20
198.37346696808231
 11
324.5543307171261
 21
201.27124444694948
  0
LINE
  8
_1-0_
  6
CONTINUOUS
 62
    7
 10
325.33078785243372
 20
198.37346696808231
 11
326.10724498774123
 21
201.27124444694948
  0
LINE
  8
_1-0_
  6
CONTINUOUS
 62
    4
 10
325.33078785243372
 20
278.37346696808231
 11
309.0718389570332
 21
278.37346696808231
  0
LINE
  8
_1-0_
  6
CONTINUOUS
 62
    4
 10
325.33078785243372
 20
198.37346696808231
 11
309.0718389570332
 21
198.37346696808231
  0
TEXT
  8
_1-0_
 62
    7
 10
324.33078785243372
 20
235.87346696808231
 40
5
 41
1
 50
90
  1
80
  0
LINE
  8
_1-0_
  6
CENTER1
 62
    4
 10
399.51614983227483
 20
281.16659543353296
 11
399.51614983227483
 21
135.23266710473853
  0
CIRCLE
  8
_1-0_
  6
CONTINUOUS
 62
    7
 10
399.51614983227483
 20
238.37346696808231
 40
27
  0
LINE
  8
_1-0_
  6
CENTER1
 62
    4
 10
188.89813054312529
 20
238.37346696808231
 11
308.46902275320957
 21
238.37346696808231
  0
LINE
  8
_1-0_
  6
CENTER1
 62
    4
 10
26.326105403660221
 20
238.37346696808231
 11
163.65230411361795
 21
238.37346696808231
  0
LINE
  8
_1-0_
  6
CONTINUOUS
 62
    4
 10
426.516150612599
 20
300.7808163901933
 11
372.516150612599
 21
300.7808163901933
  0
LINE
  8
_1-0_
  6
CONTINUOUS
 62
    7
 10
426.516150612599
 20
300.7808163901933
 11
423.61837313373172
 21
300.00435925488568
  0
LINE
  8
_1-0_
  6
CONTINUOUS
 62
    7
 10
426.516150612599
 20
300.7808163901933
 11
423.61837313373172
 21
301.55727352550081
  0
LINE
  8
_1-0_
  6
CONTINUOUS
 62
    7
 10
372.516150612599
 20
300.7808163901933
 11
375.41392809146617
 21
301.55727352550081
  0
LINE
  8
_1-0_
  6
CONTINUOUS
 62
    7
 10
372.516150612599
 20
300.7808163901933
 11
375.41392809146617
 21
300.00435925488568
  0
LINE
  8
_1-0_
  6
CONTINUOUS
 62
    4
 10
372.516150612599
 20
261.27860340784786
 11
372.516150612599
 21
300.7808163901933
  0
LINE
  8
_1-0_
  6
CONTINUOUS
 62
    4
 10
426.516150612599
 20
261.27860340784786
 11
426.516150612599
 21
300.7808163901933
  0
TEXT
  8
_1-0_
 62
    7
 10
394.516150612599
 20
301.7808163901933
 40
5.0000000000000008
 41
1
 50
0
  1
φ54
  0
LINE
  8
_1-0_
  6
CONTINUOUS
 62
    7
 10
382.51614983227483
 20
178.28433513355298
 11
394.01614983227483
 21
178.28433513355298
  0
LINE
  8
_1-0_
  6
CONTINUOUS
 62
    7
 10
382.51614983227483
 20
168.28433513355298
 11
394.01614983227483
 21
168.28433513355298
  0
LINE
  8
_1-0_
  6
CONTINUOUS
 62
    7
 10
394.01614983227483
 20
178.28433513355298
 11
394.01614983227483
 21
168.28433513355298
  0
LINE
  8
_1-0_
  6
CONTINUOUS
 62
    7
 10
405.01614983227477
 20
178.28433513355298
 11
416.51614983227483
 21
178.28433513355298
  0
LINE
  8
_1-0_
  6
CONTINUOUS
 62
    7
 10
405.01614983227477
 20
178.28433513355298
 11
405.01614983227477
 21
168.28433513355298
  0
LINE
  8
_1-0_
  6
CONTINUOUS
 62
    7
 10
405.01614983227477
 20
168.28433513355298
 11
416.51614983227483
 21
168.28433513355298
  0
LINE
  8
_1-0_
  6
CONTINUOUS
 62
    7
 10
384.51614983227483
 20
158.78433513355298
 11
414.51614983227483
 21
158.78433513355298
  0
LINE
  8
_1-0_
  6
CONTINUOUS
 62
    7
 10
382.51614983227483
 20
178.28433513355298
 11
382.51614983227483
 21
168.28433513355298
  0
LINE
  8
_1-0_
  6
CONTINUOUS
 62
    7
 10
416.51614983227483
 20
178.28433513355298
 11
416.51614983227483
 21
168.28433513355298
  0
LINE
  8
_1-0_
  6
CONTINUOUS
 62
    7
 10
372.51614983227483
 20
178.28433513355298
 11
426.51614983227483
 21
178.28433513355298
  0
LINE
  8
_1-0_
  6
CONTINUOUS
 62
    7
 10
372.51614983227483
 20
180.28433513355298
 11
426.51614983227483
 21
180.28433513355298
  0
LINE
  8
_1-0_
  6
CONTINUOUS
 62
    7
 10
382.51614983227483
 20
168.28433513355298
 11
394.01614983227483
 21
168.28433513355298
  0
LINE
  8
_1-0_
  6
CONTINUOUS
 62
    7
 10
405.01614983227477
 20
168.28433513355298
 11
416.51614983227483
 21
168.28433513355298
  0
LINE
  8
_1-0_
  6
CONTINUOUS
 62
    7
 10
384.26614983227483
 20
158.78433513355298
 11
414.76614983227483
 21
158.78433513355298
  0
LINE
  8
_1-0_
  6
CONTINUOUS
 62
    7
 10
382.51614983227483
 20
168.28433513355298
 11
384.26614983227483
 21
158.78433513355298
  0
LINE
  8
_1-0_
  6
CONTINUOUS
 62
    7
 10
416.51614983227483
 20
168.28433513355298
 11
414.76614983227483
 21
158.78433513355298
  0
LINE
  8
_1-0_
  6
CONTINUOUS
 62
    4
 10
384.26614983227483
 20
140.16893403675692
 11
414.76614983227483
 21
140.16893403675692
  0
LINE
  8
_1-0_
  6
CONTINUOUS
 62
    7
 10
384.26614983227483
 20
140.16893403675692
 11
387.163927311142
 21
140.94539117206443
  0
LINE
  8
_1-0_
  6
CONTINUOUS
 62
    7
 10
384.26614983227483
 20
140.16893403675692
 11
387.163927311142
 21
139.39247690144929
  0
LINE
  8
_1-0_
  6
CONTINUOUS
 62
    7
 10
414.76614983227483
 20
140.16893403675692
 11
411.86837235340755
 21
139.39247690144929
  0
LINE
  8
_1-0_
  6
CONTINUOUS
 62
    7
 10
414.76614983227483
 20
140.16893403675692
 11
411.86837235340755
 21
140.94539117206443
  0
LINE
  8
_1-0_
  6
CONTINUOUS
 62
    4
 10
382.51614983227483
 20
127.18782593984178
 11
416.51614983227483
 21
127.18782593984178
  0
LINE
  8
_1-0_
  6
CONTINUOUS
 62
    7
 10
382.51614983227483
 20
127.18782593984178
 11
385.413927311142
 21
127.96428307514941
  0
LINE
  8
_1-0_
  6
CONTINUOUS
 62
    7
 10
382.51614983227483
 20
127.18782593984178
 11
385.413927311142
 21
126.41136880453427
  0
LINE
  8
_1-0_
  6
CONTINUOUS
 62
    7
 10
416.51614983227483
 20
127.18782593984178
 11
413.61837235340755
 21
126.41136880453427
  0
LINE
  8
_1-0_
  6
CONTINUOUS
 62
    7
 10
416.51614983227483
 20
127.18782593984178
 11
413.61837235340755
 21
127.96428307514941
  0
LINE
  8
_1-0_
  6
CONTINUOUS
 62
    4
 10
382.51614983227483
 20
127.18782593984178
 11
382.51614983227483
 21
165.00553955296516
  0
LINE
  8
_1-0_
  6
CONTINUOUS
 62
    4
 10
416.51614983227483
 20
127.18782593984178
 11
416.51614983227483
 21
165.00553955296516
  0
LINE
  8
_1-0_
  6
CONTINUOUS
 62
    4
 10
384.26614983227483
 20
140.16893403675692
 11
384.26614983227483
 21
156.64921947964319
  0
LINE
  8
_1-0_
  6
CONTINUOUS
 62
    4
 10
414.76614983227483
 20
140.16893403675692
 11
414.76614983227483
 21
156.64921947964319
  0
LINE
  8
_1-0_
  6
CONTINUOUS
 62
    7
 10
372.51614983227483
 20
180.5667803086211
 11
372.51614983227483
 21
178.28433513355298
  0
ARC
  8
_1-0_
  6
CONTINUOUS
 62
    7
 10
373.51614983227483
 20
180.5667803086211
 40
1
 50
108.42780160788487
 51
180
  0
LINE
  8
_1-0_
  6
CONTINUOUS
 62
    7
 10
426.51614983227483
 20
180.5667803086211
 11
426.51614983227483
 21
178.28433513355298
  0
ARC
  8
_1-0_
  6
CONTINUOUS
 62
    7
 10
399.51614983227483
 20
102.53433513355309
 40
83.25
 50
71.572198392114117
 51
108.42780160788588
  0
ARC
  8
_1-0_
  6
CONTINUOUS
 62
    7
 10
425.51614983227483
 20
180.5667803086211
 40
1
 50
0
 51
71.572198392115112
  0
LINE
  8
_1-0_
  6
CONTINUOUS
 62
    4
 10
372.81964780556069
 20
181.28433513355298
 11
426.21265185898903
 21
181.28433513355298
  0
TEXT
  8
_1-0_
 62
    7
 10
394.51614983227483
 20
141.16893403675692
 40
5
 41
1.0000000000000002
 50
0
  1
30.5
  0
TEXT
  8
_1-0_
 62
    7
 10
397.01614983227483
 20
128.18782593984178
 40
5
 41
1.0000000000000006
 50
0
  1
34
  0
LINE
  8
_1-0_
  6
CONTINUOUS
 62
    7
 10
287.63940453450277
 20
114.65641716079835
 11
212.6394045345028
 21
114.65641716079835
  0
LINE
  8
_1-0_
  6
CONTINUOUS
 62
    7
 10
364.01614983227483
 20
114.65641716079835
 11
364.01614983227483
 21
107.65641716079835
  0
LINE
  8
_1-0_
  6
CONTINUOUS
 62
    7
 10
364.01614983227483
 20
107.65641716079835
 11
435.01614983227483
 21
107.65641716079835
  0
LINE
  8
_1-0_
  6
CONTINUOUS
 62
    7
 10
435.01614983227483
 20
107.65641716079835
 11
435.01614983227483
 21
114.65641716079835
  0
LINE
  8
_1-0_
  6
CONTINUOUS
 62
    7
 10
435.01614983227483
 20
114.65641716079835
 11
364.01614983227483
 21
114.65641716079835
  0
TEXT
  8
_1-0_
 62
    7
 10
437.01614983227483
 20
109.15641716079835
 40
4
 41
1
 50
0
  1
S=1/2
  0
LINE
  8
_1-0_
  6
CONTINUOUS
 62
    4
 10
353.50076075382213
 20
185.78433513355309
 11
353.50076075382213
 21
158.78433513355298
  0
LINE
  8
_1-0_
  6
CONTINUOUS
 62
    4
 10
353.50076075382213
 20
185.78433513355309
 11
369.67442373073669
 21
185.78433513355309
  0
LINE
  8
_1-0_
  6
CONTINUOUS
 62
    4
 10
353.50076075382213
 20
158.78433513355298
 11
369.67442373073669
 21
158.78433513355298
  0
TEXT
  8
_1-0_
 62
    7
 10
352.00076075382213
 20
169.03433513355298
 40
5
 41
1
 50
90
  1
27
  0
LINE
  8
_1-0_
  6
CONTINUOUS
 62
    7
 10
353.50076075382213
 20
185.78433513355309
 11
352.72430361851451
 21
182.88655765468581
  0
LINE
  8
_1-0_
  6
CONTINUOUS
 62
    7
 10
353.50076075382213
 20
185.78433513355309
 11
354.27721788912964
 21
182.88655765468581
  0
LINE
  8
_1-0_
  6
CONTINUOUS
 62
    7
 10
353.50076075382213
 20
158.78433513355298
 11
354.27721788912964
 21
161.68211261242026
  0
LINE
  8
_1-0_
  6
CONTINUOUS
 62
    7
 10
353.50076075382213
 20
158.78433513355298
 11
352.72430361851451
 21
161.68211261242026
  0
TEXT
  8
_1-0_
 62
    7
 10
366.51614983227483
 20
109.15641716079835
 40
4
 41
1
 50
0
  1
化粧キャップ ラウンド型（クロム）
  0
ENDSEC
  0
EOF
