  0
SECTION
  2
HEADER
  9
$ACADVER
  1
AC1009
  9
$INSBASE
 10
0
 20
0
 30
0
  9
$EXTMIN
 10
0
 20
0
  9
$EXTMAX
 10
1682
 20
1188
  9
$LIMMIN
 10
0
 20
0
  9
$LIMMAX
 10
1682
 20
1188
  9
$LTSCALE
 40
2
  0
ENDSEC
  0
SECTION
  2
TABLES
  0
TABLE
  2
LTYPE
 70
     9
  0
LTYPE
  2
CONTINUOUS
 70
    64
  3
実線
 72
    65
 73
     0
 40
0.0
  0
LTYPE
  2
DASHED1
 70
    64
  3
--  --  --  --  --  --  --  --  
 72
    65
 73
     2
 40
2.5
 49
1.25
 49
-1.25
  0
LTYPE
  2
DASHED2
 70
    64
  3
----    ----    ----    ----    
 72
    65
 73
     2
 40
5.0
 49
2.5
 49
-2.5
  0
LTYPE
  2
DASHED3
 70
    64
  3
------  ------  ------  ------  
 72
    65
 73
     2
 40
5.0
 49
3.75
 49
-1.25
  0
LTYPE
  2
CENTER1
 70
    64
  3
----- - ----- - ----- - ----- - 
 72
    65
 73
     4
 40
10.0
 49
6.25
 49
-1.25
 49
1.25
 49
-1.25
  0
LTYPE
  2
CENTER2
 70
    64
  3
----------  --  ----------  --  
 72
    65
 73
     4
 40
20.0
 49
12.5
 49
-2.5
 49
2.5
 49
-2.5
  0
LTYPE
  2
PHANTOM1
 70
    64
  3
--- - - --- - - --- - - --- - - 
 72
    65
 73
     6
 40
10.0
 49
3.25
 49
-1.25
 49
1.25
 49
-1.25
 49
1.25
 49
-1.25
  0
LTYPE
  2
PHANTOM2
 70
    64
  3
--------  -  -  --------  -  -  
 72
    65
 73
     6
 40
20.0
 49
10.0
 49
-2.5
 49
1.25
 49
-2.5
 49
1.25
 49
-2.5
  0
LTYPE
  2
DOT
 70
    64
  3
-   -   -   -   -   -   -   -   
 72
    65
 73
     2
 40
2.5
 49
0.625
 49
-1.875
  0
LTYPE
  2
DUMMY
 70
    64
  3
ダミー
 72
    65
 73
     0
 40
0.0
  0
LTYPE
  2
RAND1
 70
    64
  3
ランダム線1
 72
    65
 73
     4
 40
10.0
 49
1.0
 49
-2.0
 49
3.0
 49
-4.0
  0
LTYPE
  2
RAND2
 70
    64
  3
ランダム線2
 72
    65
 73
     4
 40
14.0
 49
2.0
 49
-3.0
 49
4.0
 49
-5.0
  0
LTYPE
  2
RAND3
 70
    64
  3
ランダム線3
 72
    65
 73
     4
 40
18.0
 49
3.0
 49
-4.0
 49
5.0
 49
-6.0
  0
LTYPE
  2
RAND4
 70
    64
  3
ランダム線4
 72
    65
 73
     4
 40
22.0
 49
4.0
 49
-5.0
 49
6.0
 49
-7.0
  0
LTYPE
  2
RAND5
 70
    64
  3
ランダム線5
 72
    65
 73
     4
 40
26.0
 49
5.0
 49
-6.0
 49
7.0
 49
-8.0
  0
LTYPE
  2
LONG1
 70
    64
  3
----------  --  ----------  --  
 72
    65
 73
     4
 40
40.0
 49
32.5
 49
-2.5
 49
2.5
 49
-2.5
  0
LTYPE
  2
LONG2
 70
    64
  3
--------  -  -  --------  -  -  
 72
    65
 73
     6
 40
40.0
 49
30.0
 49
-2.5
 49
1.25
 49
-2.5
 49
1.25
 49
-2.5
  0
LTYPE
  2
LONG3
 70
    64
  3
+++++++++++++++..+++++++++++++++
 72
    65
 73
     2
 40
40.0
 49
37.5
 49
-2.5
  0
LTYPE
  2
LONG4
 70
    64
  3
+++++++++++++++..+++++++++++++++
 72
    65
 73
     2
 40
80.0
 49
75.0
 49
-5.0
  0
LTYPE
  2
LONG5
 70
    64
  3
----------  --  ----------  --  
 72
    65
 73
     4
 40
60.0
 49
37.5
 49
-7.5
 49
7.5
 49
-7.5
  0
LTYPE
  2
dashed
 70
   64
  3
-------   -------------   ------
 72
   65
 73
    2
 40
7.5
 49
6
 49
-1.5
  0
LTYPE
  2
dashed_spaced
 70
   64
  3
----        --------        ----
 72
   65
 73
    2
 40
12
 49
6
 49
-6
  0
LTYPE
  2
long_dashed_dotted
 70
   64
  3
------------- --- --------------
 72
   65
 73
    4
 40
15.25
 49
12
 49
-1.5
 49
0.25
 49
-1.5
  0
LTYPE
  2
long_dashed_double-dotted
 70
   64
  3
----------- --- --- ------------
 72
   65
 73
    6
 40
17
 49
12
 49
-1.5
 49
0.25
 49
-1.5
 49
0.25
 49
-1.5
  0
LTYPE
  2
long_dashed_triplicate-dotted
 70
   64
  3
--------- --- --- --- ----------
 72
   65
 73
    8
 40
18.75
 49
12
 49
-1.5
 49
0.25
 49
-1.5
 49
0.25
 49
-1.5
 49
0.25
 49
-1.5
  0
LTYPE
  2
dotted
 70
   64
  3
   -       -       -       -    
 72
   65
 73
    2
 40
1.75
 49
0.25
 49
-1.5
  0
LTYPE
  2
chain
 70
   64
  3
-------------- -- --------------
 72
   65
 73
    4
 40
18.5
 49
12
 49
-1.5
 49
3.5
 49
-1.5
  0
LTYPE
  2
chain_double_dash
 70
   64
  3
------------ -- -- -------------
 72
   65
 73
    6
 40
23.5
 49
12
 49
-1.5
 49
3.5
 49
-1.5
 49
3.5
 49
-1.5
  0
LTYPE
  2
dashed_dotted
 70
   64
  3
-----------     -     ----------
 72
   65
 73
    4
 40
9.25
 49
6
 49
-1.5
 49
0.25
 49
-1.5
  0
LTYPE
  2
double-dashed_dotted
 70
   64
  3
------   -----------   -   -----
 72
   65
 73
    6
 40
16.75
 49
6
 49
-1.5
 49
6
 49
-1.5
 49
0.25
 49
-1.5
  0
LTYPE
  2
dashed_double-dotted
 70
   64
  3
---------    -    -    ---------
 72
   65
 73
    6
 40
11
 49
6
 49
-1.5
 49
0.25
 49
-1.5
 49
0.25
 49
-1.5
  0
LTYPE
  2
double-dashed_double-dotted
 70
   64
  3
-----   ---------   -   -   ----
 72
   65
 73
    8
 40
18.5
 49
6
 49
-1.5
 49
6
 49
-1.5
 49
0.25
 49
-1.5
 49
0.25
 49
-1.5
  0
LTYPE
  2
dashed_triplicate-dotted
 70
   64
  3
-------    -    -    -    ------
 72
   65
 73
    8
 40
12.75
 49
6
 49
-1.5
 49
0.25
 49
-1.5
 49
0.25
 49
-1.5
 49
0.25
 49
-1.5
  0
LTYPE
  2
double-dashed_triplicate-dotted
 70
   64
  3
-----  ---------  -  -  -  -----
 72
   65
 73
   10
 40
20.25
 49
6
 49
-1.5
 49
6
 49
-1.5
 49
0.25
 49
-1.5
 49
0.25
 49
-1.5
 49
0.25
 49
-1.5
  0
LTYPE
  2
undefined
 70
   64
  3
--------------------------------
 72
   65
 73
    0
 40
0
  0
LTYPE
  2
_
 70
   64
  3
                                
 72
   65
 73
    0
 40
0
  0
LTYPE
  2
__18
 70
   64
  3
                                
 72
   65
 73
    0
 40
0
  0
LTYPE
  2
__19
 70
   64
  3
                                
 72
   65
 73
    0
 40
0
  0
LTYPE
  2
__20
 70
   64
  3
                                
 72
   65
 73
    0
 40
0
  0
LTYPE
  2
__21
 70
   64
  3
                                
 72
   65
 73
    0
 40
0
  0
LTYPE
  2
__22
 70
   64
  3
                                
 72
   65
 73
    0
 40
0
  0
LTYPE
  2
__23
 70
   64
  3
                                
 72
   65
 73
    0
 40
0
  0
LTYPE
  2
__24
 70
   64
  3
                                
 72
   65
 73
    0
 40
0
  0
LTYPE
  2
__25
 70
   64
  3
                                
 72
   65
 73
    0
 40
0
  0
LTYPE
  2
__26
 70
   64
  3
                                
 72
   65
 73
    0
 40
0
  0
LTYPE
  2
__27
 70
   64
  3
                                
 72
   65
 73
    0
 40
0
  0
LTYPE
  2
__28
 70
   64
  3
                                
 72
   65
 73
    0
 40
0
  0
LTYPE
  2
__29
 70
   64
  3
                                
 72
   65
 73
    0
 40
0
  0
LTYPE
  2
__30
 70
   64
  3
                                
 72
   65
 73
    0
 40
0
  0
LTYPE
  2
__31
 70
   64
  3
                                
 72
   65
 73
    0
 40
0
  0
LTYPE
  2
__32
 70
   64
  3
                                
 72
   65
 73
    0
 40
0
  0
ENDTAB
  0
TABLE
  2
STYLE
  5
3
100
AcDbSymbolTable
 70
     1
  0
STYLE
  5
10
100
AcDbSymbolTableRecord
100
AcDbTextStyleTableRecord
  2
STANDARD
 70
     0
 40
0.0
 41
1.0
 50
0.0
 71
     0
 42
0.2
  3
txt
  4
bigfont.shx
  0
STYLE
  5
26
100
AcDbSymbolTableRecord
100
AcDbTextStyleTableRecord
  2
TATEGAKI
 70
    68
 40
0.0
 41
1.0
 50
0.0
 71
     0
 42
1.0
  3
txt
  4
bigfont.shx
  0
ENDTAB
  0
TABLE
  2
LAYER
 70
    4
  0
LAYER
  2
_0-0_
 70
   64
 62
    7
  6
CONTINUOUS
  0
LAYER
  2
_1-0_
 70
   64
 62
    7
  6
CONTINUOUS
  0
LAYER
  2
_8-0_
 70
   64
 62
    7
  6
CONTINUOUS
  0
LAYER
  2
ADD_LINE
 70
   64
 62
    7
  6
CONTINUOUS
  0
ENDTAB
  0
ENDSEC
  0
SECTION
  2
BLOCKS
  0
ENDSEC
  0
SECTION
  2
ENTITIES
  0
LINE
  8
_8-0_
  6
CONTINUOUS
 62
    4
 10
906.56655129439718
 20
291.27968517769727
 11
879.085786437627
 21
318.76045003446768
  0
LINE
  8
_8-0_
  6
CONTINUOUS
 62
    4
 10
810.5
 20
335.84542904620616
 11
810.5
 21
364.37466046690701
  0
TEXT
  8
_0-0_
 62
    7
 10
1462.64353654776
 20
197.72253855949753
 40
15
 41
1
 50
0
  1
PBO.24.9% クリスタル
  0
TEXT
  8
_1-0_
 62
    7
 10
-99.937080149818484
 20
127.46338111610691
 40
15
 41
1
 50
0
  1
※本製品は吹きガラスによる一品生産品ですので、サイズ、彫刻（エングレビング）は同じ品番であっても多少の違いが生じます。また、製品の特性上小さな気泡が入る場合もございます。
  0
LINE
  8
_8-0_
  6
CONTINUOUS
 62
    7
 10
1037.267150492376
 20
250.17681084359753
 11
1037.267150492376
 21
274.94590766026385
  0
LINE
  8
_8-0_
  6
CONTINUOUS
 62
    7
 10
1037.267150492376
 20
274.94590766026385
 11
1181.1387128530122
 21
274.94590766026385
  0
LINE
  8
_8-0_
  6
CONTINUOUS
 62
    7
 10
1181.1387128530122
 20
274.94590766026385
 11
1181.1387128530122
 21
250.17681084359753
  0
LINE
  8
_8-0_
  6
CONTINUOUS
 62
    7
 10
1181.1387128530122
 20
250.17681084359753
 11
1037.267150492376
 21
250.17681084359753
  0
LINE
  8
_8-0_
  6
CONTINUOUS
 62
    7
 10
1037.267150492376
 20
709.95287970660831
 11
1181.1387128530122
 21
709.95287970660831
  0
LINE
  8
_8-0_
  6
CONTINUOUS
 62
    7
 10
1181.1387128530122
 20
709.95287970660831
 11
1181.1387128530122
 21
685.18378288994188
  0
LINE
  8
_8-0_
  6
CONTINUOUS
 62
    7
 10
1181.1387128530122
 20
685.18378288994188
 11
1037.267150492376
 21
685.18378288994188
  0
TEXT
  8
_0-0_
 62
    7
 10
16.788456039080074
 20
1075.097342543695
 40
20
 41
1
 50
0
  1
SC-WBMS-SQ01Q  ELIZABETH QUEEN
  0
TEXT
  8
_0-0_
 62
    7
 10
15.788456039080074
 20
1111.597342543695
 40
30
 41
1
 50
0
  1
MimiSQUAREシリーズ
  0
TEXT
  8
_0-0_
 62
    7
 10
17.788456039080074
 20
1049.097342543695
 40
20
 41
1
 50
0
  1
SC-WBMS-SQ03Q  VICTORIA QUEEN
  0
TEXT
  8
_0-0_
 62
    7
 10
26.788456039080074
 20
1023.097342543695
 40
20
 41
1
 50
0
  1
SC-WBMS-SQ04Q  VIERA
  0
LINE
  8
_8-0_
  6
CONTINUOUS
 62
    4
 10
714.00000000000011
 20
974.93953762833416
 11
714.00000000000011
 21
720.93953762833416
  0
LINE
  8
_8-0_
  6
CONTINUOUS
 62
    4
 10
714.00000000000011
 20
720.93953762833416
 11
968.00000000000022
 21
720.93953762833416
  0
LINE
  8
_8-0_
  6
CONTINUOUS
 62
    4
 10
968.00000000000022
 20
974.93953762833416
 11
714.00000000000011
 21
974.93953762833416
  0
LINE
  8
_8-0_
  6
CONTINUOUS
 62
    4
 10
968.00000000000022
 20
720.93953762833416
 11
968.00000000000022
 21
974.93953762833416
  0
ARC
  8
_8-0_
  6
CONTINUOUS
 62
    7
 10
706.00000000000011
 20
982.93953762833416
 40
5
 50
90
 51
180
  0
LINE
  8
_8-0_
  6
CONTINUOUS
 62
    7
 10
976.00000000000022
 20
987.93953762833416
 11
706.00000000000011
 21
987.93953762833416
  0
ARC
  8
_8-0_
  6
CONTINUOUS
 62
    7
 10
976.00000000000022
 20
982.93953762833416
 40
5
 50
0
 51
90
  0
LINE
  8
_8-0_
  6
CONTINUOUS
 62
    7
 10
701.00000000000011
 20
712.93953762833416
 11
701.00000000000011
 21
982.93953762833416
  0
ARC
  8
_8-0_
  6
CONTINUOUS
 62
    7
 10
706.00000000000011
 20
712.93953762833416
 40
5
 50
180
 51
270
  0
LINE
  8
_8-0_
  6
CONTINUOUS
 62
    7
 10
976.00000000000022
 20
707.93953762833416
 11
706.00000000000011
 21
707.93953762833416
  0
LINE
  8
_8-0_
  6
CONTINUOUS
 62
    7
 10
981.00000000000022
 20
712.93953762833416
 11
981.00000000000022
 21
982.93953762833416
  0
ARC
  8
_8-0_
  6
CONTINUOUS
 62
    7
 10
976.00000000000022
 20
712.93953762833416
 40
5
 50
270
 51
0
  0
LINE
  8
_8-0_
  6
CONTINUOUS
 62
    4
 10
701.00000523991286
 20
994.29936722787874
 11
701.00000523991286
 21
1060.4287410459833
  0
LINE
  8
_8-0_
  6
CONTINUOUS
 62
    4
 10
701.00000000000011
 20
1060.4287410459833
 11
981.00000000000022
 21
1060.4287410459833
  0
LINE
  8
_8-0_
  6
CONTINUOUS
 62
    7
 10
701.00000000000011
 20
1060.4287410459833
 11
706.79555495773456
 21
1061.9816553165983
  0
LINE
  8
_8-0_
  6
CONTINUOUS
 62
    7
 10
701.00000000000011
 20
1060.4287410459833
 11
706.79555495773456
 21
1058.8758267753682
  0
LINE
  8
_8-0_
  6
CONTINUOUS
 62
    7
 10
981.00000000000022
 20
1060.4287410459833
 11
975.20444504226566
 21
1058.8758267753682
  0
LINE
  8
_8-0_
  6
CONTINUOUS
 62
    7
 10
981.00000000000022
 20
1060.4287410459833
 11
975.20444504226566
 21
1061.9816553165983
  0
LINE
  8
_8-0_
  6
CONTINUOUS
 62
    4
 10
701.00000000000011
 20
1060.4287410459833
 11
701.00000000000011
 21
994.29936722787874
  0
LINE
  8
_8-0_
  6
CONTINUOUS
 62
    4
 10
981.00000000000022
 20
1060.4287410459833
 11
981.00000000000022
 21
994.29936722787874
  0
TEXT
  8
_8-0_
 62
    7
 10
828.75000000000022
 20
1060.9287410459833
 40
15
 41
1
 50
0
  1
280
  0
LINE
  8
_8-0_
  6
CONTINUOUS
 62
    4
 10
625.62997108814613
 20
987.93953762833416
 11
625.62997108814613
 21
707.93953762833416
  0
LINE
  8
_8-0_
  6
CONTINUOUS
 62
    7
 10
625.62997108814613
 20
987.93953762833416
 11
627.18288535876126
 21
982.14398267059982
  0
LINE
  8
_8-0_
  6
CONTINUOUS
 62
    7
 10
625.62997108814613
 20
987.93953762833416
 11
624.077056817531
 21
982.14398267059982
  0
LINE
  8
_8-0_
  6
CONTINUOUS
 62
    7
 10
625.62997108814613
 20
707.93953762833416
 11
624.077056817531
 21
713.73509258606861
  0
LINE
  8
_8-0_
  6
CONTINUOUS
 62
    7
 10
625.62997108814613
 20
707.93953762833416
 11
627.18288535876126
 21
713.73509258606861
  0
LINE
  8
_8-0_
  6
CONTINUOUS
 62
    4
 10
625.62997108814613
 20
987.93953762833416
 11
696.57907702492457
 21
987.93953762833416
  0
LINE
  8
_8-0_
  6
CONTINUOUS
 62
    4
 10
625.62997108814613
 20
707.93953762833416
 11
696.57907702492445
 21
707.93953762833416
  0
TEXT
  8
_8-0_
 62
    7
 10
625.12997108814613
 20
835.68953762833416
 40
15
 41
1
 50
90
  1
280
  0
CIRCLE
  8
_8-0_
  6
CONTINUOUS
 62
    7
 10
841.00000000000022
 20
847.93953762833405
 40
20.5
  0
CIRCLE
  8
_8-0_
  6
CONTINUOUS
 62
    4
 10
841.00000000000022
 20
847.93953762833405
 40
30.5
  0
LINE
  8
_8-0_
  6
CONTINUOUS
 62
    4
 10
968.00000000000022
 20
974.93953762833416
 11
862.56675682618993
 21
869.50629445452398
  0
LINE
  8
_8-0_
  6
CONTINUOUS
 62
    4
 10
819.43324317381018
 20
826.37278080214457
 11
714.00000000000011
 21
720.93953762833416
  0
LINE
  8
_8-0_
  6
CONTINUOUS
 62
    4
 10
714.00000000000011
 20
974.93953762833416
 11
819.43324317381029
 21
869.50629445452398
  0
LINE
  8
_8-0_
  6
CONTINUOUS
 62
    4
 10
862.56675682618993
 20
826.37278080214457
 11
968.00000000000022
 21
720.93953762833416
  0
LINE
  8
_8-0_
  6
CONTINUOUS
 62
    7
 10
981.00000000000022
 20
415.20714186989027
 11
701.00000000000011
 21
415.20714186989027
  0
LINE
  8
_8-0_
  6
CONTINUOUS
 62
    7
 10
878.50000000000022
 20
315.20714186989022
 11
803.50000000000011
 21
315.20714186989022
  0
LINE
  8
_8-0_
  6
CONTINUOUS
 62
    4
 10
871.5
 20
930.06053521387843
 11
810.5
 21
930.06053521387843
  0
TEXT
  8
_8-0_
 62
    7
 10
824.5
 20
930.56053521387843
 40
15
 41
1
 50
0
  1
φ61
  0
LINE
  8
_8-0_
  6
CONTINUOUS
 62
    7
 10
871.5
 20
930.06053521387843
 11
865.70444504226566
 21
928.50762094326319
  0
LINE
  8
_8-0_
  6
CONTINUOUS
 62
    7
 10
871.5
 20
930.06053521387843
 11
865.70444504226566
 21
931.61344948449345
  0
LINE
  8
_8-0_
  6
CONTINUOUS
 62
    7
 10
810.5
 20
930.06053521387843
 11
816.29555495773433
 21
931.61344948449345
  0
LINE
  8
_8-0_
  6
CONTINUOUS
 62
    7
 10
810.5
 20
930.06053521387843
 11
816.29555495773433
 21
928.50762094326319
  0
LINE
  8
_8-0_
  6
CONTINUOUS
 62
    4
 10
871.5
 20
866.43230794874352
 11
871.5
 21
930.06053521387843
  0
LINE
  8
_8-0_
  6
CONTINUOUS
 62
    4
 10
810.5
 20
866.43230794874352
 11
810.5
 21
930.06053521387843
  0
LINE
  8
_8-0_
  6
CONTINUOUS
 62
    4
 10
861.5
 20
901.84801935103553
 11
820.5
 21
901.84801935103553
  0
TEXT
  8
_8-0_
 62
    7
 10
824.5
 20
902.34801935103553
 40
15
 41
1
 50
0
  1
φ41
  0
LINE
  8
_8-0_
  6
CONTINUOUS
 62
    7
 10
861.5
 20
901.84801935103553
 11
855.70444504226566
 21
900.29510508042039
  0
LINE
  8
_8-0_
  6
CONTINUOUS
 62
    7
 10
861.5
 20
901.84801935103553
 11
855.70444504226566
 21
903.40093362165066
  0
LINE
  8
_8-0_
  6
CONTINUOUS
 62
    7
 10
820.5
 20
901.84801935103553
 11
826.29555495773433
 21
903.40093362165066
  0
LINE
  8
_8-0_
  6
CONTINUOUS
 62
    7
 10
820.5
 20
901.84801935103553
 11
826.29555495773433
 21
900.29510508042039
  0
LINE
  8
_8-0_
  6
CONTINUOUS
 62
    4
 10
861.5
 20
866.43230794874352
 11
861.5
 21
901.84801935103553
  0
LINE
  8
_8-0_
  6
CONTINUOUS
 62
    4
 10
820.5
 20
866.43230794874352
 11
820.5
 21
901.84801935103553
  0
LINE
  8
_8-0_
  6
CONTINUOUS
 62
    7
 10
1037.267150492376
 20
709.95287970660831
 11
1037.267150492376
 21
685.18378288994188
  0
LINE
  8
_8-0_
  6
DASHED3
 62
    4
 10
714.00000000000011
 20
415.20714186989027
 11
814.38659793359636
 21
320.20714186989022
  0
LINE
  8
_8-0_
  6
DASHED3
 62
    4
 10
968.00000000000022
 20
415.20714186989027
 11
867.61340206640375
 21
320.20714186989022
  0
LINE
  8
_8-0_
  6
DASHED3
 62
    4
 10
867.61340206640375
 20
320.20714186989022
 11
867.61340206640375
 21
315.20714186989022
  0
LINE
  8
_8-0_
  6
DASHED3
 62
    4
 10
814.38659793359636
 20
320.20714186989022
 11
814.38659793359636
 21
315.20714186989022
  0
LINE
  8
_8-0_
  6
CONTINUOUS
 62
    4
 10
701.00000000000011
 20
511.47630242086768
 11
981.00000000000022
 21
511.47630242086768
  0
LINE
  8
_8-0_
  6
CONTINUOUS
 62
    7
 10
701.00000000000011
 20
511.47630242086768
 11
706.79555495773456
 21
513.02921669148281
  0
LINE
  8
_8-0_
  6
CONTINUOUS
 62
    7
 10
701.00000000000011
 20
511.47630242086768
 11
706.79555495773456
 21
509.92338815025249
  0
LINE
  8
_8-0_
  6
CONTINUOUS
 62
    7
 10
981.00000000000022
 20
511.47630242086768
 11
975.20444504226566
 21
509.92338815025249
  0
LINE
  8
_8-0_
  6
CONTINUOUS
 62
    7
 10
981.00000000000022
 20
511.47630242086768
 11
975.20444504226566
 21
513.02921669148281
  0
LINE
  8
_8-0_
  6
CONTINUOUS
 62
    4
 10
701.00000000000011
 20
511.47630242086768
 11
701.00000000000011
 21
433.95389353245593
  0
LINE
  8
_8-0_
  6
CONTINUOUS
 62
    4
 10
981.00000000000022
 20
511.47630242086768
 11
981.00000000000022
 21
433.95389353245593
  0
TEXT
  8
_8-0_
 62
    7
 10
828.75000000000022
 20
511.97630242086768
 40
15
 41
1
 50
0
  1
280
  0
LINE
  8
_8-0_
  6
CONTINUOUS
 62
    4
 10
810.5
 20
364.37466046690701
 11
871.5
 21
364.37466046690701
  0
TEXT
  8
_8-0_
 62
    7
 10
824.5
 20
364.87466046690701
 40
15
 41
1
 50
0
  1
φ61
  0
LINE
  8
_8-0_
  6
CONTINUOUS
 62
    7
 10
810.5
 20
364.37466046690701
 11
816.29555495773433
 21
365.92757473752214
  0
LINE
  8
_8-0_
  6
CONTINUOUS
 62
    7
 10
810.5
 20
364.37466046690701
 11
816.29555495773433
 21
362.82174619629188
  0
LINE
  8
_8-0_
  6
CONTINUOUS
 62
    7
 10
871.5
 20
364.37466046690701
 11
865.70444504226566
 21
362.82174619629188
  0
LINE
  8
_8-0_
  6
CONTINUOUS
 62
    7
 10
871.5
 20
364.37466046690701
 11
865.70444504226566
 21
365.92757473752214
  0
LINE
  8
_8-0_
  6
CONTINUOUS
 62
    4
 10
871.5
 20
335.84542904620616
 11
871.5
 21
364.37466046690701
  0
LINE
  8
_8-0_
  6
CONTINUOUS
 62
    4
 10
820.5
 20
270.0738914015576
 11
861.5
 21
270.0738914015576
  0
TEXT
  8
_8-0_
 62
    7
 10
824.5
 20
270.5738914015576
 40
15
 41
1
 50
0
  1
φ41
  0
LINE
  8
_8-0_
  6
CONTINUOUS
 62
    7
 10
820.5
 20
270.0738914015576
 11
826.29555495773433
 21
271.62680567217279
  0
LINE
  8
_8-0_
  6
CONTINUOUS
 62
    7
 10
820.5
 20
270.0738914015576
 11
826.29555495773433
 21
268.52097713094252
  0
LINE
  8
_8-0_
  6
CONTINUOUS
 62
    7
 10
861.5
 20
270.0738914015576
 11
855.70444504226566
 21
268.52097713094252
  0
LINE
  8
_8-0_
  6
CONTINUOUS
 62
    7
 10
861.5
 20
270.0738914015576
 11
855.70444504226566
 21
271.62680567217279
  0
LINE
  8
_8-0_
  6
CONTINUOUS
 62
    4
 10
820.5
 20
310.1924873333063
 11
820.5
 21
270.0738914015576
  0
LINE
  8
_8-0_
  6
CONTINUOUS
 62
    4
 10
861.5
 20
310.1924873333063
 11
861.5
 21
270.0738914015576
  0
LINE
  8
_8-0_
  6
CONTINUOUS
 62
    4
 10
803.5
 20
242.80711236277397
 11
878.5
 21
242.80711236277397
  0
TEXT
  8
_8-0_
 62
    7
 10
824.5
 20
243.30711236277397
 40
15
 41
1
 50
0
  1
φ75
  0
LINE
  8
_8-0_
  6
CONTINUOUS
 62
    7
 10
803.5
 20
242.80711236277397
 11
809.29555495773433
 21
244.36002663338911
  0
LINE
  8
_8-0_
  6
CONTINUOUS
 62
    7
 10
803.5
 20
242.80711236277397
 11
809.29555495773433
 21
241.25419809215878
  0
LINE
  8
_8-0_
  6
CONTINUOUS
 62
    7
 10
878.5
 20
242.80711236277397
 11
872.70444504226566
 21
241.25419809215878
  0
LINE
  8
_8-0_
  6
CONTINUOUS
 62
    7
 10
878.5
 20
242.80711236277397
 11
872.70444504226566
 21
244.36002663338911
  0
LINE
  8
_8-0_
  6
CONTINUOUS
 62
    4
 10
803.5
 20
310.1924873333063
 11
803.5
 21
242.80711236277397
  0
LINE
  8
_8-0_
  6
CONTINUOUS
 62
    4
 10
878.5
 20
310.1924873333063
 11
878.5
 21
242.80711236277397
  0
LINE
  8
_8-0_
  6
CONTINUOUS
 62
    4
 10
849.65713359423773
 20
315.20714186989022
 11
849.65713359423773
 21
305.20714186989022
  0
LINE
  8
_8-0_
  6
CONTINUOUS
 62
    4
 10
849.65713359423773
 20
320.20714186989022
 11
849.65713359423773
 21
330.20714186989022
  0
LINE
  8
_8-0_
  6
CONTINUOUS
 62
    4
 10
849.65713359423773
 20
315.20714186989022
 11
849.65713359423773
 21
320.20714186989022
  0
LINE
  8
_8-0_
  6
CONTINUOUS
 62
    7
 10
849.65713359423773
 20
315.20714186989022
 11
851.21004786485286
 21
309.41158691215588
  0
LINE
  8
_8-0_
  6
CONTINUOUS
 62
    7
 10
849.65713359423773
 20
315.20714186989022
 11
848.10421932362282
 21
309.41158691215588
  0
LINE
  8
_8-0_
  6
CONTINUOUS
 62
    7
 10
849.65713359423773
 20
320.20714186989022
 11
848.10421932362282
 21
326.00269682762467
  0
LINE
  8
_8-0_
  6
CONTINUOUS
 62
    7
 10
849.65713359423773
 20
320.20714186989022
 11
851.21004786485286
 21
326.00269682762467
  0
LINE
  8
_8-0_
  6
CONTINUOUS
 62
    4
 10
849.65713359423773
 20
315.20714186989022
 11
864.00711864461322
 21
315.20714186989022
  0
LINE
  8
_8-0_
  6
CONTINUOUS
 62
    4
 10
849.65713359423773
 20
320.20714186989022
 11
864.00711864461322
 21
320.20714186989022
  0
TEXT
  8
_8-0_
 62
    7
 10
849.15713359423773
 20
313.95714186989022
 40
15
 41
1
 50
90
  1
5
  0
LINE
  8
_8-0_
  6
CONTINUOUS
 62
    4
 10
1065.9482786281369
 20
315.20714186989022
 11
1065.9482786281369
 21
415.20714186989027
  0
LINE
  8
_8-0_
  6
CONTINUOUS
 62
    7
 10
1065.9482786281369
 20
315.20714186989022
 11
1064.3953643575216
 21
321.00269682762467
  0
LINE
  8
_8-0_
  6
CONTINUOUS
 62
    7
 10
1065.9482786281369
 20
315.20714186989022
 11
1067.5011928987519
 21
321.00269682762467
  0
LINE
  8
_8-0_
  6
CONTINUOUS
 62
    7
 10
1065.9482786281369
 20
415.20714186989027
 11
1067.5011928987519
 21
409.41158691215582
  0
LINE
  8
_8-0_
  6
CONTINUOUS
 62
    7
 10
1065.9482786281369
 20
415.20714186989027
 11
1064.3953643575216
 21
409.41158691215582
  0
LINE
  8
_8-0_
  6
CONTINUOUS
 62
    4
 10
1065.9482786281369
 20
415.20714186989027
 11
986.11415158340457
 21
415.20714186989027
  0
TEXT
  8
_8-0_
 62
    7
 10
1065.4482786281369
 20
352.95714186989027
 40
15
 41
1
 50
90
  1
100
  0
LINE
  8
_8-0_
  6
CONTINUOUS
 62
    4
 10
1065.9482786281369
 20
315.20714186989022
 11
891.49592693779595
 21
315.20714186989022
  0
LINE
  8
_8-0_
  6
CONTINUOUS
 62
    4
 10
777.06701150701314
 20
315.20714186989022
 11
777.06701150701314
 21
305.20714186989022
  0
LINE
  8
_8-0_
  6
CONTINUOUS
 62
    4
 10
777.06701150701314
 20
318.20714186989022
 11
777.06701150701314
 21
328.20714186989022
  0
LINE
  8
_8-0_
  6
CONTINUOUS
 62
    4
 10
777.06701150701314
 20
315.20714186989022
 11
777.06701150701314
 21
318.20714186989022
  0
LINE
  8
_8-0_
  6
CONTINUOUS
 62
    7
 10
777.06701150701314
 20
315.20714186989022
 11
778.61992577762828
 21
309.41158691215588
  0
LINE
  8
_8-0_
  6
CONTINUOUS
 62
    7
 10
777.06701150701314
 20
315.20714186989022
 11
775.51409723639801
 21
309.41158691215588
  0
LINE
  8
_8-0_
  6
CONTINUOUS
 62
    7
 10
777.06701150701314
 20
318.20714186989022
 11
775.51409723639801
 21
324.00269682762467
  0
LINE
  8
_8-0_
  6
CONTINUOUS
 62
    7
 10
777.06701150701314
 20
318.20714186989022
 11
778.61992577762828
 21
324.00269682762467
  0
LINE
  8
_8-0_
  6
CONTINUOUS
 62
    4
 10
777.06701150701314
 20
315.20714186989022
 11
797.46906619622245
 21
315.20714186989022
  0
LINE
  8
_8-0_
  6
CONTINUOUS
 62
    4
 10
777.06701150701314
 20
318.20714186989022
 11
797.46906619622245
 21
318.20714186989022
  0
TEXT
  8
_8-0_
 62
    7
 10
776.56701150701314
 20
312.95714186989022
 40
15
 41
1
 50
90
  1
3
  0
LINE
  8
_8-0_
  6
CONTINUOUS
 62
    7
 10
879.12529710058481
 20
318.79888644312637
 11
981.00000000000022
 21
415.20714186989027
  0
LINE
  8
_8-0_
  6
CONTINUOUS
 62
    7
 10
878.50000000000022
 20
317.34623647209451
 11
878.50000000000022
 21
315.20714186989022
  0
ARC
  8
_8-0_
  6
CONTINUOUS
 62
    7
 10
880.50000000000022
 20
317.34623647209451
 40
2
 50
133.42081710870411
 51
180.00000000000002
  0
LINE
  8
_8-0_
  6
CONTINUOUS
 62
    7
 10
802.87470289941552
 20
318.79888644312637
 11
701.00000000000011
 21
415.20714186989027
  0
LINE
  8
_8-0_
  6
CONTINUOUS
 62
    7
 10
803.50000000000011
 20
317.34623647209451
 11
803.50000000000011
 21
315.20714186989022
  0
ARC
  8
_8-0_
  6
CONTINUOUS
 62
    7
 10
801.50000000000011
 20
317.34623647209451
 40
2
 50
0
 51
46.5791828912959
  0
LINE
  8
_8-0_
  6
CONTINUOUS
 62
    7
 10
879.085786437627
 20
318.76045003446768
 11
884.28193886033363
 21
315.76045003446768
  0
LINE
  8
_8-0_
  6
CONTINUOUS
 62
    7
 10
879.085786437627
 20
318.76045003446768
 11
882.085786437627
 21
313.56429761176104
  0
TEXT
  8
_8-0_
 62
    7
 10
920.19185368026114
 20
283.99715191740591
 40
15
 41
1
 50
0
  1
R2
  0
LINE
  8
_8-0_
  6
CONTINUOUS
 62
    4
 10
906.56655129439718
 20
291.27968517769727
 11
920.17800508010168
 21
291.27968517769727
  0
LINE
  8
_8-0_
  6
CONTINUOUS
 62
    4
 10
979.53553390593299
 20
986.47507153426681
 11
992.97056274847705
 21
999.91010037681155
  0
LINE
  8
_8-0_
  6
CONTINUOUS
 62
    4
 10
983.07106781186553
 20
990.01060544019969
 11
979.53553390593299
 21
986.47507153426681
  0
LINE
  8
_8-0_
  6
CONTINUOUS
 62
    7
 10
979.53553390593299
 20
986.47507153426681
 11
982.53553390593299
 21
991.67122395697356
  0
LINE
  8
_8-0_
  6
CONTINUOUS
 62
    7
 10
979.53553390593299
 20
986.47507153426681
 11
984.73168632863939
 21
989.47507153426681
  0
LINE
  8
_8-0_
  6
CONTINUOUS
 62
    4
 10
992.97056274847705
 20
999.91010037681155
 11
1024.3193769808015
 21
999.91010037681155
  0
TEXT
  8
_8-0_
 62
    7
 10
1023.6044451721879
 20
992.36986071545879
 40
15
 41
1
 50
0
  1
R5
  0
TEXT
  8
_0-0_
 62
    7
 10
1469.39353654776
 20
157.72253855949753
 40
15
 41
1
 50
0
  1
重量　3.2kg
  0
TEXT
  8
_0-0_
 62
    7
 10
1470.14353654776
 20
177.72253855949753
 40
15
 41
1
 50
0
  1
容量　4.7L
  0
TEXT
  8
_8-0_
 62
    7
 10
1038.2029316726939
 20
687.56833129827521
 40
20
 41
1
 50
0
  1
上面図　S=1/2
  0
TEXT
  8
_8-0_
 62
    7
 10
1038.2029316726939
 20
252.56135925193075
 40
20
 41
1
 50
0
  1
側面図　S=1/2
  0
ENDSEC
  0
EOF
