  0
SECTION
  2
HEADER
  9
$ACADVER
  1
AC1032
  9
$ACADMAINTVER
 90
      197
  9
$DWGCODEPAGE
  3
ANSI_932
  9
$REQUIREDVERSIONS
160
                 0
  9
$INSBASE
 10
0.0
 20
0.0
 30
0.0
  9
$EXTMIN
 10
1.000000000000000E+20
 20
1.000000000000000E+20
 30
1.000000000000000E+20
  9
$EXTMAX
 10
-1.000000000000000E+20
 20
-1.000000000000000E+20
 30
-1.000000000000000E+20
  9
$LIMMIN
 10
0.0
 20
0.0
  9
$LIMMAX
 10
12.0
 20
9.0
  9
$ORTHOMODE
 70
     0
  9
$REGENMODE
 70
     1
  9
$FILLMODE
 70
     1
  9
$QTEXTMODE
 70
     0
  9
$MIRRTEXT
 70
     0
  9
$LTSCALE
 40
1.0
  9
$ATTMODE
 70
     1
  9
$TEXTSIZE
 40
0.2
  9
$TRACEWID
 40
0.05
  9
$TEXTSTYLE
  7
Standard
  9
$CLAYER
  8
0
  9
$CELTYPE
  6
ByLayer
  9
$CECOLOR
 62
   256
  9
$CELTSCALE
 40
1.0
  9
$DISPSILH
 70
     0
  9
$DIMSCALE
 40
1.0
  9
$DIMASZ
 40
0.18
  9
$DIMEXO
 40
0.0625
  9
$DIMDLI
 40
0.38
  9
$DIMRND
 40
0.0
  9
$DIMDLE
 40
0.0
  9
$DIMEXE
 40
0.18
  9
$DIMTP
 40
0.0
  9
$DIMTM
 40
0.0
  9
$DIMTXT
 40
0.18
  9
$DIMCEN
 40
0.09
  9
$DIMTSZ
 40
0.0
  9
$DIMTOL
 70
     0
  9
$DIMLIM
 70
     0
  9
$DIMTIH
 70
     1
  9
$DIMTOH
 70
     1
  9
$DIMSE1
 70
     0
  9
$DIMSE2
 70
     0
  9
$DIMTAD
 70
     0
  9
$DIMZIN
 70
     0
  9
$DIMBLK
  1

  9
$DIMASO
 70
     1
  9
$DIMSHO
 70
     1
  9
$DIMPOST
  1

  9
$DIMAPOST
  1

  9
$DIMALT
 70
     0
  9
$DIMALTD
 70
     2
  9
$DIMALTF
 40
25.4
  9
$DIMLFAC
 40
1.0
  9
$DIMTOFL
 70
     0
  9
$DIMTVP
 40
0.0
  9
$DIMTIX
 70
     0
  9
$DIMSOXD
 70
     0
  9
$DIMSAH
 70
     0
  9
$DIMBLK1
  1

  9
$DIMBLK2
  1

  9
$DIMSTYLE
  2
Standard
  9
$DIMCLRD
 70
     0
  9
$DIMCLRE
 70
     0
  9
$DIMCLRT
 70
     0
  9
$DIMTFAC
 40
1.0
  9
$DIMGAP
 40
0.09
  9
$DIMJUST
 70
     0
  9
$DIMSD1
 70
     0
  9
$DIMSD2
 70
     0
  9
$DIMTOLJ
 70
     1
  9
$DIMTZIN
 70
     0
  9
$DIMALTZ
 70
     0
  9
$DIMALTTZ
 70
     0
  9
$DIMUPT
 70
     0
  9
$DIMDEC
 70
     4
  9
$DIMTDEC
 70
     4
  9
$DIMALTU
 70
     2
  9
$DIMALTTD
 70
     2
  9
$DIMTXSTY
  7
Standard
  9
$DIMAUNIT
 70
     0
  9
$DIMADEC
 70
     0
  9
$DIMALTRND
 40
0.0
  9
$DIMAZIN
 70
     0
  9
$DIMDSEP
 70
    46
  9
$DIMATFIT
 70
     3
  9
$DIMFRAC
 70
     0
  9
$DIMLDRBLK
  1

  9
$DIMLUNIT
 70
     2
  9
$DIMLWD
 70
    -2
  9
$DIMLWE
 70
    -2
  9
$DIMTMOVE
 70
     0
  9
$DIMFXL
 40
1.0
  9
$DIMFXLON
 70
     0
  9
$DIMJOGANG
 40
0.7853981633974483
  9
$DIMTFILL
 70
     0
  9
$DIMTFILLCLR
 70
     0
  9
$DIMARCSYM
 70
     0
  9
$DIMLTYPE
  6

  9
$DIMLTEX1
  6

  9
$DIMLTEX2
  6

  9
$DIMTXTDIRECTION
 70
     0
  9
$LUNITS
 70
     2
  9
$LUPREC
 70
     4
  9
$SKETCHINC
 40
0.1
  9
$FILLETRAD
 40
0.0
  9
$AUNITS
 70
     0
  9
$AUPREC
 70
     0
  9
$MENU
  1
.
  9
$ELEVATION
 40
0.0
  9
$PELEVATION
 40
0.0
  9
$THICKNESS
 40
0.0
  9
$LIMCHECK
 70
     0
  9
$CHAMFERA
 40
0.0
  9
$CHAMFERB
 40
0.0
  9
$CHAMFERC
 40
0.0
  9
$CHAMFERD
 40
0.0
  9
$SKPOLY
 70
     0
  9
$TDCREATE
 40
2459677.706226852
  9
$TDUCREATE
 40
2459677.331226852
  9
$TDUPDATE
 40
2459677.706226852
  9
$TDUUPDATE
 40
2459677.331226852
  9
$TDINDWG
 40
0.0000000000
  9
$TDUSRTIMER
 40
0.0000000000
  9
$USRTIMER
 70
     1
  9
$ANGBASE
 50
0.0
  9
$ANGDIR
 70
     0
  9
$PDMODE
 70
     0
  9
$PDSIZE
 40
0.0
  9
$PLINEWID
 40
0.0
  9
$SPLFRAME
 70
     0
  9
$SPLINETYPE
 70
     6
  9
$SPLINESEGS
 70
     8
  9
$HANDSEED
  5
3C7
  9
$SURFTAB1
 70
     6
  9
$SURFTAB2
 70
     6
  9
$SURFTYPE
 70
     6
  9
$SURFU
 70
     6
  9
$SURFV
 70
     6
  9
$UCSBASE
  2

  9
$UCSNAME
  2

  9
$UCSORG
 10
0.0
 20
0.0
 30
0.0
  9
$UCSXDIR
 10
1.0
 20
0.0
 30
0.0
  9
$UCSYDIR
 10
0.0
 20
1.0
 30
0.0
  9
$UCSORTHOREF
  2

  9
$UCSORTHOVIEW
 70
     0
  9
$UCSORGTOP
 10
0.0
 20
0.0
 30
0.0
  9
$UCSORGBOTTOM
 10
0.0
 20
0.0
 30
0.0
  9
$UCSORGLEFT
 10
0.0
 20
0.0
 30
0.0
  9
$UCSORGRIGHT
 10
0.0
 20
0.0
 30
0.0
  9
$UCSORGFRONT
 10
0.0
 20
0.0
 30
0.0
  9
$UCSORGBACK
 10
0.0
 20
0.0
 30
0.0
  9
$PUCSBASE
  2

  9
$PUCSNAME
  2

  9
$PUCSORG
 10
0.0
 20
0.0
 30
0.0
  9
$PUCSXDIR
 10
1.0
 20
0.0
 30
0.0
  9
$PUCSYDIR
 10
0.0
 20
1.0
 30
0.0
  9
$PUCSORTHOREF
  2

  9
$PUCSORTHOVIEW
 70
     0
  9
$PUCSORGTOP
 10
0.0
 20
0.0
 30
0.0
  9
$PUCSORGBOTTOM
 10
0.0
 20
0.0
 30
0.0
  9
$PUCSORGLEFT
 10
0.0
 20
0.0
 30
0.0
  9
$PUCSORGRIGHT
 10
0.0
 20
0.0
 30
0.0
  9
$PUCSORGFRONT
 10
0.0
 20
0.0
 30
0.0
  9
$PUCSORGBACK
 10
0.0
 20
0.0
 30
0.0
  9
$USERI1
 70
     0
  9
$USERI2
 70
     0
  9
$USERI3
 70
     0
  9
$USERI4
 70
     0
  9
$USERI5
 70
     0
  9
$USERR1
 40
0.0
  9
$USERR2
 40
0.0
  9
$USERR3
 40
0.0
  9
$USERR4
 40
0.0
  9
$USERR5
 40
0.0
  9
$WORLDVIEW
 70
     1
  9
$SHADEDGE
 70
     3
  9
$SHADEDIF
 70
    70
  9
$TILEMODE
 70
     1
  9
$MAXACTVP
 70
    64
  9
$PINSBASE
 10
0.0
 20
0.0
 30
0.0
  9
$PLIMCHECK
 70
     0
  9
$PEXTMIN
 10
1.000000000000000E+20
 20
1.000000000000000E+20
 30
1.000000000000000E+20
  9
$PEXTMAX
 10
-1.000000000000000E+20
 20
-1.000000000000000E+20
 30
-1.000000000000000E+20
  9
$PLIMMIN
 10
0.0
 20
0.0
  9
$PLIMMAX
 10
12.0
 20
9.0
  9
$UNITMODE
 70
     0
  9
$VISRETAIN
 70
     1
  9
$PLINEGEN
 70
     0
  9
$PSLTSCALE
 70
     1
  9
$TREEDEPTH
 70
  3020
  9
$CMLSTYLE
  2
Standard
  9
$CMLJUST
 70
     0
  9
$CMLSCALE
 40
1.0
  9
$PROXYGRAPHICS
 70
     1
  9
$MEASUREMENT
 70
     0
  9
$CELWEIGHT
370
    -1
  9
$ENDCAPS
280
     0
  9
$JOINSTYLE
280
     0
  9
$LWDISPLAY
290
     1
  9
$INSUNITS
 70
     4
  9
$HYPERLINKBASE
  1

  9
$STYLESHEET
  1

  9
$XEDIT
290
     1
  9
$CEPSNTYPE
380
     0
  9
$PSTYLEMODE
290
     1
  9
$FINGERPRINTGUID
  2
{BC2CFB5E-218D-F443-97E8-843F768D5DF7}
  9
$VERSIONGUID
  2
{E206C7BB-9D04-014D-9B06-BE0CDC882F0C}
  9
$EXTNAMES
290
     1
  9
$PSVPSCALE
 40
0.0
  9
$OLESTARTUP
290
     0
  9
$SORTENTS
280
   127
  9
$INDEXCTL
280
     0
  9
$HIDETEXT
280
     1
  9
$XCLIPFRAME
280
     2
  9
$HALOGAP
280
     0
  9
$OBSCOLOR
 70
   257
  9
$OBSLTYPE
280
     0
  9
$INTERSECTIONDISPLAY
280
     0
  9
$INTERSECTIONCOLOR
 70
   257
  9
$DIMASSOC
280
     2
  9
$PROJECTNAME
  1

  9
$CAMERADISPLAY
290
     0
  9
$LENSLENGTH
 40
50.0
  9
$CAMERAHEIGHT
 40
0.0
  9
$STEPSPERSEC
 40
2.0
  9
$STEPSIZE
 40
6.0
  9
$3DDWFPREC
 40
2.0
  9
$PSOLWIDTH
 40
0.25
  9
$PSOLHEIGHT
 40
4.0
  9
$LOFTANG1
 40
1.570796326794896
  9
$LOFTANG2
 40
1.570796326794896
  9
$LOFTMAG1
 40
0.0
  9
$LOFTMAG2
 40
0.0
  9
$LOFTPARAM
 70
     7
  9
$LOFTNORMALS
280
     1
  9
$LATITUDE
 40
37.795
  9
$LONGITUDE
 40
-122.394
  9
$NORTHDIRECTION
 40
0.0
  9
$TIMEZONE
 70
 -8000
  9
$LIGHTGLYPHDISPLAY
280
     1
  9
$TILEMODELIGHTSYNCH
280
     1
  9
$CMATERIAL
347
11
  9
$SOLIDHIST
280
     0
  9
$SHOWHIST
280
     1
  9
$DWFFRAME
280
     2
  9
$DGNFRAME
280
     0
  9
$REALWORLDSCALE
290
     1
  9
$INTERFERECOLOR
 62
     1
  9
$INTERFEREOBJVS
345
33
  9
$INTERFEREVPVS
346
30
  9
$CSHADOW
280
     0
  9
$SHADOWPLANELOCATION
 40
0.0
  0
ENDSEC
  0
SECTION
  2
CLASSES
  0
CLASS
  1
ACDBDICTIONARYWDFLT
  2
AcDbDictionaryWithDefault
  3
ObjectDBX Classes
 90
        0
 91
        1
280
     0
281
     0
  0
CLASS
  1
MATERIAL
  2
AcDbMaterial
  3
ObjectDBX Classes
 90
     1153
 91
        3
280
     0
281
     0
  0
CLASS
  1
VISUALSTYLE
  2
AcDbVisualStyle
  3
ObjectDBX Classes
 90
     4095
 91
       24
280
     0
281
     0
  0
CLASS
  1
SCALE
  2
AcDbScale
  3
ObjectDBX Classes
 90
     1153
 91
       17
280
     0
281
     0
  0
CLASS
  1
TABLESTYLE
  2
AcDbTableStyle
  3
ObjectDBX Classes
 90
     4095
 91
        1
280
     0
281
     0
  0
CLASS
  1
MLEADERSTYLE
  2
AcDbMLeaderStyle
  3
ACDB_MLEADERSTYLE_CLASS
 90
     4095
 91
        1
280
     0
281
     0
  0
CLASS
  1
ACDBSECTIONVIEWSTYLE
  2
AcDbSectionViewStyle
  3
ObjectDBX Classes
 90
     1025
 91
        1
280
     0
281
     0
  0
CLASS
  1
ACDBDETAILVIEWSTYLE
  2
AcDbDetailViewStyle
  3
ObjectDBX Classes
 90
     1025
 91
        1
280
     0
281
     0
  0
CLASS
  1
DICTIONARYVAR
  2
AcDbDictionaryVar
  3
ObjectDBX Classes
 90
        0
 91
        5
280
     0
281
     0
  0
CLASS
  1
CELLSTYLEMAP
  2
AcDbCellStyleMap
  3
ObjectDBX Classes
 90
     1152
 91
        1
280
     0
281
     0
  0
ENDSEC
  0
SECTION
  2
TABLES
  0
TABLE
  2
VPORT
  5
8
330
0
100
AcDbSymbolTable
 70
     1
  0
VPORT
  5
57
330
8
100
AcDbSymbolTableRecord
100
AcDbViewportTableRecord
  2
*Active
 70
     0
 10
0.0
 20
0.0
 11
1.0
 21
1.0
 12
0.0
 22
0.0
 13
0.0
 23
0.0
 14
1.0
 24
1.0
 15
0.0
 25
0.0
 16
0.0
 26
0.0
 36
1.0
 17
148.5000119155985
 27
-209.9999940135198
 37
0.0
 40
428.3999877875802
 41
0.7071429340423608
 42
50.0
 43
0.0
 44
0.0
 50
0.0
 51
0.0
 71
     0
 72
   100
 73
     1
 74
     1
 75
     0
 76
     0
 77
     0
 78
     0
281
     0
 65
     1
110
0.0
120
0.0
130
0.0
111
1.0
121
0.0
131
0.0
112
0.0
122
1.0
132
0.0
 79
     0
146
0.0
 60
     3
 61
     5
292
     1
282
     1
141
0.0
142
0.0
 63
   250
421
  3355443
  0
ENDTAB
  0
TABLE
  2
LTYPE
  5
5
330
0
100
AcDbSymbolTable
 70
    15
  0
LTYPE
  5
5B
330
5
100
AcDbSymbolTableRecord
100
AcDbLinetypeTableRecord
  2
ByBlock
 70
     0
  3

 72
    65
 73
     0
 40
0.0
  0
LTYPE
  5
5C
330
5
100
AcDbSymbolTableRecord
100
AcDbLinetypeTableRecord
  2
ByLayer
 70
     0
  3

 72
    65
 73
     0
 40
0.0
  0
LTYPE
  5
5D
330
5
100
AcDbSymbolTableRecord
100
AcDbLinetypeTableRecord
  2
Continuous
 70
     0
  3
Solid line
 72
    65
 73
     0
 40
0.0
  0
LTYPE
  5
7F
330
5
100
AcDbSymbolTableRecord
100
AcDbLinetypeTableRecord
  2
AI-Linetype-0
 70
     0
  3
Adobe Illustrator Linetype No. 0
 72
    65
 73
     4
 40
7.499999870306151
 49
5.999999828957899
 74
     0
 49
-0.5000000137827505
 74
     0
 49
0.5000000137827505
 74
     0
 49
-0.5000000137827505
 74
     0
  0
LTYPE
  5
81
330
5
100
AcDbSymbolTableRecord
100
AcDbLinetypeTableRecord
  2
AI-Linetype-1
 70
     0
  3
Adobe Illustrator Linetype No. 1
 72
    65
 73
     4
 40
7.499999870306151
 49
5.999999828957899
 74
     0
 49
-0.5000000137827505
 74
     0
 49
0.5000000137827505
 74
     0
 49
-0.5000000137827505
 74
     0
  0
LTYPE
  5
83
330
5
100
AcDbSymbolTableRecord
100
AcDbLinetypeTableRecord
  2
AI-Linetype-2
 70
     0
  3
Adobe Illustrator Linetype No. 2
 72
    65
 73
     4
 40
7.499999870306151
 49
5.999999828957899
 74
     0
 49
-0.5000000137827505
 74
     0
 49
0.5000000137827505
 74
     0
 49
-0.5000000137827505
 74
     0
  0
LTYPE
  5
FE
330
5
100
AcDbSymbolTableRecord
100
AcDbLinetypeTableRecord
  2
AI-Linetype-3
 70
     0
  3
Adobe Illustrator Linetype No. 3
 72
    65
 73
     2
 40
3.99999994204445
 49
2.999999914478949
 74
     0
 49
-1.0000000275655
 74
     0
  0
LTYPE
  5
100
330
5
100
AcDbSymbolTableRecord
100
AcDbLinetypeTableRecord
  2
AI-Linetype-4
 70
     0
  3
Adobe Illustrator Linetype No. 4
 72
    65
 73
     2
 40
3.99999994204445
 49
2.999999914478949
 74
     0
 49
-1.0000000275655
 74
     0
  0
LTYPE
  5
110
330
5
100
AcDbSymbolTableRecord
100
AcDbLinetypeTableRecord
  2
AI-Linetype-5
 70
     0
  3
Adobe Illustrator Linetype No. 5
 72
    65
 73
     2
 40
3.99999994204445
 49
2.999999914478949
 74
     0
 49
-1.0000000275655
 74
     0
  0
LTYPE
  5
112
330
5
100
AcDbSymbolTableRecord
100
AcDbLinetypeTableRecord
  2
AI-Linetype-6
 70
     0
  3
Adobe Illustrator Linetype No. 6
 72
    65
 73
     2
 40
3.99999994204445
 49
2.999999914478949
 74
     0
 49
-1.0000000275655
 74
     0
  0
LTYPE
  5
248
330
5
100
AcDbSymbolTableRecord
100
AcDbLinetypeTableRecord
  2
AI-Linetype-7
 70
     0
  3
Adobe Illustrator Linetype No. 7
 72
    65
 73
     4
 40
7.499999870306151
 49
5.999999828957899
 74
     0
 49
-0.5000000137827505
 74
     0
 49
0.5000000137827505
 74
     0
 49
-0.5000000137827505
 74
     0
  0
LTYPE
  5
24A
330
5
100
AcDbSymbolTableRecord
100
AcDbLinetypeTableRecord
  2
AI-Linetype-8
 70
     0
  3
Adobe Illustrator Linetype No. 8
 72
    65
 73
     4
 40
7.499999870306151
 49
5.999999828957899
 74
     0
 49
-0.5000000137827505
 74
     0
 49
0.5000000137827505
 74
     0
 49
-0.5000000137827505
 74
     0
  0
LTYPE
  5
24C
330
5
100
AcDbSymbolTableRecord
100
AcDbLinetypeTableRecord
  2
AI-Linetype-9
 70
     0
  3
Adobe Illustrator Linetype No. 9
 72
    65
 73
     4
 40
7.499999870306151
 49
5.999999828957899
 74
     0
 49
-0.5000000137827505
 74
     0
 49
0.5000000137827505
 74
     0
 49
-0.5000000137827505
 74
     0
  0
LTYPE
  5
2A6
330
5
100
AcDbSymbolTableRecord
100
AcDbLinetypeTableRecord
  2
AI-Linetype-10
 70
     0
  3
Adobe Illustrator Linetype No. 10
 72
    65
 73
     2
 40
3.99999994204445
 49
2.999999914478949
 74
     0
 49
-1.0000000275655
 74
     0
  0
LTYPE
  5
2CD
330
5
100
AcDbSymbolTableRecord
100
AcDbLinetypeTableRecord
  2
AI-Linetype-11
 70
     0
  3
Adobe Illustrator Linetype No. 11
 72
    65
 73
     2
 40
3.99999994204445
 49
2.999999914478949
 74
     0
 49
-1.0000000275655
 74
     0
  0
LTYPE
  5
2D4
330
5
100
AcDbSymbolTableRecord
100
AcDbLinetypeTableRecord
  2
AI-Linetype-12
 70
     0
  3
Adobe Illustrator Linetype No. 12
 72
    65
 73
     2
 40
3.99999994204445
 49
2.999999914478949
 74
     0
 49
-1.0000000275655
 74
     0
  0
LTYPE
  5
2D6
330
5
100
AcDbSymbolTableRecord
100
AcDbLinetypeTableRecord
  2
AI-Linetype-13
 70
     0
  3
Adobe Illustrator Linetype No. 13
 72
    65
 73
     2
 40
3.99999994204445
 49
2.999999914478949
 74
     0
 49
-1.0000000275655
 74
     0
  0
ENDTAB
  0
TABLE
  2
LAYER
  5
2
330
0
100
AcDbSymbolTable
 70
     2
  0
LAYER
  5
54
330
2
100
AcDbSymbolTableRecord
100
AcDbLayerTableRecord
  2
0
 70
     0
 62
     7
  6
Continuous
370
    -3
390
F
347
21
348
0
  0
LAYER
  5
78
330
2
100
AcDbSymbolTableRecord
100
AcDbLayerTableRecord
  2
レイヤー 1
 70
     0
 62
     7
  6
Continuous
370
     0
390
F
347
21
348
0
  0
ENDTAB
  0
TABLE
  2
STYLE
  5
3
330
0
100
AcDbSymbolTable
 70
     2
  0
STYLE
  5
55
330
3
100
AcDbSymbolTableRecord
100
AcDbTextStyleTableRecord
  2
Standard
 70
     0
 40
0.0
 41
1.0
 50
0.0
 71
     0
 42
0.2
  3
txt
  4

  0
STYLE
  5
5A
330
3
100
AcDbSymbolTableRecord
100
AcDbTextStyleTableRecord
  2
Annotative
 70
     0
 40
0.0
 41
1.0
 50
0.0
 71
     0
 42
0.2
  3
txt
  4

1001
AcadAnnotative
1000
AnnotativeData
1002
{
1070
     1
1070
     1
1002
}
  0
ENDTAB
  0
TABLE
  2
VIEW
  5
6
330
0
100
AcDbSymbolTable
 70
     0
  0
ENDTAB
  0
TABLE
  2
UCS
  5
7
330
0
100
AcDbSymbolTable
 70
     0
  0
ENDTAB
  0
TABLE
  2
APPID
  5
9
330
0
100
AcDbSymbolTable
 70
     2
  0
APPID
  5
56
330
9
100
AcDbSymbolTableRecord
100
AcDbRegAppTableRecord
  2
ACAD
 70
     0
  0
APPID
  5
5E
330
9
100
AcDbSymbolTableRecord
100
AcDbRegAppTableRecord
  2
AcadAnnotative
 70
     0
  0
ENDTAB
  0
TABLE
  2
DIMSTYLE
  5
A
330
0
100
AcDbSymbolTable
 70
     2
100
AcDbDimStyleTable
 71
     0
  0
DIMSTYLE
105
58
330
A
100
AcDbSymbolTableRecord
100
AcDbDimStyleTableRecord
  2
Standard
 70
     0
340
55
  0
DIMSTYLE
105
59
330
A
100
AcDbSymbolTableRecord
100
AcDbDimStyleTableRecord
  2
Annotative
 70
     0
340
55
1001
AcadAnnotative
1000
AnnotativeData
1002
{
1070
     1
1070
     1
1002
}
  0
ENDTAB
  0
TABLE
  2
BLOCK_RECORD
  5
1
330
0
100
AcDbSymbolTable
 70
    34
  0
BLOCK_RECORD
  5
70
330
1
100
AcDbSymbolTableRecord
100
AcDbBlockTableRecord
  2
*Model_Space
340
73
 70
     0
280
     1
281
     0
  0
BLOCK_RECORD
  5
6C
330
1
100
AcDbSymbolTableRecord
100
AcDbBlockTableRecord
  2
*Paper_Space
340
6F
 70
     0
280
     1
281
     0
  0
BLOCK_RECORD
  5
74
330
1
100
AcDbSymbolTableRecord
100
AcDbBlockTableRecord
  2
*Paper_Space0
340
77
 70
     0
280
     1
281
     0
  0
BLOCK_RECORD
  5
79
330
1
100
AcDbSymbolTableRecord
100
AcDbBlockTableRecord
  2
Block_0
340
0
102
{BLKREFS
331
7A
102
}
 70
     0
280
     1
281
     0
  0
BLOCK_RECORD
  5
86
330
1
100
AcDbSymbolTableRecord
100
AcDbBlockTableRecord
  2
Block_1
340
0
102
{BLKREFS
331
87
102
}
 70
     0
280
     1
281
     0
  0
BLOCK_RECORD
  5
9A
330
1
100
AcDbSymbolTableRecord
100
AcDbBlockTableRecord
  2
Block_2
340
0
102
{BLKREFS
331
9B
102
}
 70
     0
280
     1
281
     0
  0
BLOCK_RECORD
  5
AE
330
1
100
AcDbSymbolTableRecord
100
AcDbBlockTableRecord
  2
Block_3
340
0
102
{BLKREFS
331
AF
102
}
 70
     0
280
     1
281
     0
  0
BLOCK_RECORD
  5
C2
330
1
100
AcDbSymbolTableRecord
100
AcDbBlockTableRecord
  2
Block_4
340
0
102
{BLKREFS
331
C3
102
}
 70
     0
280
     1
281
     0
  0
BLOCK_RECORD
  5
DD
330
1
100
AcDbSymbolTableRecord
100
AcDbBlockTableRecord
  2
Block_5
340
0
102
{BLKREFS
331
DE
102
}
 70
     0
280
     1
281
     0
  0
BLOCK_RECORD
  5
E2
330
1
100
AcDbSymbolTableRecord
100
AcDbBlockTableRecord
  2
Block_6
340
0
102
{BLKREFS
331
E3
102
}
 70
     0
280
     1
281
     0
  0
BLOCK_RECORD
  5
ED
330
1
100
AcDbSymbolTableRecord
100
AcDbBlockTableRecord
  2
Block_7
340
0
102
{BLKREFS
331
EE
102
}
 70
     0
280
     1
281
     0
  0
BLOCK_RECORD
  5
102
330
1
100
AcDbSymbolTableRecord
100
AcDbBlockTableRecord
  2
Block_8
340
0
102
{BLKREFS
331
103
102
}
 70
     0
280
     1
281
     0
  0
BLOCK_RECORD
  5
114
330
1
100
AcDbSymbolTableRecord
100
AcDbBlockTableRecord
  2
Block_9
340
0
102
{BLKREFS
331
115
102
}
 70
     0
280
     1
281
     0
  0
BLOCK_RECORD
  5
11C
330
1
100
AcDbSymbolTableRecord
100
AcDbBlockTableRecord
  2
Block_10
340
0
102
{BLKREFS
331
11D
102
}
 70
     0
280
     1
281
     0
  0
BLOCK_RECORD
  5
126
330
1
100
AcDbSymbolTableRecord
100
AcDbBlockTableRecord
  2
Block_11
340
0
102
{BLKREFS
331
127
102
}
 70
     0
280
     1
281
     0
  0
BLOCK_RECORD
  5
13B
330
1
100
AcDbSymbolTableRecord
100
AcDbBlockTableRecord
  2
Block_12
340
0
102
{BLKREFS
331
13C
102
}
 70
     0
280
     1
281
     0
  0
BLOCK_RECORD
  5
147
330
1
100
AcDbSymbolTableRecord
100
AcDbBlockTableRecord
  2
Block_13
340
0
102
{BLKREFS
331
148
102
}
 70
     0
280
     1
281
     0
  0
BLOCK_RECORD
  5
157
330
1
100
AcDbSymbolTableRecord
100
AcDbBlockTableRecord
  2
Block_14
340
0
102
{BLKREFS
331
158
102
}
 70
     0
280
     1
281
     0
  0
BLOCK_RECORD
  5
1C5
330
1
100
AcDbSymbolTableRecord
100
AcDbBlockTableRecord
  2
Block_15
340
0
102
{BLKREFS
331
1C6
102
}
 70
     0
280
     1
281
     0
  0
BLOCK_RECORD
  5
1D5
330
1
100
AcDbSymbolTableRecord
100
AcDbBlockTableRecord
  2
Block_16
340
0
102
{BLKREFS
331
1D6
102
}
 70
     0
280
     1
281
     0
  0
BLOCK_RECORD
  5
1E5
330
1
100
AcDbSymbolTableRecord
100
AcDbBlockTableRecord
  2
Block_17
340
0
102
{BLKREFS
331
1E6
102
}
 70
     0
280
     1
281
     0
  0
BLOCK_RECORD
  5
24E
330
1
100
AcDbSymbolTableRecord
100
AcDbBlockTableRecord
  2
Block_18
340
0
102
{BLKREFS
331
24F
102
}
 70
     0
280
     1
281
     0
  0
BLOCK_RECORD
  5
264
330
1
100
AcDbSymbolTableRecord
100
AcDbBlockTableRecord
  2
Block_19
340
0
102
{BLKREFS
331
265
102
}
 70
     0
280
     1
281
     0
  0
BLOCK_RECORD
  5
278
330
1
100
AcDbSymbolTableRecord
100
AcDbBlockTableRecord
  2
Block_20
340
0
102
{BLKREFS
331
279
102
}
 70
     0
280
     1
281
     0
  0
BLOCK_RECORD
  5
295
330
1
100
AcDbSymbolTableRecord
100
AcDbBlockTableRecord
  2
Block_21
340
0
102
{BLKREFS
331
296
102
}
 70
     0
280
     1
281
     0
  0
BLOCK_RECORD
  5
2A8
330
1
100
AcDbSymbolTableRecord
100
AcDbBlockTableRecord
  2
Block_22
340
0
102
{BLKREFS
331
2A9
102
}
 70
     0
280
     1
281
     0
  0
BLOCK_RECORD
  5
2B9
330
1
100
AcDbSymbolTableRecord
100
AcDbBlockTableRecord
  2
Block_23
340
0
102
{BLKREFS
331
2BA
102
}
 70
     0
280
     1
281
     0
  0
BLOCK_RECORD
  5
2BE
330
1
100
AcDbSymbolTableRecord
100
AcDbBlockTableRecord
  2
Block_24
340
0
102
{BLKREFS
331
2BF
102
}
 70
     0
280
     1
281
     0
  0
BLOCK_RECORD
  5
2C4
330
1
100
AcDbSymbolTableRecord
100
AcDbBlockTableRecord
  2
Block_25
340
0
102
{BLKREFS
331
2C5
102
}
 70
     0
280
     1
281
     0
  0
BLOCK_RECORD
  5
2D8
330
1
100
AcDbSymbolTableRecord
100
AcDbBlockTableRecord
  2
Block_26
340
0
102
{BLKREFS
331
2D9
102
}
 70
     0
280
     1
281
     0
  0
BLOCK_RECORD
  5
2E0
330
1
100
AcDbSymbolTableRecord
100
AcDbBlockTableRecord
  2
Block_27
340
0
102
{BLKREFS
331
2E1
102
}
 70
     0
280
     1
281
     0
  0
BLOCK_RECORD
  5
2EA
330
1
100
AcDbSymbolTableRecord
100
AcDbBlockTableRecord
  2
Block_28
340
0
102
{BLKREFS
331
2EB
102
}
 70
     0
280
     1
281
     0
  0
BLOCK_RECORD
  5
306
330
1
100
AcDbSymbolTableRecord
100
AcDbBlockTableRecord
  2
Block_29
340
0
102
{BLKREFS
331
307
102
}
 70
     0
280
     1
281
     0
  0
BLOCK_RECORD
  5
315
330
1
100
AcDbSymbolTableRecord
100
AcDbBlockTableRecord
  2
Block_30
340
0
102
{BLKREFS
331
316
102
}
 70
     0
280
     1
281
     0
  0
BLOCK_RECORD
  5
38B
330
1
100
AcDbSymbolTableRecord
100
AcDbBlockTableRecord
  2
Block_31
340
0
102
{BLKREFS
331
38C
102
}
 70
     0
280
     1
281
     0
  0
BLOCK_RECORD
  5
39B
330
1
100
AcDbSymbolTableRecord
100
AcDbBlockTableRecord
  2
Block_32
340
0
102
{BLKREFS
331
39C
102
}
 70
     0
280
     1
281
     0
  0
ENDTAB
  0
ENDSEC
  0
SECTION
  2
BLOCKS
  0
BLOCK
  5
71
330
70
100
AcDbEntity
  8
0
100
AcDbBlockBegin
  2
*Model_Space
 70
     0
 10
0.0
 20
0.0
 30
0.0
  3
*Model_Space
  1

  0
ENDBLK
  5
72
330
70
100
AcDbEntity
  8
0
100
AcDbBlockEnd
  0
BLOCK
  5
6D
330
6C
100
AcDbEntity
 67
     1
  8
0
100
AcDbBlockBegin
  2
*Paper_Space
 70
     0
 10
0.0
 20
0.0
 30
0.0
  3
*Paper_Space
  1

  0
ENDBLK
  5
6E
330
6C
100
AcDbEntity
 67
     1
  8
0
100
AcDbBlockEnd
  0
BLOCK
  5
75
330
74
100
AcDbEntity
 67
     1
  8
0
100
AcDbBlockBegin
  2
*Paper_Space0
 70
     0
 10
0.0
 20
0.0
 30
0.0
  3
*Paper_Space0
  1

  0
ENDBLK
  5
76
330
74
100
AcDbEntity
 67
     1
  8
0
100
AcDbBlockEnd
  0
BLOCK
  5
7B
330
79
100
AcDbEntity
  8
0
100
AcDbBlockBegin
  2
Block_0
 70
     0
 10
0.0
 20
0.0
 30
0.0
  3
Block_0
  1

  0
MTEXT
  5
7D
330
79
100
AcDbEntity
  8
レイヤー 1
100
AcDbMText
 10
215.446345466158
 20
-203.4961059061572
 30
0.0
 40
0.2
 41
0.0
 46
0.0
 71
     7
 72
     1
  1
\C251;\c4868939;\FKozGoPr6N-Regular|b0|i0|c128;\H2.247900;\W0.770000;Oリング黒
 73
     1
 44
1.0
  0
LINE
  5
7E
330
79
100
AcDbEntity
  8
レイヤー 1
  6
AI-Linetype-0
 62
    75
420
  6921064
370
    20
100
AcDbLine
 10
90.46971942838142
 20
-119.6800081920977
 30
0.0
 11
70.96233148448543
 21
-119.6800081920977
 31
0.0
  0
LINE
  5
80
330
79
100
AcDbEntity
  8
レイヤー 1
  6
AI-Linetype-1
 62
    75
420
  6921064
370
    20
100
AcDbLine
 10
142.8859229074144
 20
-119.6800081920977
 30
0.0
 11
262.7347276287194
 21
-119.6800081920977
 31
0.0
  0
LINE
  5
82
330
79
100
AcDbEntity
  8
レイヤー 1
  6
AI-Linetype-2
 62
    75
420
  6921064
370
    20
100
AcDbLine
 10
203.0915390701081
 20
-183.5679427698114
 30
0.0
 11
203.0915390701081
 21
-56.90516825647053
 31
0.0
  0
LINE
  5
84
330
79
100
AcDbEntity
  8
レイヤー 1
 62
    75
420
  6921064
370
    20
100
AcDbLine
 10
76.34589665863124
 20
-64.68000819209771
 30
0.0
 11
76.14589665863253
 21
-64.88000819209772
 31
0.0
  0
LINE
  5
85
330
79
100
AcDbEntity
  8
レイヤー 1
 62
    75
420
  6921064
370
    20
100
AcDbLine
 10
76.14589665863123
 20
-119.6800081920977
 30
0.0
 11
76.14589665863123
 21
-82.38000819209769
 31
0.0
  0
INSERT
  5
87
330
79
100
AcDbEntity
  8
レイヤー 1
100
AcDbBlockReference
  2
Block_1
 10
0.0
 20
0.0
 30
0.0
  0
INSERT
  5
9B
330
79
100
AcDbEntity
  8
レイヤー 1
100
AcDbBlockReference
  2
Block_2
 10
0.0
 20
0.0
 30
0.0
  0
INSERT
  5
AF
330
79
100
AcDbEntity
  8
レイヤー 1
100
AcDbBlockReference
  2
Block_3
 10
0.0
 20
0.0
 30
0.0
  0
CIRCLE
  5
BE
330
79
100
AcDbEntity
  8
レイヤー 1
 62
    75
420
  6921064
370
    20
100
AcDbCircle
 10
203.0915390701081
 20
-119.6800081920977
 30
0.0
 40
55.00000000000001
  0
CIRCLE
  5
BF
330
79
100
AcDbEntity
  8
レイヤー 1
 62
    75
420
  6921064
370
    20
100
AcDbCircle
 10
203.0915390701083
 20
-119.6800081920977
 30
0.0
 40
39.99999999999989
  0
LINE
  5
C0
330
79
100
AcDbEntity
  8
レイヤー 1
 62
    75
420
  6921064
370
    20
100
AcDbLine
 10
86.14589665863222
 20
-119.6800081920977
 30
0.0
 11
86.14589665863222
 21
-92.23000819209756
 31
0.0
  0
LINE
  5
C1
330
79
100
AcDbEntity
  8
レイヤー 1
 62
    75
420
  6921064
370
    20
100
AcDbLine
 10
76.34589665863124
 20
-64.68000819209771
 30
0.0
 11
77.16824200967845
 21
-64.68000819209868
 31
0.0
  0
INSERT
  5
C3
330
79
100
AcDbEntity
  8
レイヤー 1
100
AcDbBlockReference
  2
Block_4
 10
0.0
 20
0.0
 30
0.0
  0
LINE
  5
D6
330
79
100
AcDbEntity
  8
レイヤー 1
 62
    75
420
  6921064
370
    20
100
AcDbLine
 10
76.34589665863124
 20
-174.6800081920977
 30
0.0
 11
76.14589665863253
 21
-174.4800081920977
 31
0.0
  0
LINE
  5
D7
330
79
100
AcDbEntity
  8
レイヤー 1
 62
    75
420
  6921064
370
    20
100
AcDbLine
 10
76.14589665863123
 20
-119.6800081920977
 30
0.0
 11
76.14589665863123
 21
-156.9800081920974
 31
0.0
  0
LINE
  5
D8
330
79
100
AcDbEntity
  8
レイヤー 1
 62
    75
420
  6921064
370
    20
100
AcDbLine
 10
86.14589665863126
 20
-119.6800081920977
 30
0.0
 11
86.14589665863126
 21
-142.1800081920975
 31
0.0
  0
LINE
  5
D9
330
79
100
AcDbEntity
  8
レイヤー 1
 62
    75
420
  6921064
370
    20
100
AcDbLine
 10
86.14589665863126
 20
-79.6800081920976
 30
0.0
 11
85.81122135470153
 21
-79.6800081920976
 31
0.0
  0
LINE
  5
DA
330
79
100
AcDbEntity
  8
レイヤー 1
 62
    75
420
  6921064
370
    20
100
AcDbLine
 10
81.82644256233428
 20
-76.02863116308853
 30
0.0
 11
81.15302080204022
 21
-68.33138522110775
 31
0.0
  0
SPLINE
  5
DB
330
79
100
AcDbEntity
  8
レイヤー 1
 62
    75
420
  6921064
370
    20
100
AcDbSpline
210
0.0
220
0.0
230
1.0
 70
     8
 71
     3
 72
     8
 73
     4
 74
     0
 42
0.0000000001
 43
0.0000000001
 40
0.0
 40
0.0
 40
0.0
 40
0.0
 40
1.0
 40
1.0
 40
1.0
 40
1.0
 10
81.82644256233428
 20
-76.02863116308821
 30
0.0
 10
82.00720530747272
 20
-78.09475879440873
 30
0.0
 10
83.73720145148537
 20
-79.6800081920976
 30
0.0
 10
85.81122135470153
 20
-79.6800081920976
 30
0.0
  0
SPLINE
  5
DC
330
79
100
AcDbEntity
  8
レイヤー 1
 62
    75
420
  6921064
370
    20
100
AcDbSpline
210
0.0
220
0.0
230
1.0
 70
     8
 71
     3
 72
     8
 73
     4
 74
     0
 42
0.0000000001
 43
0.0000000001
 40
0.0
 40
0.0
 40
0.0
 40
0.0
 40
1.0
 40
1.0
 40
1.0
 40
1.0
 10
81.15302080204022
 20
-68.33138522110806
 30
0.0
 10
80.97225805690245
 20
-66.26525758978947
 30
0.0
 10
79.24226191289235
 20
-64.68000819210124
 30
0.0
 10
77.16824200967845
 20
-64.68000819209868
 30
0.0
  0
INSERT
  5
DE
330
79
100
AcDbEntity
  8
レイヤー 1
100
AcDbBlockReference
  2
Block_5
 10
0.0
 20
0.0
 30
0.0
  0
INSERT
  5
E3
330
79
100
AcDbEntity
  8
レイヤー 1
100
AcDbBlockReference
  2
Block_6
 10
0.0
 20
0.0
 30
0.0
  0
LINE
  5
E7
330
79
100
AcDbEntity
  8
レイヤー 1
 62
    75
420
  6921064
370
    20
100
AcDbLine
 10
86.14589665863126
 20
-119.6800081920977
 30
0.0
 11
86.14589665863126
 21
-147.1300081920975
 31
0.0
  0
LINE
  5
E8
330
79
100
AcDbEntity
  8
レイヤー 1
 62
    75
420
  6921064
370
    20
100
AcDbLine
 10
76.34589665863124
 20
-174.6800081920977
 30
0.0
 11
77.16824200967845
 21
-174.6800081920964
 31
0.0
  0
LINE
  5
E9
330
79
100
AcDbEntity
  8
レイヤー 1
 62
    75
420
  6921064
370
    20
100
AcDbLine
 10
86.14589665863126
 20
-159.6800081920978
 30
0.0
 11
85.81122135470153
 21
-159.6800081920978
 31
0.0
  0
LINE
  5
EA
330
79
100
AcDbEntity
  8
レイヤー 1
 62
    75
420
  6921064
370
    20
100
AcDbLine
 10
81.82644256233428
 20
-163.3313852211069
 30
0.0
 11
81.15302080204022
 21
-171.0286311630874
 31
0.0
  0
SPLINE
  5
EB
330
79
100
AcDbEntity
  8
レイヤー 1
 62
    75
420
  6921064
370
    20
100
AcDbSpline
210
0.0
220
0.0
230
1.0
 70
     8
 71
     3
 72
     8
 73
     4
 74
     0
 42
0.0000000001
 43
0.0000000001
 40
0.0
 40
0.0
 40
0.0
 40
0.0
 40
1.0
 40
1.0
 40
1.0
 40
1.0
 10
85.81122135470153
 20
-159.6800081920978
 30
0.0
 10
83.73720145148537
 20
-159.6800081920978
 30
0.0
 10
82.00720530747272
 20
-161.2652575897867
 30
0.0
 10
81.82644256233428
 20
-163.3313852211069
 30
0.0
  0
SPLINE
  5
EC
330
79
100
AcDbEntity
  8
レイヤー 1
 62
    75
420
  6921064
370
    20
100
AcDbSpline
210
0.0
220
0.0
230
1.0
 70
     8
 71
     3
 72
     8
 73
     4
 74
     0
 42
0.0000000001
 43
0.0000000001
 40
0.0
 40
0.0
 40
0.0
 40
0.0
 40
1.0
 40
1.0
 40
1.0
 40
1.0
 10
77.16824200967332
 20
-174.6800081920964
 30
0.0
 10
79.24226191288754
 20
-174.6800081920964
 30
0.0
 10
80.97225805689923
 20
-173.0947587944108
 30
0.0
 10
81.15302080203992
 20
-171.0286311630925
 30
0.0
  0
INSERT
  5
EE
330
79
100
AcDbEntity
  8
レイヤー 1
100
AcDbBlockReference
  2
Block_7
 10
0.0
 20
0.0
 30
0.0
  0
LINE
  5
FD
330
79
100
AcDbEntity
  8
レイヤー 1
  6
AI-Linetype-3
 62
    75
420
  6921064
370
    20
100
AcDbLine
 10
76.14589665863123
 20
-98.18000819209762
 30
0.0
 11
86.14589665863126
 21
-98.18000819209762
 31
0.0
  0
LINE
  5
FF
330
79
100
AcDbEntity
  8
レイヤー 1
  6
AI-Linetype-4
 62
    75
420
  6921064
370
    20
100
AcDbLine
 10
76.14589665863123
 20
-141.1800081920975
 30
0.0
 11
86.14589665863126
 21
-141.1800081920975
 31
0.0
  0
CIRCLE
  5
101
330
79
100
AcDbEntity
  8
レイヤー 1
 62
    75
420
  6921064
370
    20
100
AcDbCircle
 10
203.0915390701083
 20
-119.6800081920976
 30
0.0
 40
21.49999999999999
  0
INSERT
  5
103
330
79
100
AcDbEntity
  8
レイヤー 1
100
AcDbBlockReference
  2
Block_8
 10
0.0
 20
0.0
 30
0.0
  0
LINE
  5
10B
330
79
100
AcDbEntity
  8
レイヤー 1
 62
    75
420
  6921064
370
    20
100
AcDbLine
 10
86.14589665863126
 20
-88.73000819209744
 30
0.0
 11
86.14589665863126
 21
-79.6800081920976
 31
0.0
  0
LINE
  5
10C
330
79
100
AcDbEntity
  8
レイヤー 1
 62
    75
420
  6921064
370
    20
100
AcDbLine
 10
86.14589665863126
 20
-150.6300081920974
 30
0.0
 11
86.14589665863126
 21
-159.6800081920978
 31
0.0
  0
LINE
  5
10D
330
79
100
AcDbEntity
  8
レイヤー 1
 62
    75
420
  6921064
370
    20
100
AcDbLine
 10
76.14589665863123
 20
-79.28000819209758
 30
0.0
 11
76.14589665863123
 21
-64.88000819209772
 31
0.0
  0
LINE
  5
10E
330
79
100
AcDbEntity
  8
レイヤー 1
 62
    75
420
  6921064
370
    20
100
AcDbLine
 10
76.14589665863123
 20
-160.0800081920978
 30
0.0
 11
76.14589665863123
 21
-174.4800081920977
 31
0.0
  0
CIRCLE
  5
10F
330
79
100
AcDbEntity
  8
レイヤー 1
  6
AI-Linetype-5
 62
    75
420
  6921064
370
    20
100
AcDbCircle
 10
203.0915390701085
 20
-119.6800081920977
 30
0.0
 40
40.19999999999996
  0
CIRCLE
  5
111
330
79
100
AcDbEntity
  8
レイヤー 1
  6
AI-Linetype-6
 62
    75
420
  6921064
370
    20
100
AcDbCircle
 10
203.0915390701085
 20
-119.6800081920976
 30
0.0
 40
37.5
  0
MTEXT
  5
113
330
79
100
AcDbEntity
  8
レイヤー 1
100
AcDbMText
 10
66.59245764868934
 20
-196.9323162010382
 30
0.0
 40
0.2
 41
0.0
 46
0.0
 71
     7
 72
     1
  1
\C251;\c4868939;\FMS Gothic|b0|i0|c128;\H6.000000;\W1.026667;AA断面
 73
     1
 44
1.0
  0
INSERT
  5
115
330
79
100
AcDbEntity
  8
レイヤー 1
100
AcDbBlockReference
  2
Block_9
 10
0.0
 20
0.0
 30
0.0
  0
MTEXT
  5
11B
330
79
100
AcDbEntity
  8
レイヤー 1
100
AcDbMText
 10
190.2477328354676
 20
-58.99958562435601
 30
0.0
 40
0.2
 41
0.0
 46
0.0
 71
     7
 72
     1
  1
\C251;\c4868939;\FMS Gothic|b0|i0|c128;\H4.000000;\W1.155000;A
 73
     1
 44
1.0
  0
INSERT
  5
11D
330
79
100
AcDbEntity
  8
レイヤー 1
100
AcDbBlockReference
  2
Block_10
 10
0.0
 20
0.0
 30
0.0
  0
MTEXT
  5
123
330
79
100
AcDbEntity
  8
レイヤー 1
100
AcDbMText
 10
190.2477328354676
 20
-178.3573087458295
 30
0.0
 40
0.2
 41
0.0
 46
0.0
 71
     7
 72
     1
  1
\C251;\c4868939;\FMS Gothic|b0|i0|c128;\H4.000000;\W1.155000;A
 73
     1
 44
1.0
  0
LINE
  5
124
330
79
100
AcDbEntity
  8
レイヤー 1
 62
    75
420
  6921064
370
    20
100
AcDbLine
 10
85.99589665863142
 20
-92.08000819209772
 30
0.0
 11
84.44589665863153
 21
-92.08000819209772
 31
0.0
  0
LINE
  5
125
330
79
100
AcDbEntity
  8
レイヤー 1
 62
    75
420
  6921064
370
    20
100
AcDbLine
 10
84.44589665863153
 20
-88.88000819209761
 30
0.0
 11
85.99589665863142
 21
-88.88000819209761
 31
0.0
  0
INSERT
  5
127
330
79
100
AcDbEntity
  8
レイヤー 1
100
AcDbBlockReference
  2
Block_11
 10
0.0
 20
0.0
 30
0.0
  0
SPLINE
  5
13A
330
79
100
AcDbEntity
  8
レイヤー 1
 62
    75
420
  6921064
370
    20
100
AcDbSpline
210
0.0
220
0.0
230
1.0
 70
     8
 71
     3
 72
     8
 73
     4
 74
     0
 42
0.0000000001
 43
0.0000000001
 40
0.0
 40
0.0
 40
0.0
 40
0.0
 40
1.0
 40
1.0
 40
1.0
 40
1.0
 10
86.14589665863126
 20
-92.23000819209756
 30
0.0
 10
86.14589665863126
 20
-92.14716547962309
 30
0.0
 10
86.07873937110591
 20
-92.08000819209772
 30
0.0
 10
85.99589665863142
 20
-92.08000819209772
 30
0.0
  0
INSERT
  5
13C
330
79
100
AcDbEntity
  8
レイヤー 1
100
AcDbBlockReference
  2
Block_12
 10
0.0
 20
0.0
 30
0.0
  0
SPLINE
  5
140
330
79
100
AcDbEntity
  8
レイヤー 1
 62
    75
420
  6921064
370
    20
100
AcDbSpline
210
0.0
220
0.0
230
1.0
 70
     8
 71
     3
 72
     8
 73
     4
 74
     0
 42
0.0000000001
 43
0.0000000001
 40
0.0
 40
0.0
 40
0.0
 40
0.0
 40
1.0
 40
1.0
 40
1.0
 40
1.0
 10
85.99589665863142
 20
-88.88000819209761
 30
0.0
 10
86.07873937110591
 20
-88.88000819209761
 30
0.0
 10
86.14589665863126
 20
-88.81285090457224
 30
0.0
 10
86.14589665863126
 20
-88.73000819209744
 30
0.0
  0
LINE
  5
141
330
79
100
AcDbEntity
  8
レイヤー 1
 62
    75
420
  6921064
370
    20
100
AcDbLine
 10
85.99589665863142
 20
-147.2800081920974
 30
0.0
 11
84.44589665863153
 21
-147.2800081920974
 31
0.0
  0
SPLINE
  5
142
330
79
100
AcDbEntity
  8
レイヤー 1
 62
    75
420
  6921064
370
    20
100
AcDbSpline
210
0.0
220
0.0
230
1.0
 70
     8
 71
     3
 72
     8
 73
     4
 74
     0
 42
0.0000000001
 43
0.0000000001
 40
0.0
 40
0.0
 40
0.0
 40
0.0
 40
1.0
 40
1.0
 40
1.0
 40
1.0
 10
85.99589665863142
 20
-147.2800081920974
 30
0.0
 10
86.07873937110591
 20
-147.2800081920974
 30
0.0
 10
86.14589665863126
 20
-147.2128509045724
 30
0.0
 10
86.14589665863126
 20
-147.1300081920975
 30
0.0
  0
LINE
  5
143
330
79
100
AcDbEntity
  8
レイヤー 1
 62
    75
420
  6921064
370
    20
100
AcDbLine
 10
84.44589665863153
 20
-88.88000819209761
 30
0.0
 11
84.44589665863153
 21
-92.08000819209772
 31
0.0
  0
LINE
  5
144
330
79
100
AcDbEntity
  8
レイヤー 1
 62
    75
420
  6921064
370
    20
100
AcDbLine
 10
84.44589665863153
 20
-150.4800081920975
 30
0.0
 11
85.99589665863142
 21
-150.4800081920975
 31
0.0
  0
SPLINE
  5
145
330
79
100
AcDbEntity
  8
レイヤー 1
 62
    75
420
  6921064
370
    20
100
AcDbSpline
210
0.0
220
0.0
230
1.0
 70
     8
 71
     3
 72
     8
 73
     4
 74
     0
 42
0.0000000001
 43
0.0000000001
 40
0.0
 40
0.0
 40
0.0
 40
0.0
 40
1.0
 40
1.0
 40
1.0
 40
1.0
 10
86.14589665863126
 20
-150.6300081920974
 30
0.0
 10
86.14589665863126
 20
-150.5471654796232
 30
0.0
 10
86.07873937110591
 20
-150.4800081920975
 30
0.0
 10
85.99589665863142
 20
-150.4800081920975
 30
0.0
  0
LINE
  5
146
330
79
100
AcDbEntity
  8
レイヤー 1
 62
    75
420
  6921064
370
    20
100
AcDbLine
 10
84.44589665863153
 20
-150.4800081920975
 30
0.0
 11
84.44589665863153
 21
-147.2800081920974
 31
0.0
  0
INSERT
  5
148
330
79
100
AcDbEntity
  8
レイヤー 1
100
AcDbBlockReference
  2
Block_13
 10
0.0
 20
0.0
 30
0.0
  0
INSERT
  5
158
330
79
100
AcDbEntity
  8
レイヤー 1
100
AcDbBlockReference
  2
Block_14
 10
0.0
 20
0.0
 30
0.0
  0
CIRCLE
  5
167
330
79
100
AcDbEntity
  8
レイヤー 1
 62
    75
420
  6921064
370
    20
100
AcDbCircle
 10
203.0915390701085
 20
-119.6800081920976
 30
0.0
 40
27.59999999999998
  0
CIRCLE
  5
168
330
79
100
AcDbEntity
  8
レイヤー 1
 62
    75
420
  6921064
370
    20
100
AcDbCircle
 10
203.0915390701085
 20
-119.6800081920976
 30
0.0
 40
30.80000000000009
  0
LINE
  5
169
330
79
100
AcDbEntity
  8
レイヤー 1
 62
   251
420
  4934474
370
    20
100
AcDbLine
 10
75.14589665863248
 20
-157.1800081920974
 30
0.0
 11
43.32456789446744
 21
-157.1800081920974
 31
0.0
  0
LINE
  5
16A
330
79
100
AcDbEntity
  8
レイヤー 1
 62
   251
420
  4934474
370
    20
100
AcDbLine
 10
75.49918845691237
 20
-82.18000819209768
 30
0.0
 11
43.32456789446744
 21
-82.18000819209768
 31
0.0
  0
LINE
  5
16B
330
79
100
AcDbEntity
  8
レイヤー 1
 62
   251
420
  4934474
370
    20
100
AcDbLine
 10
44.49123456113446
 20
-156.1800081920974
 30
0.0
 11
44.32456789446747
 21
-157.1800081920974
 31
0.0
  0
LINE
  5
16C
330
79
100
AcDbEntity
  8
レイヤー 1
 62
   251
420
  4934474
370
    20
100
AcDbLine
 10
44.15790122780047
 20
-156.1800081920974
 30
0.0
 11
44.32456789446747
 21
-157.1800081920974
 31
0.0
  0
LINE
  5
16D
330
79
100
AcDbEntity
  8
レイヤー 1
 62
   251
420
  4934474
370
    20
100
AcDbLine
 10
44.32456789446747
 20
-157.1800081920974
 30
0.0
 11
44.32456789446747
 21
-156.1800081920974
 31
0.0
  0
LINE
  5
16E
330
79
100
AcDbEntity
  8
レイヤー 1
 62
   251
420
  4934474
370
    20
100
AcDbLine
 10
44.15790122780047
 20
-83.18000819209773
 30
0.0
 11
44.32456789446747
 21
-82.18000819209768
 31
0.0
  0
LINE
  5
16F
330
79
100
AcDbEntity
  8
レイヤー 1
 62
   251
420
  4934474
370
    20
100
AcDbLine
 10
44.49123456113446
 20
-83.18000819209773
 30
0.0
 11
44.32456789446747
 21
-82.18000819209768
 31
0.0
  0
LINE
  5
170
330
79
100
AcDbEntity
  8
レイヤー 1
 62
   251
420
  4934474
370
    20
100
AcDbLine
 10
44.32456789446747
 20
-82.18000819209768
 30
0.0
 11
44.32456789446747
 21
-83.18000819209773
 31
0.0
  0
LINE
  5
171
330
79
100
AcDbEntity
  8
レイヤー 1
 62
   251
420
  4934474
370
    20
100
AcDbLine
 10
44.49123456113446
 20
-156.1800081920974
 30
0.0
 11
44.32456789446747
 21
-157.1800081920974
 31
0.0
  0
LINE
  5
172
330
79
100
AcDbEntity
  8
レイヤー 1
 62
   251
420
  4934474
370
    20
100
AcDbLine
 10
44.15790122780047
 20
-156.1800081920974
 30
0.0
 11
44.32456789446747
 21
-157.1800081920974
 31
0.0
  0
LINE
  5
173
330
79
100
AcDbEntity
  8
レイヤー 1
 62
   251
420
  4934474
370
    20
100
AcDbLine
 10
44.32456789446747
 20
-157.1800081920974
 30
0.0
 11
44.32456789446747
 21
-156.1800081920974
 31
0.0
  0
LINE
  5
174
330
79
100
AcDbEntity
  8
レイヤー 1
 62
   251
420
  4934474
370
    20
100
AcDbLine
 10
44.15790122780047
 20
-83.18000819209773
 30
0.0
 11
44.32456789446747
 21
-82.18000819209768
 31
0.0
  0
LINE
  5
175
330
79
100
AcDbEntity
  8
レイヤー 1
 62
   251
420
  4934474
370
    20
100
AcDbLine
 10
44.49123456113446
 20
-83.18000819209773
 30
0.0
 11
44.32456789446747
 21
-82.18000819209768
 31
0.0
  0
LINE
  5
176
330
79
100
AcDbEntity
  8
レイヤー 1
 62
   251
420
  4934474
370
    20
100
AcDbLine
 10
44.32456789446747
 20
-82.18000819209768
 30
0.0
 11
44.32456789446747
 21
-83.18000819209773
 31
0.0
  0
LINE
  5
177
330
79
100
AcDbEntity
  8
レイヤー 1
 62
   251
420
  4934474
370
    20
100
AcDbLine
 10
44.32456789446747
 20
-157.1800081920974
 30
0.0
 11
44.32456789446747
 21
-82.18000819209768
 31
0.0
  0
MTEXT
  5
178
330
79
100
AcDbEntity
  8
レイヤー 1
100
AcDbMText
 10
43.32457342124286
 20
-130.6800509655932
 30
0.0
 40
0.2
 41
0.0
 46
0.0
 71
     7
 72
     1
  1
\C251;\c4868939;\FKozGoPr6N-Regular|b0|i0|c128;\H4.000000;\W0.937500;φ75
 11
-0.0000000000000002
 21
1.0
 31
0.0
 73
     1
 44
1.0
  0
LINE
  5
179
330
79
100
AcDbEntity
  8
レイヤー 1
 62
    75
420
  6921064
370
    20
100
AcDbLine
 10
79.80039694382326
 20
-173.6919445132406
 30
0.0
 11
80.18017833081733
 21
-173.3121631262466
 31
0.0
  0
LINE
  5
17A
330
79
100
AcDbEntity
  8
レイヤー 1
 62
    75
420
  6921064
370
    20
100
AcDbLine
 10
76.14589665863123
 20
-173.8226960055198
 30
0.0
 11
81.3652018378333
 21
-168.6033908263178
 31
0.0
  0
LINE
  5
17B
330
79
100
AcDbEntity
  8
レイヤー 1
 62
    75
420
  6921064
370
    20
100
AcDbLine
 10
76.14589665863123
 20
-170.2989472126067
 30
0.0
 11
81.70304758305336
 21
-164.7417962881849
 31
0.0
  0
LINE
  5
17C
330
79
100
AcDbEntity
  8
レイヤー 1
 62
    75
420
  6921064
370
    20
100
AcDbLine
 10
76.14589665863123
 20
-166.7751984196936
 30
0.0
 11
86.14589665863126
 21
-156.7751984196938
 31
0.0
  0
LINE
  5
17D
330
79
100
AcDbEntity
  8
レイヤー 1
 62
    75
420
  6921064
370
    20
100
AcDbLine
 10
76.14589665863123
 20
-163.2514496267804
 30
0.0
 11
86.14589665863126
 21
-153.2514496267807
 31
0.0
  0
LINE
  5
17E
330
79
100
AcDbEntity
  8
レイヤー 1
 62
    75
420
  6921064
370
    20
100
AcDbLine
 10
77.64589665863225
 20
-158.2277008338676
 30
0.0
 11
85.39358930040231
 21
-150.4800081920975
 31
0.0
  0
LINE
  5
17F
330
79
100
AcDbEntity
  8
レイヤー 1
 62
    75
420
  6921064
370
    20
100
AcDbLine
 10
76.14589665863123
 20
-156.2039520409548
 30
0.0
 11
84.44589665863153
 21
-147.9039520409548
 31
0.0
  0
LINE
  5
180
330
79
100
AcDbEntity
  8
レイヤー 1
 62
    75
420
  6921064
370
    20
100
AcDbLine
 10
85.06984050748931
 20
-147.2800081920974
 30
0.0
 11
86.14589665863126
 21
-146.2039520409545
 31
0.0
  0
LINE
  5
181
330
79
100
AcDbEntity
  8
レイヤー 1
 62
    75
420
  6921064
370
    20
100
AcDbLine
 10
76.14589665863123
 20
-152.6802032480417
 30
0.0
 11
86.14589665863126
 21
-142.6802032480413
 31
0.0
  0
LINE
  5
182
330
79
100
AcDbEntity
  8
レイヤー 1
 62
    75
420
  6921064
370
    20
100
AcDbLine
 10
76.14589665863123
 20
-149.1564544551285
 30
0.0
 11
84.12234292166324
 21
-141.1800081920975
 31
0.0
  0
LINE
  5
183
330
79
100
AcDbEntity
  8
レイヤー 1
 62
    75
420
  6921064
370
    20
100
AcDbLine
 10
76.14589665863123
 20
-145.6327056622154
 30
0.0
 11
80.59859412875043
 21
-141.1800081920975
 31
0.0
  0
LINE
  5
184
330
79
100
AcDbEntity
  8
レイヤー 1
 62
    75
420
  6921064
370
    20
100
AcDbLine
 10
76.14589665863123
 20
-142.1089568693023
 30
0.0
 11
77.0748453358373
 21
-141.1800081920975
 31
0.0
  0
LINE
  5
185
330
79
100
AcDbEntity
  8
レイヤー 1
 62
    75
420
  6921064
370
    20
100
AcDbLine
 10
84.8373574067075
 20
-98.18000819209762
 30
0.0
 11
86.14589665863126
 21
-96.87146894017352
 31
0.0
  0
LINE
  5
186
330
79
100
AcDbEntity
  8
レイヤー 1
 62
    75
420
  6921064
370
    20
100
AcDbLine
 10
81.31360861379437
 20
-98.18000819209762
 30
0.0
 11
86.14589665863126
 21
-93.34772014726071
 31
0.0
  0
LINE
  5
187
330
79
100
AcDbEntity
  8
レイヤー 1
 62
    75
420
  6921064
370
    20
100
AcDbLine
 10
77.78985982088125
 20
-98.18000819209762
 30
0.0
 11
84.44589665863153
 21
-91.52397135434766
 31
0.0
  0
LINE
  5
188
330
79
100
AcDbEntity
  8
レイヤー 1
 62
    75
420
  6921064
370
    20
100
AcDbLine
 10
76.14589665863123
 20
-96.30022256143448
 30
0.0
 11
86.14589665863126
 21
-86.30022256143446
 31
0.0
  0
LINE
  5
189
330
79
100
AcDbEntity
  8
レイヤー 1
 62
    75
420
  6921064
370
    20
100
AcDbLine
 10
76.14589665863123
 20
-92.77647376852167
 30
0.0
 11
86.14589665863126
 21
-82.77647376852163
 31
0.0
  0
LINE
  5
18A
330
79
100
AcDbEntity
  8
レイヤー 1
 62
    75
420
  6921064
370
    20
100
AcDbLine
 10
76.14589665863123
 20
-89.25272497560854
 30
0.0
 11
85.71966148075551
 21
-79.67896015348458
 31
0.0
  0
LINE
  5
18B
330
79
100
AcDbEntity
  8
レイヤー 1
 62
    75
420
  6921064
370
    20
100
AcDbLine
 10
76.14589665863123
 20
-85.72897618269573
 30
0.0
 11
83.1811279685815
 21
-78.69374487274673
 31
0.0
  0
LINE
  5
18C
330
79
100
AcDbEntity
  8
レイヤー 1
 62
    75
420
  6921064
370
    20
100
AcDbLine
 10
77.64589665863225
 20
-80.70522738978255
 30
0.0
 11
81.88852448351545
 21
-76.46259956489967
 31
0.0
  0
LINE
  5
18D
330
79
100
AcDbEntity
  8
レイヤー 1
 62
    75
420
  6921064
370
    20
100
AcDbLine
 10
76.14589665863123
 20
-78.68147859686979
 30
0.0
 11
81.5828636620875
 21
-73.24451159341449
 31
0.0
  0
LINE
  5
18E
330
79
100
AcDbEntity
  8
レイヤー 1
 62
    75
420
  6921064
370
    20
100
AcDbLine
 10
76.14589665863123
 20
-75.15772980395666
 30
0.0
 11
81.29937742187827
 21
-70.00424904071057
 31
0.0
  0
LINE
  5
18F
330
79
100
AcDbEntity
  8
レイヤー 1
 62
    75
420
  6921064
370
    20
100
AcDbLine
 10
76.14589665863123
 20
-71.63398101104353
 30
0.0
 11
80.79247704795447
 21
-66.98740062172158
 31
0.0
  0
LINE
  5
190
330
79
100
AcDbEntity
  8
レイヤー 1
 62
    75
420
  6921064
370
    20
100
AcDbLine
 10
76.14589665863123
 20
-68.11023221813072
 30
0.0
 11
79.08627188022233
 21
-65.16985699653962
 31
0.0
  0
LINE
  5
191
330
79
100
AcDbEntity
  8
レイヤー 1
 62
    75
420
  6921064
370
    20
100
AcDbLine
 10
86.14589665863126
 20
-98.18000819209762
 30
0.0
 11
76.14589665863123
 21
-98.18000819209762
 31
0.0
  0
LINE
  5
192
330
79
100
AcDbEntity
  8
レイヤー 1
 62
    75
420
  6921064
370
    20
100
AcDbLine
 10
76.14589665863123
 20
-98.18000819209762
 30
0.0
 11
76.14589665863123
 21
-82.38000819209769
 31
0.0
  0
SPLINE
  5
193
330
79
100
AcDbEntity
  8
レイヤー 1
 62
    75
420
  6921064
370
    20
100
AcDbSpline
210
0.0
220
0.0
230
1.0
 70
     8
 71
     3
 72
     8
 73
     4
 74
     0
 42
0.0000000001
 43
0.0000000001
 40
0.0
 40
0.0
 40
0.0
 40
0.0
 40
1.0
 40
1.0
 40
1.0
 40
1.0
 10
76.34589665863124
 20
-82.18000819209768
 30
0.0
 10
76.23543970866537
 20
-82.18000819209768
 30
0.0
 10
76.14589665863123
 20
-82.26955124213152
 30
0.0
 10
76.14589665863123
 20
-82.38000819209769
 30
0.0
  0
LINE
  5
194
330
79
100
AcDbEntity
  8
レイヤー 1
 62
    75
420
  6921064
370
    20
100
AcDbLine
 10
76.34589665863124
 20
-82.18000819209768
 30
0.0
 11
77.64589665863225
 21
-82.18000819209768
 31
0.0
  0
LINE
  5
195
330
79
100
AcDbEntity
  8
レイヤー 1
 62
    75
420
  6921064
370
    20
100
AcDbLine
 10
77.64589665863225
 20
-82.18000819209768
 30
0.0
 11
77.64589665863225
 21
-79.48000819209759
 31
0.0
  0
LINE
  5
196
330
79
100
AcDbEntity
  8
レイヤー 1
 62
    75
420
  6921064
370
    20
100
AcDbLine
 10
77.64589665863225
 20
-79.48000819209759
 30
0.0
 11
76.34589665863124
 21
-79.48000819209759
 31
0.0
  0
SPLINE
  5
197
330
79
100
AcDbEntity
  8
レイヤー 1
 62
    75
420
  6921064
370
    20
100
AcDbSpline
210
0.0
220
0.0
230
1.0
 70
     8
 71
     3
 72
     8
 73
     4
 74
     0
 42
0.0000000001
 43
0.0000000001
 40
0.0
 40
0.0
 40
0.0
 40
0.0
 40
1.0
 40
1.0
 40
1.0
 40
1.0
 10
76.14589665863123
 20
-79.28000819209758
 30
0.0
 10
76.14589665863123
 20
-79.39046514206378
 30
0.0
 10
76.23543970866537
 20
-79.48000819209759
 30
0.0
 10
76.34589665863124
 20
-79.48000819209759
 30
0.0
  0
LINE
  5
198
330
79
100
AcDbEntity
  8
レイヤー 1
 62
    75
420
  6921064
370
    20
100
AcDbLine
 10
76.14589665863123
 20
-79.28000819209758
 30
0.0
 11
76.14589665863123
 21
-64.88000819209772
 31
0.0
  0
LINE
  5
199
330
79
100
AcDbEntity
  8
レイヤー 1
 62
    75
420
  6921064
370
    20
100
AcDbLine
 10
76.14589665863253
 20
-64.88000819209772
 30
0.0
 11
76.34589665863124
 21
-64.68000819209771
 31
0.0
  0
LINE
  5
19A
330
79
100
AcDbEntity
  8
レイヤー 1
 62
    75
420
  6921064
370
    20
100
AcDbLine
 10
76.34589665863124
 20
-64.68000819209771
 30
0.0
 11
77.16824200967845
 21
-64.68000819209868
 31
0.0
  0
SPLINE
  5
19B
330
79
100
AcDbEntity
  8
レイヤー 1
 62
    75
420
  6921064
370
    20
100
AcDbSpline
210
0.0
220
0.0
230
1.0
 70
     8
 71
     3
 72
     8
 73
     4
 74
     0
 42
0.0000000001
 43
0.0000000001
 40
0.0
 40
0.0
 40
0.0
 40
0.0
 40
1.0
 40
1.0
 40
1.0
 40
1.0
 10
81.15302080204022
 20
-68.33138522110806
 30
0.0
 10
80.97225805690245
 20
-66.26525758978947
 30
0.0
 10
79.24226191289235
 20
-64.68000819210124
 30
0.0
 10
77.16824200967845
 20
-64.68000819209868
 30
0.0
  0
LINE
  5
19C
330
79
100
AcDbEntity
  8
レイヤー 1
 62
    75
420
  6921064
370
    20
100
AcDbLine
 10
81.15302080204022
 20
-68.33138522110775
 30
0.0
 11
81.82644256233428
 21
-76.02863116308853
 31
0.0
  0
SPLINE
  5
19D
330
79
100
AcDbEntity
  8
レイヤー 1
 62
    75
420
  6921064
370
    20
100
AcDbSpline
210
0.0
220
0.0
230
1.0
 70
     8
 71
     3
 72
     8
 73
     4
 74
     0
 42
0.0000000001
 43
0.0000000001
 40
0.0
 40
0.0
 40
0.0
 40
0.0
 40
1.0
 40
1.0
 40
1.0
 40
1.0
 10
81.82644256233428
 20
-76.02863116308821
 30
0.0
 10
82.00720530747272
 20
-78.09475879440873
 30
0.0
 10
83.73720145148537
 20
-79.6800081920976
 30
0.0
 10
85.81122135470153
 20
-79.6800081920976
 30
0.0
  0
LINE
  5
19E
330
79
100
AcDbEntity
  8
レイヤー 1
 62
    75
420
  6921064
370
    20
100
AcDbLine
 10
85.81122135470153
 20
-79.6800081920976
 30
0.0
 11
86.14589665863126
 21
-79.6800081920976
 31
0.0
  0
LINE
  5
19F
330
79
100
AcDbEntity
  8
レイヤー 1
 62
    75
420
  6921064
370
    20
100
AcDbLine
 10
86.14589665863126
 20
-79.6800081920976
 30
0.0
 11
86.14589665863126
 21
-88.73000819209744
 31
0.0
  0
SPLINE
  5
1A0
330
79
100
AcDbEntity
  8
レイヤー 1
 62
    75
420
  6921064
370
    20
100
AcDbSpline
210
0.0
220
0.0
230
1.0
 70
     8
 71
     3
 72
     8
 73
     4
 74
     0
 42
0.0000000001
 43
0.0000000001
 40
0.0
 40
0.0
 40
0.0
 40
0.0
 40
1.0
 40
1.0
 40
1.0
 40
1.0
 10
85.99589665863142
 20
-88.88000819209761
 30
0.0
 10
86.07873937110591
 20
-88.88000819209761
 30
0.0
 10
86.14589665863126
 20
-88.81285090457224
 30
0.0
 10
86.14589665863126
 20
-88.73000819209744
 30
0.0
  0
LINE
  5
1A1
330
79
100
AcDbEntity
  8
レイヤー 1
 62
    75
420
  6921064
370
    20
100
AcDbLine
 10
85.99589665863142
 20
-88.88000819209761
 30
0.0
 11
84.44589665863153
 21
-88.88000819209761
 31
0.0
  0
LINE
  5
1A2
330
79
100
AcDbEntity
  8
レイヤー 1
 62
    75
420
  6921064
370
    20
100
AcDbLine
 10
84.44589665863153
 20
-88.88000819209761
 30
0.0
 11
84.44589665863153
 21
-92.08000819209772
 31
0.0
  0
LINE
  5
1A3
330
79
100
AcDbEntity
  8
レイヤー 1
 62
    75
420
  6921064
370
    20
100
AcDbLine
 10
84.44589665863153
 20
-92.08000819209772
 30
0.0
 11
85.99589665863142
 21
-92.08000819209772
 31
0.0
  0
SPLINE
  5
1A4
330
79
100
AcDbEntity
  8
レイヤー 1
 62
    75
420
  6921064
370
    20
100
AcDbSpline
210
0.0
220
0.0
230
1.0
 70
     8
 71
     3
 72
     8
 73
     4
 74
     0
 42
0.0000000001
 43
0.0000000001
 40
0.0
 40
0.0
 40
0.0
 40
0.0
 40
1.0
 40
1.0
 40
1.0
 40
1.0
 10
86.14589665863126
 20
-92.23000819209756
 30
0.0
 10
86.14589665863126
 20
-92.14716547962309
 30
0.0
 10
86.07873937110591
 20
-92.08000819209772
 30
0.0
 10
85.99589665863142
 20
-92.08000819209772
 30
0.0
  0
LINE
  5
1A5
330
79
100
AcDbEntity
  8
レイヤー 1
 62
    75
420
  6921064
370
    20
100
AcDbLine
 10
86.14589665863222
 20
-92.23000819209756
 30
0.0
 11
86.14589665863126
 21
-98.18000819209762
 31
0.0
  0
LINE
  5
1A6
330
79
100
AcDbEntity
  8
レイヤー 1
 62
    75
420
  6921064
370
    20
100
AcDbLine
 10
76.14589665863123
 20
-141.1800081920975
 30
0.0
 11
86.14589665863126
 21
-141.1800081920975
 31
0.0
  0
LINE
  5
1A7
330
79
100
AcDbEntity
  8
レイヤー 1
 62
    75
420
  6921064
370
    20
100
AcDbLine
 10
86.14589665863126
 20
-141.1800081920975
 30
0.0
 11
86.14589665863126
 21
-147.1300081920975
 31
0.0
  0
SPLINE
  5
1A8
330
79
100
AcDbEntity
  8
レイヤー 1
 62
    75
420
  6921064
370
    20
100
AcDbSpline
210
0.0
220
0.0
230
1.0
 70
     8
 71
     3
 72
     8
 73
     4
 74
     0
 42
0.0000000001
 43
0.0000000001
 40
0.0
 40
0.0
 40
0.0
 40
0.0
 40
1.0
 40
1.0
 40
1.0
 40
1.0
 10
85.99589665863142
 20
-147.2800081920974
 30
0.0
 10
86.07873937110591
 20
-147.2800081920974
 30
0.0
 10
86.14589665863126
 20
-147.2128509045724
 30
0.0
 10
86.14589665863126
 20
-147.1300081920975
 30
0.0
  0
LINE
  5
1A9
330
79
100
AcDbEntity
  8
レイヤー 1
 62
    75
420
  6921064
370
    20
100
AcDbLine
 10
85.99589665863142
 20
-147.2800081920974
 30
0.0
 11
84.44589665863153
 21
-147.2800081920974
 31
0.0
  0
LINE
  5
1AA
330
79
100
AcDbEntity
  8
レイヤー 1
 62
    75
420
  6921064
370
    20
100
AcDbLine
 10
84.44589665863153
 20
-147.2800081920974
 30
0.0
 11
84.44589665863153
 21
-150.4800081920975
 31
0.0
  0
LINE
  5
1AB
330
79
100
AcDbEntity
  8
レイヤー 1
 62
    75
420
  6921064
370
    20
100
AcDbLine
 10
84.44589665863153
 20
-150.4800081920975
 30
0.0
 11
85.99589665863142
 21
-150.4800081920975
 31
0.0
  0
SPLINE
  5
1AC
330
79
100
AcDbEntity
  8
レイヤー 1
 62
    75
420
  6921064
370
    20
100
AcDbSpline
210
0.0
220
0.0
230
1.0
 70
     8
 71
     3
 72
     8
 73
     4
 74
     0
 42
0.0000000001
 43
0.0000000001
 40
0.0
 40
0.0
 40
0.0
 40
0.0
 40
1.0
 40
1.0
 40
1.0
 40
1.0
 10
86.14589665863126
 20
-150.6300081920974
 30
0.0
 10
86.14589665863126
 20
-150.5471654796232
 30
0.0
 10
86.07873937110591
 20
-150.4800081920975
 30
0.0
 10
85.99589665863142
 20
-150.4800081920975
 30
0.0
  0
LINE
  5
1AD
330
79
100
AcDbEntity
  8
レイヤー 1
 62
    75
420
  6921064
370
    20
100
AcDbLine
 10
86.14589665863126
 20
-150.6300081920974
 30
0.0
 11
86.14589665863126
 21
-159.6800081920978
 31
0.0
  0
LINE
  5
1AE
330
79
100
AcDbEntity
  8
レイヤー 1
 62
    75
420
  6921064
370
    20
100
AcDbLine
 10
86.14589665863126
 20
-159.6800081920978
 30
0.0
 11
85.81122135470153
 21
-159.6800081920978
 31
0.0
  0
SPLINE
  5
1AF
330
79
100
AcDbEntity
  8
レイヤー 1
 62
    75
420
  6921064
370
    20
100
AcDbSpline
210
0.0
220
0.0
230
1.0
 70
     8
 71
     3
 72
     8
 73
     4
 74
     0
 42
0.0000000001
 43
0.0000000001
 40
0.0
 40
0.0
 40
0.0
 40
0.0
 40
1.0
 40
1.0
 40
1.0
 40
1.0
 10
85.81122135470153
 20
-159.6800081920978
 30
0.0
 10
83.73720145148537
 20
-159.6800081920978
 30
0.0
 10
82.00720530747272
 20
-161.2652575897867
 30
0.0
 10
81.82644256233428
 20
-163.3313852211069
 30
0.0
  0
LINE
  5
1B0
330
79
100
AcDbEntity
  8
レイヤー 1
 62
    75
420
  6921064
370
    20
100
AcDbLine
 10
81.82644256233428
 20
-163.3313852211069
 30
0.0
 11
81.15302080204022
 21
-171.0286311630874
 31
0.0
  0
SPLINE
  5
1B1
330
79
100
AcDbEntity
  8
レイヤー 1
 62
    75
420
  6921064
370
    20
100
AcDbSpline
210
0.0
220
0.0
230
1.0
 70
     8
 71
     3
 72
     8
 73
     4
 74
     0
 42
0.0000000001
 43
0.0000000001
 40
0.0
 40
0.0
 40
0.0
 40
0.0
 40
1.0
 40
1.0
 40
1.0
 40
1.0
 10
77.16824200967332
 20
-174.6800081920964
 30
0.0
 10
79.24226191288754
 20
-174.6800081920964
 30
0.0
 10
80.97225805689923
 20
-173.0947587944108
 30
0.0
 10
81.15302080203992
 20
-171.0286311630925
 30
0.0
  0
LINE
  5
1B2
330
79
100
AcDbEntity
  8
レイヤー 1
 62
    75
420
  6921064
370
    20
100
AcDbLine
 10
77.16824200967845
 20
-174.6800081920964
 30
0.0
 11
76.34589665863252
 21
-174.6800081920977
 31
0.0
  0
LINE
  5
1B3
330
79
100
AcDbEntity
  8
レイヤー 1
 62
    75
420
  6921064
370
    20
100
AcDbLine
 10
76.34589665863124
 20
-174.6800081920977
 30
0.0
 11
76.14589665863123
 21
-174.4800081920977
 31
0.0
  0
LINE
  5
1B4
330
79
100
AcDbEntity
  8
レイヤー 1
 62
    75
420
  6921064
370
    20
100
AcDbLine
 10
76.14589665863123
 20
-174.4800081920977
 30
0.0
 11
76.14589665863123
 21
-160.0800081920978
 31
0.0
  0
SPLINE
  5
1B5
330
79
100
AcDbEntity
  8
レイヤー 1
 62
    75
420
  6921064
370
    20
100
AcDbSpline
210
0.0
220
0.0
230
1.0
 70
     8
 71
     3
 72
     8
 73
     4
 74
     0
 42
0.0000000001
 43
0.0000000001
 40
0.0
 40
0.0
 40
0.0
 40
0.0
 40
1.0
 40
1.0
 40
1.0
 40
1.0
 10
76.34589665863124
 20
-159.8800081920979
 30
0.0
 10
76.23543970866537
 20
-159.8800081920979
 30
0.0
 10
76.14589665863123
 20
-159.9695512421317
 30
0.0
 10
76.14589665863123
 20
-160.0800081920978
 30
0.0
  0
LINE
  5
1B6
330
79
100
AcDbEntity
  8
レイヤー 1
 62
    75
420
  6921064
370
    20
100
AcDbLine
 10
76.34589665863124
 20
-159.8800081920979
 30
0.0
 11
77.64589665863225
 21
-159.8800081920979
 31
0.0
  0
LINE
  5
1B7
330
79
100
AcDbEntity
  8
レイヤー 1
 62
    75
420
  6921064
370
    20
100
AcDbLine
 10
77.64589665863225
 20
-159.8800081920979
 30
0.0
 11
77.64589665863225
 21
-157.1800081920974
 31
0.0
  0
LINE
  5
1B8
330
79
100
AcDbEntity
  8
レイヤー 1
 62
    75
420
  6921064
370
    20
100
AcDbLine
 10
77.64589665863225
 20
-157.1800081920974
 30
0.0
 11
76.34589665863124
 21
-157.1800081920974
 31
0.0
  0
SPLINE
  5
1B9
330
79
100
AcDbEntity
  8
レイヤー 1
 62
    75
420
  6921064
370
    20
100
AcDbSpline
210
0.0
220
0.0
230
1.0
 70
     8
 71
     3
 72
     8
 73
     4
 74
     0
 42
0.0000000001
 43
0.0000000001
 40
0.0
 40
0.0
 40
0.0
 40
0.0
 40
1.0
 40
1.0
 40
1.0
 40
1.0
 10
76.14589665863123
 20
-156.9800081920974
 30
0.0
 10
76.14589665863123
 20
-157.0904651420636
 30
0.0
 10
76.23543970866537
 20
-157.1800081920974
 30
0.0
 10
76.34589665863124
 20
-157.1800081920974
 30
0.0
  0
LINE
  5
1BA
330
79
100
AcDbEntity
  8
レイヤー 1
 62
    75
420
  6921064
370
    20
100
AcDbLine
 10
76.14589665863123
 20
-156.9800081920974
 30
0.0
 11
76.14589665863123
 21
-141.1800081920975
 31
0.0
  0
LINE
  5
1BB
330
79
100
AcDbEntity
  8
レイヤー 1
 62
    75
420
  6921064
370
    20
100
AcDbLine
 10
76.34589665863124
 20
-82.18000819209768
 30
0.0
 11
77.64589665863225
 21
-82.18000819209768
 31
0.0
  0
LINE
  5
1BC
330
79
100
AcDbEntity
  8
レイヤー 1
 62
    75
420
  6921064
370
    20
100
AcDbLine
 10
76.34589665863124
 20
-79.48000819209759
 30
0.0
 11
77.64589665863225
 21
-79.48000819209759
 31
0.0
  0
LINE
  5
1BD
330
79
100
AcDbEntity
  8
レイヤー 1
 62
    75
420
  6921064
370
    20
100
AcDbLine
 10
77.64589665863225
 20
-79.48000819209759
 30
0.0
 11
77.64589665863225
 21
-82.18000819209768
 31
0.0
  0
SPLINE
  5
1BE
330
79
100
AcDbEntity
  8
レイヤー 1
 62
    75
420
  6921064
370
    20
100
AcDbSpline
210
0.0
220
0.0
230
1.0
 70
     8
 71
     3
 72
     8
 73
     4
 74
     0
 42
0.0000000001
 43
0.0000000001
 40
0.0
 40
0.0
 40
0.0
 40
0.0
 40
1.0
 40
1.0
 40
1.0
 40
1.0
 10
76.34589665863124
 20
-82.18000819209768
 30
0.0
 10
76.23543970866537
 20
-82.18000819209768
 30
0.0
 10
76.14589665863123
 20
-82.26955124213152
 30
0.0
 10
76.14589665863123
 20
-82.38000819209769
 30
0.0
  0
SPLINE
  5
1BF
330
79
100
AcDbEntity
  8
レイヤー 1
 62
    75
420
  6921064
370
    20
100
AcDbSpline
210
0.0
220
0.0
230
1.0
 70
     8
 71
     3
 72
     8
 73
     4
 74
     0
 42
0.0000000001
 43
0.0000000001
 40
0.0
 40
0.0
 40
0.0
 40
0.0
 40
1.0
 40
1.0
 40
1.0
 40
1.0
 10
76.14589665863123
 20
-79.28000819209758
 30
0.0
 10
76.14589665863123
 20
-79.39046514206378
 30
0.0
 10
76.23543970866537
 20
-79.48000819209759
 30
0.0
 10
76.34589665863124
 20
-79.48000819209759
 30
0.0
  0
LINE
  5
1C0
330
79
100
AcDbEntity
  8
レイヤー 1
 62
    75
420
  6921064
370
    20
100
AcDbLine
 10
76.34589665863124
 20
-157.1800081920974
 30
0.0
 11
77.64589665863225
 21
-157.1800081920974
 31
0.0
  0
LINE
  5
1C1
330
79
100
AcDbEntity
  8
レイヤー 1
 62
    75
420
  6921064
370
    20
100
AcDbLine
 10
76.34589665863124
 20
-159.8800081920979
 30
0.0
 11
77.64589665863225
 21
-159.8800081920979
 31
0.0
  0
LINE
  5
1C2
330
79
100
AcDbEntity
  8
レイヤー 1
 62
    75
420
  6921064
370
    20
100
AcDbLine
 10
77.64589665863225
 20
-159.8800081920979
 30
0.0
 11
77.64589665863225
 21
-157.1800081920974
 31
0.0
  0
SPLINE
  5
1C3
330
79
100
AcDbEntity
  8
レイヤー 1
 62
    75
420
  6921064
370
    20
100
AcDbSpline
210
0.0
220
0.0
230
1.0
 70
     8
 71
     3
 72
     8
 73
     4
 74
     0
 42
0.0000000001
 43
0.0000000001
 40
0.0
 40
0.0
 40
0.0
 40
0.0
 40
1.0
 40
1.0
 40
1.0
 40
1.0
 10
76.14589665863123
 20
-156.9800081920974
 30
0.0
 10
76.14589665863123
 20
-157.0904651420636
 30
0.0
 10
76.23543970866537
 20
-157.1800081920974
 30
0.0
 10
76.34589665863124
 20
-157.1800081920974
 30
0.0
  0
SPLINE
  5
1C4
330
79
100
AcDbEntity
  8
レイヤー 1
 62
    75
420
  6921064
370
    20
100
AcDbSpline
210
0.0
220
0.0
230
1.0
 70
     8
 71
     3
 72
     8
 73
     4
 74
     0
 42
0.0000000001
 43
0.0000000001
 40
0.0
 40
0.0
 40
0.0
 40
0.0
 40
1.0
 40
1.0
 40
1.0
 40
1.0
 10
76.34589665863124
 20
-159.8800081920979
 30
0.0
 10
76.23543970866537
 20
-159.8800081920979
 30
0.0
 10
76.14589665863123
 20
-159.9695512421317
 30
0.0
 10
76.14589665863123
 20
-160.0800081920978
 30
0.0
  0
INSERT
  5
1C6
330
79
100
AcDbEntity
  8
レイヤー 1
100
AcDbBlockReference
  2
Block_15
 10
0.0
 20
0.0
 30
0.0
  0
INSERT
  5
1D6
330
79
100
AcDbEntity
  8
レイヤー 1
100
AcDbBlockReference
  2
Block_16
 10
0.0
 20
0.0
 30
0.0
  0
ENDBLK
  5
7C
330
79
100
AcDbEntity
  8
0
100
AcDbBlockEnd
  0
BLOCK
  5
88
330
86
100
AcDbEntity
  8
0
100
AcDbBlockBegin
  2
Block_1
 70
     0
 10
0.0
 20
0.0
 30
0.0
  3
Block_1
  1

  0
LINE
  5
8A
330
86
100
AcDbEntity
  8
レイヤー 1
 62
   251
420
  4934474
370
    20
100
AcDbLine
 10
75.34589665863153
 20
-174.6800081920977
 30
0.0
 11
33.71818806455622
 21
-174.6800081920977
 31
0.0
  0
LINE
  5
8B
330
86
100
AcDbEntity
  8
レイヤー 1
 62
   251
420
  4934474
370
    20
100
AcDbLine
 10
75.34589665863153
 20
-64.68000819209771
 30
0.0
 11
33.71818806455622
 21
-64.68000819209771
 31
0.0
  0
LINE
  5
8C
330
86
100
AcDbEntity
  8
レイヤー 1
 62
   251
420
  4934474
370
     0
100
AcDbLine
 10
34.88485473122324
 20
-173.6800081920977
 30
0.0
 11
34.71818806455625
 21
-174.6800081920977
 31
0.0
  0
LINE
  5
8D
330
86
100
AcDbEntity
  8
レイヤー 1
 62
   251
420
  4934474
370
     0
100
AcDbLine
 10
34.55152139788926
 20
-173.6800081920977
 30
0.0
 11
34.71818806455625
 21
-174.6800081920977
 31
0.0
  0
LINE
  5
8E
330
86
100
AcDbEntity
  8
レイヤー 1
 62
   251
420
  4934474
370
     0
100
AcDbLine
 10
34.71818806455625
 20
-174.6800081920977
 30
0.0
 11
34.71818806455625
 21
-173.6800081920977
 31
0.0
  0
LINE
  5
8F
330
86
100
AcDbEntity
  8
レイヤー 1
 62
   251
420
  4934474
370
     0
100
AcDbLine
 10
34.55152139788926
 20
-65.68000819209775
 30
0.0
 11
34.71818806455625
 21
-64.68000819209771
 31
0.0
  0
LINE
  5
90
330
86
100
AcDbEntity
  8
レイヤー 1
 62
   251
420
  4934474
370
     0
100
AcDbLine
 10
34.88485473122324
 20
-65.68000819209775
 30
0.0
 11
34.71818806455625
 21
-64.68000819209771
 31
0.0
  0
LINE
  5
91
330
86
100
AcDbEntity
  8
レイヤー 1
 62
   251
420
  4934474
370
     0
100
AcDbLine
 10
34.71818806455625
 20
-64.68000819209771
 30
0.0
 11
34.71818806455625
 21
-65.68000819209775
 31
0.0
  0
LINE
  5
92
330
86
100
AcDbEntity
  8
レイヤー 1
 62
   251
420
  4934474
370
     0
100
AcDbLine
 10
34.88485473122324
 20
-173.6800081920977
 30
0.0
 11
34.71818806455625
 21
-174.6800081920977
 31
0.0
  0
LINE
  5
93
330
86
100
AcDbEntity
  8
レイヤー 1
 62
   251
420
  4934474
370
     0
100
AcDbLine
 10
34.55152139788926
 20
-173.6800081920977
 30
0.0
 11
34.71818806455625
 21
-174.6800081920977
 31
0.0
  0
LINE
  5
94
330
86
100
AcDbEntity
  8
レイヤー 1
 62
   251
420
  4934474
370
     0
100
AcDbLine
 10
34.71818806455625
 20
-174.6800081920977
 30
0.0
 11
34.71818806455625
 21
-173.6800081920977
 31
0.0
  0
LINE
  5
95
330
86
100
AcDbEntity
  8
レイヤー 1
 62
   251
420
  4934474
370
     0
100
AcDbLine
 10
34.55152139788926
 20
-65.68000819209775
 30
0.0
 11
34.71818806455625
 21
-64.68000819209771
 31
0.0
  0
LINE
  5
96
330
86
100
AcDbEntity
  8
レイヤー 1
 62
   251
420
  4934474
370
     0
100
AcDbLine
 10
34.88485473122324
 20
-65.68000819209775
 30
0.0
 11
34.71818806455625
 21
-64.68000819209771
 31
0.0
  0
LINE
  5
97
330
86
100
AcDbEntity
  8
レイヤー 1
 62
   251
420
  4934474
370
     0
100
AcDbLine
 10
34.71818806455625
 20
-64.68000819209771
 30
0.0
 11
34.71818806455625
 21
-65.68000819209775
 31
0.0
  0
LINE
  5
98
330
86
100
AcDbEntity
  8
レイヤー 1
 62
   251
420
  4934474
370
    20
100
AcDbLine
 10
34.71818806455625
 20
-174.6800081920977
 30
0.0
 11
34.71818806455625
 21
-64.68000819209771
 31
0.0
  0
MTEXT
  5
99
330
86
100
AcDbEntity
  8
レイヤー 1
100
AcDbMText
 10
33.06843803426762
 20
-127.6773057406501
 30
0.0
 40
0.2
 41
0.0
 46
0.0
 71
     7
 72
     1
  1
\C251;\c4868939;\FMS Gothic|b0|i0|c128;\H4.000000;\W1.155000;φ110
 11
0.0000000000000001
 21
1.0
 31
0.0
 73
     1
 44
1.0
  0
ENDBLK
  5
89
330
86
100
AcDbEntity
  8
0
100
AcDbBlockEnd
  0
BLOCK
  5
9C
330
9A
100
AcDbEntity
  8
0
100
AcDbBlockBegin
  2
Block_2
 70
     0
 10
0.0
 20
0.0
 30
0.0
  3
Block_2
  1

  0
LINE
  5
9E
330
9A
100
AcDbEntity
  8
レイヤー 1
 62
   251
420
  4934474
370
    20
100
AcDbLine
 10
87.1458966586313
 20
-159.6800081920978
 30
0.0
 11
118.7974596580934
 21
-159.6800081920978
 31
0.0
  0
LINE
  5
9F
330
9A
100
AcDbEntity
  8
レイヤー 1
 62
   251
420
  4934474
370
    20
100
AcDbLine
 10
87.1458966586313
 20
-79.6800081920976
 30
0.0
 11
118.7974596580934
 21
-79.6800081920976
 31
0.0
  0
LINE
  5
A0
330
9A
100
AcDbEntity
  8
レイヤー 1
 62
   251
420
  4934474
370
     0
100
AcDbLine
 10
117.9641263247604
 20
-158.6800081920978
 30
0.0
 11
117.7974596580934
 21
-159.6800081920978
 31
0.0
  0
LINE
  5
A1
330
9A
100
AcDbEntity
  8
レイヤー 1
 62
   251
420
  4934474
370
     0
100
AcDbLine
 10
117.6307929914264
 20
-158.6800081920978
 30
0.0
 11
117.7974596580934
 21
-159.6800081920978
 31
0.0
  0
LINE
  5
A2
330
9A
100
AcDbEntity
  8
レイヤー 1
 62
   251
420
  4934474
370
     0
100
AcDbLine
 10
117.7974596580934
 20
-159.6800081920978
 30
0.0
 11
117.7974596580934
 21
-158.6800081920978
 31
0.0
  0
LINE
  5
A3
330
9A
100
AcDbEntity
  8
レイヤー 1
 62
   251
420
  4934474
370
     0
100
AcDbLine
 10
117.6307929914264
 20
-80.68000819209762
 30
0.0
 11
117.7974596580934
 21
-79.6800081920976
 31
0.0
  0
LINE
  5
A4
330
9A
100
AcDbEntity
  8
レイヤー 1
 62
   251
420
  4934474
370
     0
100
AcDbLine
 10
117.9641263247604
 20
-80.68000819209762
 30
0.0
 11
117.7974596580934
 21
-79.6800081920976
 31
0.0
  0
LINE
  5
A5
330
9A
100
AcDbEntity
  8
レイヤー 1
 62
   251
420
  4934474
370
     0
100
AcDbLine
 10
117.7974596580934
 20
-79.6800081920976
 30
0.0
 11
117.7974596580934
 21
-80.68000819209762
 31
0.0
  0
LINE
  5
A6
330
9A
100
AcDbEntity
  8
レイヤー 1
 62
   251
420
  4934474
370
     0
100
AcDbLine
 10
117.9641263247604
 20
-158.6800081920978
 30
0.0
 11
117.7974596580934
 21
-159.6800081920978
 31
0.0
  0
LINE
  5
A7
330
9A
100
AcDbEntity
  8
レイヤー 1
 62
   251
420
  4934474
370
     0
100
AcDbLine
 10
117.6307929914264
 20
-158.6800081920978
 30
0.0
 11
117.7974596580934
 21
-159.6800081920978
 31
0.0
  0
LINE
  5
A8
330
9A
100
AcDbEntity
  8
レイヤー 1
 62
   251
420
  4934474
370
     0
100
AcDbLine
 10
117.7974596580934
 20
-159.6800081920978
 30
0.0
 11
117.7974596580934
 21
-158.6800081920978
 31
0.0
  0
LINE
  5
A9
330
9A
100
AcDbEntity
  8
レイヤー 1
 62
   251
420
  4934474
370
     0
100
AcDbLine
 10
117.6307929914264
 20
-80.68000819209762
 30
0.0
 11
117.7974596580934
 21
-79.6800081920976
 31
0.0
  0
LINE
  5
AA
330
9A
100
AcDbEntity
  8
レイヤー 1
 62
   251
420
  4934474
370
     0
100
AcDbLine
 10
117.9641263247604
 20
-80.68000819209762
 30
0.0
 11
117.7974596580934
 21
-79.6800081920976
 31
0.0
  0
LINE
  5
AB
330
9A
100
AcDbEntity
  8
レイヤー 1
 62
   251
420
  4934474
370
     0
100
AcDbLine
 10
117.7974596580934
 20
-79.6800081920976
 30
0.0
 11
117.7974596580934
 21
-80.68000819209762
 31
0.0
  0
LINE
  5
AC
330
9A
100
AcDbEntity
  8
レイヤー 1
 62
   251
420
  4934474
370
    20
100
AcDbLine
 10
117.7974596580934
 20
-159.6800081920978
 30
0.0
 11
117.7974596580934
 21
-79.6800081920976
 31
0.0
  0
MTEXT
  5
AD
330
9A
100
AcDbEntity
  8
レイヤー 1
100
AcDbMText
 10
116.1476908075516
 20
-126.1762776377267
 30
0.0
 40
0.2
 41
0.0
 46
0.0
 71
     7
 72
     1
  1
\C251;\c4868939;\FMS Gothic|b0|i0|c128;\H4.000000;\W1.155000;φ80
 11
0.0000000000000001
 21
1.0
 31
0.0
 73
     1
 44
1.0
  0
ENDBLK
  5
9D
330
9A
100
AcDbEntity
  8
0
100
AcDbBlockEnd
  0
BLOCK
  5
B0
330
AE
100
AcDbEntity
  8
0
100
AcDbBlockBegin
  2
Block_3
 70
     0
 10
0.0
 20
0.0
 30
0.0
  3
Block_3
  1

  0
LINE
  5
B2
330
AE
100
AcDbEntity
  8
レイヤー 1
 62
   251
420
  4934474
370
    20
100
AcDbLine
 10
76.14589665863123
 20
-63.88000819209768
 30
0.0
 11
76.14589665863123
 21
-59.69934810058052
 31
0.0
  0
LINE
  5
B3
330
AE
100
AcDbEntity
  8
レイヤー 1
 62
   251
420
  4934474
370
    20
100
AcDbLine
 10
77.16824200967845
 20
-63.68000819209864
 30
0.0
 11
77.16824200967845
 21
-59.69934810058052
 31
0.0
  0
LINE
  5
B4
330
AE
100
AcDbEntity
  8
レイヤー 1
 62
   251
420
  4934474
370
    20
100
AcDbLine
 10
76.14589665863123
 20
-60.69934810058057
 30
0.0
 11
77.16824200967845
 21
-60.69934810058057
 31
0.0
  0
LINE
  5
B5
330
AE
100
AcDbEntity
  8
レイヤー 1
 62
   251
420
  4934474
370
     0
100
AcDbLine
 10
75.14589665863153
 20
-60.53268143391356
 30
0.0
 11
76.14589665863123
 21
-60.69934810058057
 31
0.0
  0
LINE
  5
B6
330
AE
100
AcDbEntity
  8
レイヤー 1
 62
   251
420
  4934474
370
     0
100
AcDbLine
 10
75.14589665863153
 20
-60.86601476724755
 30
0.0
 11
76.14589665863123
 21
-60.69934810058057
 31
0.0
  0
LINE
  5
B7
330
AE
100
AcDbEntity
  8
レイヤー 1
 62
   251
420
  4934474
370
     0
100
AcDbLine
 10
76.14589665863123
 20
-60.69934810058057
 30
0.0
 11
75.14589665863153
 21
-60.69934810058057
 31
0.0
  0
LINE
  5
B8
330
AE
100
AcDbEntity
  8
レイヤー 1
 62
   251
420
  4934474
370
    20
100
AcDbLine
 10
76.14589665863123
 20
-60.69934810058057
 30
0.0
 11
64.14589665863146
 21
-60.69934810058057
 31
0.0
  0
LINE
  5
B9
330
AE
100
AcDbEntity
  8
レイヤー 1
 62
   251
420
  4934474
370
     0
100
AcDbLine
 10
78.16824200967848
 20
-60.86601476724755
 30
0.0
 11
77.16824200967845
 21
-60.69934810058057
 31
0.0
  0
LINE
  5
BA
330
AE
100
AcDbEntity
  8
レイヤー 1
 62
   251
420
  4934474
370
     0
100
AcDbLine
 10
78.16824200967848
 20
-60.53268143391356
 30
0.0
 11
77.16824200967845
 21
-60.69934810058057
 31
0.0
  0
LINE
  5
BB
330
AE
100
AcDbEntity
  8
レイヤー 1
 62
   251
420
  4934474
370
     0
100
AcDbLine
 10
77.16824200967845
 20
-60.69934810058057
 30
0.0
 11
78.16824200967848
 21
-60.69934810058057
 31
0.0
  0
LINE
  5
BC
330
AE
100
AcDbEntity
  8
レイヤー 1
 62
   251
420
  4934474
370
    20
100
AcDbLine
 10
77.16824200967845
 20
-60.69934810058057
 30
0.0
 11
83.16824200967834
 21
-60.69934810058057
 31
0.0
  0
MTEXT
  5
BD
330
AE
100
AcDbEntity
  8
レイヤー 1
100
AcDbMText
 10
63.55960551898152
 20
-59.69937064479738
 30
0.0
 40
0.2
 41
0.0
 46
0.0
 71
     7
 72
     1
  1
\C251;\c4868939;\FMS Gothic|b0|i0|c128;\H4.000000;\W1.155000;1.0
 73
     1
 44
1.0
  0
ENDBLK
  5
B1
330
AE
100
AcDbEntity
  8
0
100
AcDbBlockEnd
  0
BLOCK
  5
C4
330
C2
100
AcDbEntity
  8
0
100
AcDbBlockBegin
  2
Block_4
 70
     0
 10
0.0
 20
0.0
 30
0.0
  3
Block_4
  1

  0
LINE
  5
C6
330
C2
100
AcDbEntity
  8
レイヤー 1
 62
   251
420
  4934474
370
    20
100
AcDbLine
 10
76.14589665863123
 20
-63.88000819209768
 30
0.0
 11
76.14589665863123
 21
-52.02299457020472
 31
0.0
  0
LINE
  5
C7
330
C2
100
AcDbEntity
  8
レイヤー 1
 62
   251
420
  4934474
370
    20
100
AcDbLine
 10
86.14589665863126
 20
-78.68000819209756
 30
0.0
 11
86.14589665863126
 21
-52.02299457020472
 31
0.0
  0
LINE
  5
C8
330
C2
100
AcDbEntity
  8
レイヤー 1
 62
   251
420
  4934474
370
     0
100
AcDbLine
 10
77.14589665863127
 20
-53.18966123687175
 30
0.0
 11
76.14589665863123
 21
-53.02299457020475
 31
0.0
  0
LINE
  5
C9
330
C2
100
AcDbEntity
  8
レイヤー 1
 62
   251
420
  4934474
370
     0
100
AcDbLine
 10
77.14589665863127
 20
-52.85632790353776
 30
0.0
 11
76.14589665863123
 21
-53.02299457020475
 31
0.0
  0
LINE
  5
CA
330
C2
100
AcDbEntity
  8
レイヤー 1
 62
   251
420
  4934474
370
     0
100
AcDbLine
 10
76.14589665863123
 20
-53.02299457020475
 30
0.0
 11
77.14589665863127
 21
-53.02299457020475
 31
0.0
  0
LINE
  5
CB
330
C2
100
AcDbEntity
  8
レイヤー 1
 62
   251
420
  4934474
370
     0
100
AcDbLine
 10
85.14589665863253
 20
-52.85632790353776
 30
0.0
 11
86.14589665863222
 21
-53.02299457020475
 31
0.0
  0
LINE
  5
CC
330
C2
100
AcDbEntity
  8
レイヤー 1
 62
   251
420
  4934474
370
     0
100
AcDbLine
 10
85.14589665863253
 20
-53.18966123687175
 30
0.0
 11
86.14589665863222
 21
-53.02299457020475
 31
0.0
  0
LINE
  5
CD
330
C2
100
AcDbEntity
  8
レイヤー 1
 62
   251
420
  4934474
370
     0
100
AcDbLine
 10
86.14589665863222
 20
-53.02299457020475
 30
0.0
 11
85.14589665863253
 21
-53.02299457020475
 31
0.0
  0
LINE
  5
CE
330
C2
100
AcDbEntity
  8
レイヤー 1
 62
   251
420
  4934474
370
     0
100
AcDbLine
 10
77.14589665863127
 20
-53.18966123687175
 30
0.0
 11
76.14589665863123
 21
-53.02299457020475
 31
0.0
  0
LINE
  5
CF
330
C2
100
AcDbEntity
  8
レイヤー 1
 62
   251
420
  4934474
370
     0
100
AcDbLine
 10
77.14589665863127
 20
-52.85632790353776
 30
0.0
 11
76.14589665863123
 21
-53.02299457020475
 31
0.0
  0
LINE
  5
D0
330
C2
100
AcDbEntity
  8
レイヤー 1
 62
   251
420
  4934474
370
     0
100
AcDbLine
 10
76.14589665863123
 20
-53.02299457020475
 30
0.0
 11
77.14589665863127
 21
-53.02299457020475
 31
0.0
  0
LINE
  5
D1
330
C2
100
AcDbEntity
  8
レイヤー 1
 62
   251
420
  4934474
370
     0
100
AcDbLine
 10
85.14589665863253
 20
-52.85632790353776
 30
0.0
 11
86.14589665863222
 21
-53.02299457020475
 31
0.0
  0
LINE
  5
D2
330
C2
100
AcDbEntity
  8
レイヤー 1
 62
   251
420
  4934474
370
     0
100
AcDbLine
 10
85.14589665863253
 20
-53.18966123687175
 30
0.0
 11
86.14589665863222
 21
-53.02299457020475
 31
0.0
  0
LINE
  5
D3
330
C2
100
AcDbEntity
  8
レイヤー 1
 62
   251
420
  4934474
370
     0
100
AcDbLine
 10
86.14589665863222
 20
-53.02299457020475
 30
0.0
 11
85.14589665863253
 21
-53.02299457020475
 31
0.0
  0
LINE
  5
D4
330
C2
100
AcDbEntity
  8
レイヤー 1
 62
   251
420
  4934474
370
    20
100
AcDbLine
 10
76.14589665863123
 20
-53.02299457020475
 30
0.0
 11
86.14589665863222
 21
-53.02299457020475
 31
0.0
  0
MTEXT
  5
D5
330
C2
100
AcDbEntity
  8
レイヤー 1
100
AcDbMText
 10
77.9681844728311
 20
-52.02300888456369
 30
0.0
 40
0.2
 41
0.0
 46
0.0
 71
     7
 72
     1
  1
\C251;\c4868939;\FMS Gothic|b0|i0|c128;\H4.000000;\W1.155000;10
 73
     1
 44
1.0
  0
ENDBLK
  5
C5
330
C2
100
AcDbEntity
  8
0
100
AcDbBlockEnd
  0
BLOCK
  5
DF
330
DD
100
AcDbEntity
  8
0
100
AcDbBlockBegin
  2
Block_5
 70
     0
 10
0.0
 20
0.0
 30
0.0
  3
Block_5
  1

  0
LWPOLYLINE
  5
E1
330
DD
100
AcDbEntity
  8
レイヤー 1
 62
   251
420
  4934474
370
     0
100
AcDbPolyline
 90
        1
 70
     0
 43
0.0
 10
80.52247676955053
 20
-66.50076309903754
  0
ENDBLK
  5
E0
330
DD
100
AcDbEntity
  8
0
100
AcDbBlockEnd
  0
BLOCK
  5
E4
330
E2
100
AcDbEntity
  8
0
100
AcDbBlockBegin
  2
Block_6
 70
     0
 10
0.0
 20
0.0
 30
0.0
  3
Block_6
  1

  0
LWPOLYLINE
  5
E6
330
E2
100
AcDbEntity
  8
レイヤー 1
 62
   251
420
  4934474
370
     0
100
AcDbPolyline
 90
        1
 70
     0
 43
0.0
 10
82.11027060651851
 20
-77.19756002301453
  0
ENDBLK
  5
E5
330
E2
100
AcDbEntity
  8
0
100
AcDbBlockEnd
  0
BLOCK
  5
EF
330
ED
100
AcDbEntity
  8
0
100
AcDbBlockBegin
  2
Block_7
 70
     0
 10
0.0
 20
0.0
 30
0.0
  3
Block_7
  1

  0
LINE
  5
F1
330
ED
100
AcDbEntity
  8
レイヤー 1
 62
   251
420
  4934474
370
    20
100
AcDbLine
 10
81.06586505929262
 20
-172.0248258611794
 30
0.0
 11
79.61436414938249
 21
-188.6155571789588
 31
0.0
  0
LINE
  5
F2
330
ED
100
AcDbEntity
  8
レイヤー 1
 62
   251
420
  4934474
370
    20
100
AcDbLine
 10
76.14589665863123
 20
-175.4800081920978
 30
0.0
 11
76.14589665863123
 21
-188.4641206178651
 31
0.0
  0
SPLINE
  5
F3
330
ED
100
AcDbEntity
  8
レイヤー 1
 62
   251
420
  4934474
370
    20
100
AcDbSpline
210
0.0
220
0.0
230
1.0
 70
     8
 71
     3
 72
     8
 73
     4
 74
     0
 42
0.0000000001
 43
0.0000000001
 40
0.0
 40
0.0
 40
0.0
 40
0.0
 40
1.0
 40
1.0
 40
1.0
 40
1.0
 10
80.69657158338065
 20
-187.7187210826042
 30
0.0
 10
80.36530607251867
 20
-187.681537507726
 30
0.0
 10
80.03359726234661
 20
-187.6484154861742
 30
0.0
 10
79.70151989213009
 20
-187.6193624808668
 30
0.0
  0
LINE
  5
F4
330
ED
100
AcDbEntity
  8
レイヤー 1
 62
   251
420
  4934474
370
    20
100
AcDbLine
 10
80.69657158338065
 20
-187.7187210826042
 30
0.0
 11
95.43261195205701
 21
-187.7187210826042
 31
0.0
  0
SPLINE
  5
F5
330
ED
100
AcDbEntity
  8
レイヤー 1
 62
   251
420
  4934474
370
    20
100
AcDbSpline
210
0.0
220
0.0
230
1.0
 70
     8
 71
     3
 72
     8
 73
     4
 74
     0
 42
0.0000000001
 43
0.0000000001
 40
0.0
 40
0.0
 40
0.0
 40
0.0
 40
1.0
 40
1.0
 40
1.0
 40
1.0
 10
78.70433183181134
 20
-187.5444226893159
 30
0.0
 10
78.18530959482457
 20
-187.5118092687857
 30
0.0
 10
77.66571119808293
 20
-187.48912311285
 30
0.0
 10
77.14582155051544
 20
-187.4763766609021
 30
0.0
  0
LINE
  5
F6
330
ED
100
AcDbEntity
  8
レイヤー 1
 62
   251
420
  4934474
370
     0
100
AcDbLine
 10
78.71682179706971
 20
-187.3782246792625
 30
0.0
 11
79.70151989213009
 21
-187.6193624808668
 31
0.0
  0
LINE
  5
F7
330
ED
100
AcDbEntity
  8
レイヤー 1
 62
   251
420
  4934474
370
     0
100
AcDbLine
 10
78.69184186655265
 20
-187.7106206993692
 30
0.0
 11
79.70151989213009
 21
-187.6193624808668
 31
0.0
  0
LINE
  5
F8
330
ED
100
AcDbEntity
  8
レイヤー 1
 62
   251
420
  4934474
370
     0
100
AcDbLine
 10
79.70151989213009
 20
-187.6193624808668
 30
0.0
 11
78.70433183181134
 21
-187.5444226893159
 31
0.0
  0
LINE
  5
F9
330
ED
100
AcDbEntity
  8
レイヤー 1
 62
   251
420
  4934474
370
     0
100
AcDbLine
 10
77.14377887667573
 20
-187.64303080955
 30
0.0
 11
76.14589665863123
 21
-187.4641206178651
 31
0.0
  0
LINE
  5
FA
330
ED
100
AcDbEntity
  8
レイヤー 1
 62
   251
420
  4934474
370
     0
100
AcDbLine
 10
77.14786422435484
 20
-187.3097225122542
 30
0.0
 11
76.14589665863123
 21
-187.4641206178651
 31
0.0
  0
LINE
  5
FB
330
ED
100
AcDbEntity
  8
レイヤー 1
 62
   251
420
  4934474
370
     0
100
AcDbLine
 10
76.14589665863123
 20
-187.4641206178651
 30
0.0
 11
77.14582155051544
 21
-187.4763766609021
 31
0.0
  0
MTEXT
  5
FC
330
ED
100
AcDbEntity
  8
レイヤー 1
100
AcDbMText
 10
82.47322817965839
 20
-186.7187277433051
 30
0.0
 40
0.2
 41
0.0
 46
0.0
 71
     7
 72
     1
  1
\C251;\c4868939;\FMS Gothic|b0|i0|c128;\H4.000000;\W1.000000;5.00°
 73
     1
 44
1.0
  0
ENDBLK
  5
F0
330
ED
100
AcDbEntity
  8
0
100
AcDbBlockEnd
  0
BLOCK
  5
104
330
102
100
AcDbEntity
  8
0
100
AcDbBlockBegin
  2
Block_8
 70
     0
 10
0.0
 20
0.0
 30
0.0
  3
Block_8
  1

  0
LINE
  5
106
330
102
100
AcDbEntity
  8
レイヤー 1
 62
   251
420
  4934474
370
     0
100
AcDbLine
 10
219.4799504278749
 20
-104.2625586317316
 30
0.0
 11
218.6415957365307
 21
-104.8325930072555
 31
0.0
  0
LINE
  5
107
330
102
100
AcDbEntity
  8
レイヤー 1
 62
   251
420
  4934474
370
     0
100
AcDbLine
 10
219.2497579443885
 20
-104.0214724818639
 30
0.0
 11
218.6415957365307
 21
-104.8325930072555
 31
0.0
  0
LINE
  5
108
330
102
100
AcDbEntity
  8
レイヤー 1
 62
   251
420
  4934474
370
     0
100
AcDbLine
 10
218.6415957365307
 20
-104.8325930072555
 30
0.0
 11
219.3648541861317
 21
-104.1420155567978
 31
0.0
  0
LINE
  5
109
330
102
100
AcDbEntity
  8
レイヤー 1
 62
   251
420
  4934474
370
    20
100
AcDbLine
 10
218.6415957365307
 20
-104.8325930072555
 30
0.0
 11
255.6617809746958
 21
-69.48519381496345
 31
0.0
  0
MTEXT
  5
10A
330
102
100
AcDbEntity
  8
レイヤー 1
100
AcDbMText
 10
248.7122684264277
 20
-74.73810802816505
 30
0.0
 40
0.2
 41
0.0
 46
0.0
 71
     7
 72
     1
  1
\C251;\c4868939;\FMS Gothic|b0|i0|c128;\H4.000000;\W1.155000;∅43
 11
0.7232584445041923
 21
0.6905774557957828
 31
0.0
 73
     1
 44
1.0
  0
ENDBLK
  5
105
330
102
100
AcDbEntity
  8
0
100
AcDbBlockEnd
  0
BLOCK
  5
116
330
114
100
AcDbEntity
  8
0
100
AcDbBlockBegin
  2
Block_9
 70
     0
 10
0.0
 20
0.0
 30
0.0
  3
Block_9
  1

  0
LWPOLYLINE
  5
118
330
114
100
AcDbEntity
  8
レイヤー 1
100
AcDbPolyline
 90
        4
 70
     1
 43
0.0
 10
201.0915390701081
 20
-59.66628549574238
 10
203.0915390701081
 20
-59.99961882907573
 10
201.0915390701081
 20
-60.33295216240907
 10
201.0915390701081
 20
-60.33295216240907
  0
HATCH
  5
119
330
114
100
AcDbEntity
  8
レイヤー 1
 62
   251
420
  4934474
440
 33554687
100
AcDbHatch
 10
0.0
 20
0.0
 30
0.0
210
0.0
220
0.0
230
1.0
  2
SOLID
 70
     1
 71
     1
 91
        1
 92
        1
 93
        3
 72
     1
 10
201.0915390701081
 20
-59.66628549574238
 11
203.0915390701081
 21
-59.99961882907573
 72
     1
 10
203.0915390701081
 20
-59.99961882907573
 11
201.0915390701081
 21
-60.33295216240907
 72
     1
 10
201.0915390701081
 20
-60.33295216240907
 11
201.0915390701081
 21
-59.66628549574238
 97
        1
330
118
 75
     2
 76
     1
 98
        1
 10
0.0
 20
0.0
450
        0
451
        0
460
0.0
461
0.0
452
        0
462
0.0
453
        0
470

  0
LWPOLYLINE
  5
11A
330
114
100
AcDbEntity
  8
レイヤー 1
 62
   251
420
  4934474
370
    20
100
AcDbPolyline
 90
        3
 70
     0
 43
0.0
 10
201.0915390701081
 20
-59.99961882907573
 10
193.3415390701086
 20
-59.99961882907573
 10
189.5273259297998
 20
-59.99961882907573
  0
ENDBLK
  5
117
330
114
100
AcDbEntity
  8
0
100
AcDbBlockEnd
  0
BLOCK
  5
11E
330
11C
100
AcDbEntity
  8
0
100
AcDbBlockBegin
  2
Block_10
 70
     0
 10
0.0
 20
0.0
 30
0.0
  3
Block_10
  1

  0
LWPOLYLINE
  5
120
330
11C
100
AcDbEntity
  8
レイヤー 1
100
AcDbPolyline
 90
        4
 70
     1
 43
0.0
 10
201.0915390701081
 20
-179.0239733570145
 10
203.0915390701081
 20
-179.3573066903478
 10
201.0915390701081
 20
-179.6906400236812
 10
201.0915390701081
 20
-179.6906400236812
  0
HATCH
  5
121
330
11C
100
AcDbEntity
  8
レイヤー 1
 62
   251
420
  4934474
440
 33554687
100
AcDbHatch
 10
0.0
 20
0.0
 30
0.0
210
0.0
220
0.0
230
1.0
  2
SOLID
 70
     1
 71
     1
 91
        1
 92
        1
 93
        3
 72
     1
 10
201.0915390701081
 20
-179.0239733570145
 11
203.0915390701081
 21
-179.3573066903478
 72
     1
 10
203.0915390701081
 20
-179.3573066903478
 11
201.0915390701081
 21
-179.6906400236812
 72
     1
 10
201.0915390701081
 20
-179.6906400236812
 11
201.0915390701081
 21
-179.0239733570145
 97
        1
330
120
 75
     2
 76
     1
 98
        1
 10
0.0
 20
0.0
450
        0
451
        0
460
0.0
461
0.0
452
        0
462
0.0
453
        0
470

  0
LWPOLYLINE
  5
122
330
11C
100
AcDbEntity
  8
レイヤー 1
 62
   251
420
  4934474
370
    20
100
AcDbPolyline
 90
        3
 70
     0
 43
0.0
 10
201.0915390701081
 20
-179.3573066903478
 10
193.3415390701086
 20
-179.3573066903478
 10
189.5273259297998
 20
-179.3573066903478
  0
ENDBLK
  5
11F
330
11C
100
AcDbEntity
  8
0
100
AcDbBlockEnd
  0
BLOCK
  5
128
330
126
100
AcDbEntity
  8
0
100
AcDbBlockBegin
  2
Block_11
 70
     0
 10
0.0
 20
0.0
 30
0.0
  3
Block_11
  1

  0
LINE
  5
12A
330
126
100
AcDbEntity
  8
レイヤー 1
 62
   251
420
  4934474
370
    20
100
AcDbLine
 10
86.99589665863145
 20
-147.2800081920974
 30
0.0
 11
112.6466633068964
 21
-147.2800081920974
 31
0.0
  0
LINE
  5
12B
330
126
100
AcDbEntity
  8
レイヤー 1
 62
   251
420
  4934474
370
    20
100
AcDbLine
 10
86.99589665863145
 20
-92.08000819209772
 30
0.0
 11
112.6466633068964
 21
-92.08000819209772
 31
0.0
  0
LINE
  5
12C
330
126
100
AcDbEntity
  8
レイヤー 1
 62
   251
420
  4934474
370
     0
100
AcDbLine
 10
111.8133299735634
 20
-146.2800081920974
 30
0.0
 11
111.6466633068964
 21
-147.2800081920974
 31
0.0
  0
LINE
  5
12D
330
126
100
AcDbEntity
  8
レイヤー 1
 62
   251
420
  4934474
370
     0
100
AcDbLine
 10
111.4799966402294
 20
-146.2800081920974
 30
0.0
 11
111.6466633068964
 21
-147.2800081920974
 31
0.0
  0
LINE
  5
12E
330
126
100
AcDbEntity
  8
レイヤー 1
 62
   251
420
  4934474
370
     0
100
AcDbLine
 10
111.6466633068964
 20
-147.2800081920974
 30
0.0
 11
111.6466633068964
 21
-146.2800081920974
 31
0.0
  0
LINE
  5
12F
330
126
100
AcDbEntity
  8
レイヤー 1
 62
   251
420
  4934474
370
     0
100
AcDbLine
 10
111.446663306896
 20
-93.28000819209744
 30
0.0
 11
111.6466633068964
 21
-92.08000819209772
 31
0.0
  0
LINE
  5
130
330
126
100
AcDbEntity
  8
レイヤー 1
 62
   251
420
  4934474
370
     0
100
AcDbLine
 10
111.8466633068967
 20
-93.28000819209744
 30
0.0
 11
111.6466633068964
 21
-92.08000819209772
 31
0.0
  0
LINE
  5
131
330
126
100
AcDbEntity
  8
レイヤー 1
 62
   251
420
  4934474
370
     0
100
AcDbLine
 10
111.6466633068964
 20
-92.08000819209772
 30
0.0
 11
111.6466633068964
 21
-93.28000819209744
 31
0.0
  0
LINE
  5
132
330
126
100
AcDbEntity
  8
レイヤー 1
 62
   251
420
  4934474
370
     0
100
AcDbLine
 10
111.8133299735634
 20
-146.2800081920974
 30
0.0
 11
111.6466633068964
 21
-147.2800081920974
 31
0.0
  0
LINE
  5
133
330
126
100
AcDbEntity
  8
レイヤー 1
 62
   251
420
  4934474
370
     0
100
AcDbLine
 10
111.4799966402294
 20
-146.2800081920974
 30
0.0
 11
111.6466633068964
 21
-147.2800081920974
 31
0.0
  0
LINE
  5
134
330
126
100
AcDbEntity
  8
レイヤー 1
 62
   251
420
  4934474
370
     0
100
AcDbLine
 10
111.6466633068964
 20
-147.2800081920974
 30
0.0
 11
111.6466633068964
 21
-146.2800081920974
 31
0.0
  0
LINE
  5
135
330
126
100
AcDbEntity
  8
レイヤー 1
 62
   251
420
  4934474
370
     0
100
AcDbLine
 10
111.446663306896
 20
-93.28000819209744
 30
0.0
 11
111.6466633068964
 21
-92.08000819209772
 31
0.0
  0
LINE
  5
136
330
126
100
AcDbEntity
  8
レイヤー 1
 62
   251
420
  4934474
370
     0
100
AcDbLine
 10
111.8466633068967
 20
-93.28000819209744
 30
0.0
 11
111.6466633068964
 21
-92.08000819209772
 31
0.0
  0
LINE
  5
137
330
126
100
AcDbEntity
  8
レイヤー 1
 62
   251
420
  4934474
370
     0
100
AcDbLine
 10
111.6466633068964
 20
-92.08000819209772
 30
0.0
 11
111.6466633068964
 21
-93.28000819209744
 31
0.0
  0
LINE
  5
138
330
126
100
AcDbEntity
  8
レイヤー 1
 62
   251
420
  4934474
370
    20
100
AcDbLine
 10
111.6466633068964
 20
-147.2800081920974
 30
0.0
 11
111.6466633068964
 21
-92.08000819209772
 31
0.0
  0
MTEXT
  5
139
330
126
100
AcDbEntity
  8
レイヤー 1
100
AcDbMText
 10
109.3606804468352
 20
-132.9245306742341
 30
0.0
 40
0.2
 41
0.0
 46
0.0
 71
     7
 72
     1
  1
\C251;\c4868939;\FMS Gothic|b0|i0|c128;\H4.000000;\W1.155000;φ55.2
 11
0.0000000000000001
 21
1.0
 31
0.0
 73
     1
 44
1.0
  0
ENDBLK
  5
129
330
126
100
AcDbEntity
  8
0
100
AcDbBlockEnd
  0
BLOCK
  5
13D
330
13B
100
AcDbEntity
  8
0
100
AcDbBlockBegin
  2
Block_12
 70
     0
 10
0.0
 20
0.0
 30
0.0
  3
Block_12
  1

  0
LINE
  5
13F
330
13B
100
AcDbEntity
  8
レイヤー 1
100
AcDbLine
 10
87.17736911695189
 20
-151.2750388640244
 30
0.0
 11
86.91241471209339
 21
-151.5747039493213
 31
0.0
  0
ENDBLK
  5
13E
330
13B
100
AcDbEntity
  8
0
100
AcDbBlockEnd
  0
BLOCK
  5
149
330
147
100
AcDbEntity
  8
0
100
AcDbBlockBegin
  2
Block_13
 70
     0
 10
0.0
 20
0.0
 30
0.0
  3
Block_13
  1

  0
LINE
  5
14B
330
147
100
AcDbEntity
  8
レイヤー 1
 62
   251
420
  4934474
370
    20
100
AcDbLine
 10
84.44589665863249
 20
-87.88000819209758
 30
0.0
 11
84.44589665863249
 21
-65.77878058571474
 31
0.0
  0
LINE
  5
14C
330
147
100
AcDbEntity
  8
レイヤー 1
 62
   251
420
  4934474
370
    20
100
AcDbLine
 10
86.14589665863222
 20
-85.18000819209747
 30
0.0
 11
86.14589665863222
 21
-65.77878058571474
 31
0.0
  0
LINE
  5
14D
330
147
100
AcDbEntity
  8
レイヤー 1
 62
   251
420
  4934474
370
    20
100
AcDbLine
 10
84.44589665863153
 20
-66.77878058571446
 30
0.0
 11
86.14589665863126
 21
-66.77878058571446
 31
0.0
  0
LINE
  5
14E
330
147
100
AcDbEntity
  8
レイヤー 1
 62
   251
420
  4934474
370
     0
100
AcDbLine
 10
83.24589665863149
 20
-66.57878058571412
 30
0.0
 11
84.44589665863153
 21
-66.77878058571446
 31
0.0
  0
LINE
  5
14F
330
147
100
AcDbEntity
  8
レイヤー 1
 62
   251
420
  4934474
370
     0
100
AcDbLine
 10
83.24589665863149
 20
-66.9787805857151
 30
0.0
 11
84.44589665863153
 21
-66.77878058571446
 31
0.0
  0
LINE
  5
150
330
147
100
AcDbEntity
  8
レイヤー 1
 62
   251
420
  4934474
370
     0
100
AcDbLine
 10
84.44589665863153
 20
-66.77878058571446
 30
0.0
 11
83.24589665863149
 21
-66.77878058571446
 31
0.0
  0
LWPOLYLINE
  5
151
330
147
100
AcDbEntity
  8
レイヤー 1
 62
   251
420
  4934474
370
    20
100
AcDbPolyline
 90
        1
 70
     0
 43
0.0
 10
84.44589665863153
 20
-66.77878058571446
  0
LINE
  5
152
330
147
100
AcDbEntity
  8
レイヤー 1
 62
   251
420
  4934474
370
     0
100
AcDbLine
 10
87.34589665863131
 20
-66.9787805857151
 30
0.0
 11
86.14589665863126
 21
-66.77878058571446
 31
0.0
  0
LINE
  5
153
330
147
100
AcDbEntity
  8
レイヤー 1
 62
   251
420
  4934474
370
     0
100
AcDbLine
 10
87.34589665863131
 20
-66.57878058571412
 30
0.0
 11
86.14589665863126
 21
-66.77878058571446
 31
0.0
  0
LINE
  5
154
330
147
100
AcDbEntity
  8
レイヤー 1
 62
   251
420
  4934474
370
     0
100
AcDbLine
 10
86.14589665863126
 20
-66.77878058571446
 30
0.0
 11
87.34589665863131
 21
-66.77878058571446
 31
0.0
  0
LINE
  5
155
330
147
100
AcDbEntity
  8
レイヤー 1
 62
   251
420
  4934474
370
    20
100
AcDbLine
 10
86.14589665863126
 20
-66.77878058571446
 30
0.0
 11
104.5851646709903
 21
-66.77878058571446
 31
0.0
  0
MTEXT
  5
156
330
147
100
AcDbEntity
  8
レイヤー 1
100
AcDbMText
 10
88.32136389325711
 20
-65.15269841578647
 30
0.0
 40
0.2
 41
0.0
 46
0.0
 71
     7
 72
     1
  1
\C251;\c4868939;\FMS Gothic|b0|i0|c128;\H4.000000;\W1.155000;1.8
 73
     1
 44
1.0
  0
ENDBLK
  5
14A
330
147
100
AcDbEntity
  8
0
100
AcDbBlockEnd
  0
BLOCK
  5
159
330
157
100
AcDbEntity
  8
0
100
AcDbBlockBegin
  2
Block_14
 70
     0
 10
0.0
 20
0.0
 30
0.0
  3
Block_14
  1

  0
LINE
  5
15B
330
157
100
AcDbEntity
  8
レイヤー 1
 62
   251
420
  4934474
370
    20
100
AcDbLine
 10
86.99589665863145
 20
-92.08000819209772
 30
0.0
 11
104.5530877532233
 21
-92.08000819209772
 31
0.0
  0
LINE
  5
15C
330
157
100
AcDbEntity
  8
レイヤー 1
 62
   251
420
  4934474
370
    20
100
AcDbLine
 10
86.99589665863145
 20
-88.88000819209761
 30
0.0
 11
104.5530877532233
 21
-88.88000819209761
 31
0.0
  0
LINE
  5
15D
330
157
100
AcDbEntity
  8
レイヤー 1
 62
   251
420
  4934474
370
    20
100
AcDbLine
 10
103.5530877532232
 20
-92.08000819209772
 30
0.0
 11
103.5530877532232
 21
-88.88000819209761
 31
0.0
  0
LINE
  5
15E
330
157
100
AcDbEntity
  8
レイヤー 1
 62
   251
420
  4934474
370
     0
100
AcDbLine
 10
103.3197544198896
 20
-93.48000819209744
 30
0.0
 11
103.5530877532232
 21
-92.08000819209772
 31
0.0
  0
LINE
  5
15F
330
157
100
AcDbEntity
  8
レイヤー 1
 62
   251
420
  4934474
370
     0
100
AcDbLine
 10
103.7864210865572
 20
-93.48000819209744
 30
0.0
 11
103.5530877532232
 21
-92.08000819209772
 31
0.0
  0
LINE
  5
160
330
157
100
AcDbEntity
  8
レイヤー 1
 62
   251
420
  4934474
370
     0
100
AcDbLine
 10
103.5530877532232
 20
-92.08000819209772
 30
0.0
 11
103.5530877532232
 21
-93.48000819209744
 31
0.0
  0
LINE
  5
161
330
157
100
AcDbEntity
  8
レイヤー 1
 62
   251
420
  4934474
370
    20
100
AcDbLine
 10
103.5530877532232
 20
-92.08000819209772
 30
0.0
 11
103.5530877532232
 21
-110.3815683308707
 31
0.0
  0
LINE
  5
162
330
157
100
AcDbEntity
  8
レイヤー 1
 62
   251
420
  4934474
370
     0
100
AcDbLine
 10
103.7530877532239
 20
-87.68000819209756
 30
0.0
 11
103.5530877532232
 21
-88.88000819209761
 31
0.0
  0
LINE
  5
163
330
157
100
AcDbEntity
  8
レイヤー 1
 62
   251
420
  4934474
370
     0
100
AcDbLine
 10
103.3530877532229
 20
-87.68000819209756
 30
0.0
 11
103.5530877532232
 21
-88.88000819209761
 31
0.0
  0
LINE
  5
164
330
157
100
AcDbEntity
  8
レイヤー 1
 62
   251
420
  4934474
370
     0
100
AcDbLine
 10
103.5530877532232
 20
-88.88000819209761
 30
0.0
 11
103.5530877532232
 21
-87.68000819209756
 31
0.0
  0
LINE
  5
165
330
157
100
AcDbEntity
  8
レイヤー 1
 62
   251
420
  4934474
370
    20
100
AcDbLine
 10
103.5530877532232
 20
-88.88000819209761
 30
0.0
 11
103.5530877532232
 21
-85.13491084628567
 31
0.0
  0
MTEXT
  5
166
330
157
100
AcDbEntity
  8
レイヤー 1
100
AcDbMText
 10
101.9270041316905
 20
-110.639586018347
 30
0.0
 40
0.2
 41
0.0
 46
0.0
 71
     7
 72
     1
  1
\C251;\c4868939;\FMS Gothic|b0|i0|c128;\H4.000000;\W1.155000;3.2
 11
0.0000000000000001
 21
1.0
 31
0.0
 73
     1
 44
1.0
  0
ENDBLK
  5
15A
330
157
100
AcDbEntity
  8
0
100
AcDbBlockEnd
  0
BLOCK
  5
1C7
330
1C5
100
AcDbEntity
  8
0
100
AcDbBlockBegin
  2
Block_15
 70
     0
 10
0.0
 20
0.0
 30
0.0
  3
Block_15
  1

  0
LINE
  5
1C9
330
1C5
100
AcDbEntity
  8
レイヤー 1
 62
   251
420
  4934474
370
    20
100
AcDbLine
 10
75.34589665863153
 20
-82.18000819209768
 30
0.0
 11
70.94879801845649
 21
-82.18000819209768
 31
0.0
  0
LINE
  5
1CA
330
1C5
100
AcDbEntity
  8
レイヤー 1
 62
   251
420
  4934474
370
    20
100
AcDbLine
 10
75.34589665863153
 20
-79.48000819209759
 30
0.0
 11
70.94879801845649
 21
-79.48000819209759
 31
0.0
  0
LINE
  5
1CB
330
1C5
100
AcDbEntity
  8
レイヤー 1
 62
   251
420
  4934474
370
    20
100
AcDbLine
 10
71.94879801845651
 20
-82.18000819209768
 30
0.0
 11
71.94879801845651
 21
-79.48000819209759
 31
0.0
  0
LINE
  5
1CC
330
1C5
100
AcDbEntity
  8
レイヤー 1
 62
   251
420
  4934474
370
     0
100
AcDbLine
 10
71.78213135178953
 20
-83.18000819209773
 30
0.0
 11
71.94879801845651
 21
-82.18000819209768
 31
0.0
  0
LINE
  5
1CD
330
1C5
100
AcDbEntity
  8
レイヤー 1
 62
   251
420
  4934474
370
     0
100
AcDbLine
 10
72.11546468512351
 20
-83.18000819209773
 30
0.0
 11
71.94879801845651
 21
-82.18000819209768
 31
0.0
  0
LINE
  5
1CE
330
1C5
100
AcDbEntity
  8
レイヤー 1
 62
   251
420
  4934474
370
     0
100
AcDbLine
 10
71.94879801845651
 20
-82.18000819209768
 30
0.0
 11
71.94879801845651
 21
-83.18000819209773
 31
0.0
  0
LINE
  5
1CF
330
1C5
100
AcDbEntity
  8
レイヤー 1
 62
   251
420
  4934474
370
    20
100
AcDbLine
 10
71.94879801845651
 20
-82.18000819209768
 30
0.0
 11
71.94879801845651
 21
-104.5273246148955
 31
0.0
  0
LINE
  5
1D0
330
1C5
100
AcDbEntity
  8
レイヤー 1
 62
   251
420
  4934474
370
     0
100
AcDbLine
 10
72.11546468512351
 20
-78.48000819209755
 30
0.0
 11
71.94879801845651
 21
-79.48000819209759
 31
0.0
  0
LINE
  5
1D1
330
1C5
100
AcDbEntity
  8
レイヤー 1
 62
   251
420
  4934474
370
     0
100
AcDbLine
 10
71.78213135178953
 20
-78.48000819209755
 30
0.0
 11
71.94879801845651
 21
-79.48000819209759
 31
0.0
  0
LINE
  5
1D2
330
1C5
100
AcDbEntity
  8
レイヤー 1
 62
   251
420
  4934474
370
     0
100
AcDbLine
 10
71.94879801845651
 20
-79.48000819209759
 30
0.0
 11
71.94879801845651
 21
-78.48000819209755
 31
0.0
  0
LINE
  5
1D3
330
1C5
100
AcDbEntity
  8
レイヤー 1
 62
   251
420
  4934474
370
    20
100
AcDbLine
 10
71.94879801845651
 20
-79.48000819209759
 30
0.0
 11
71.94879801845651
 21
-73.4800081920977
 31
0.0
  0
MTEXT
  5
1D4
330
1C5
100
AcDbEntity
  8
レイヤー 1
100
AcDbMText
 10
70.28212261562174
 20
-104.5272976084168
 30
0.0
 40
0.2
 41
0.0
 46
0.0
 71
     7
 72
     1
  1
\C251;\c4868939;\FKozGoPr6N-Regular|b0|i0|c128;\H4.000000;\W0.750000;2.7
 11
0.0000000000000001
 21
1.0
 31
0.0
 73
     1
 44
1.0
  0
ENDBLK
  5
1C8
330
1C5
100
AcDbEntity
  8
0
100
AcDbBlockEnd
  0
BLOCK
  5
1D7
330
1D5
100
AcDbEntity
  8
0
100
AcDbBlockBegin
  2
Block_16
 70
     0
 10
0.0
 20
0.0
 30
0.0
  3
Block_16
  1

  0
LINE
  5
1D9
330
1D5
100
AcDbEntity
  8
レイヤー 1
 62
   251
420
  4934474
370
    20
100
AcDbLine
 10
76.14589665863253
 20
-175.4800081920978
 30
0.0
 11
76.14589665863253
 21
-182.8571636992506
 31
0.0
  0
LINE
  5
1DA
330
1D5
100
AcDbEntity
  8
レイヤー 1
 62
   251
420
  4934474
370
    20
100
AcDbLine
 10
77.64589665863129
 20
-160.8800081920979
 30
0.0
 11
77.64589665863129
 21
-182.8571636992506
 31
0.0
  0
LINE
  5
1DB
330
1D5
100
AcDbEntity
  8
レイヤー 1
 62
   251
420
  4934474
370
    20
100
AcDbLine
 10
76.14589665863253
 20
-181.8571636992506
 30
0.0
 11
77.64589665863225
 21
-181.8571636992506
 31
0.0
  0
LINE
  5
1DC
330
1D5
100
AcDbEntity
  8
レイヤー 1
 62
   251
420
  4934474
370
     0
100
AcDbLine
 10
75.14589665863248
 20
-181.6904970325835
 30
0.0
 11
76.14589665863253
 21
-181.8571636992506
 31
0.0
  0
LINE
  5
1DD
330
1D5
100
AcDbEntity
  8
レイヤー 1
 62
   251
420
  4934474
370
     0
100
AcDbLine
 10
75.14589665863248
 20
-182.0238303659176
 30
0.0
 11
76.14589665863253
 21
-181.8571636992506
 31
0.0
  0
LINE
  5
1DE
330
1D5
100
AcDbEntity
  8
レイヤー 1
 62
   251
420
  4934474
370
     0
100
AcDbLine
 10
76.14589665863253
 20
-181.8571636992506
 30
0.0
 11
75.14589665863248
 21
-181.8571636992506
 31
0.0
  0
LINE
  5
1DF
330
1D5
100
AcDbEntity
  8
レイヤー 1
 62
   251
420
  4934474
370
    20
100
AcDbLine
 10
76.14589665863253
 20
-181.8571636992506
 30
0.0
 11
53.03105776913934
 21
-181.8571636992506
 31
0.0
  0
LINE
  5
1E0
330
1D5
100
AcDbEntity
  8
レイヤー 1
 62
   251
420
  4934474
370
     0
100
AcDbLine
 10
78.64589665863228
 20
-182.0238303659176
 30
0.0
 11
77.64589665863225
 21
-181.8571636992506
 31
0.0
  0
LINE
  5
1E1
330
1D5
100
AcDbEntity
  8
レイヤー 1
 62
   251
420
  4934474
370
     0
100
AcDbLine
 10
78.64589665863228
 20
-181.6904970325835
 30
0.0
 11
77.64589665863225
 21
-181.8571636992506
 31
0.0
  0
LINE
  5
1E2
330
1D5
100
AcDbEntity
  8
レイヤー 1
 62
   251
420
  4934474
370
     0
100
AcDbLine
 10
77.64589665863225
 20
-181.8571636992506
 30
0.0
 11
78.64589665863228
 21
-181.8571636992506
 31
0.0
  0
LINE
  5
1E3
330
1D5
100
AcDbEntity
  8
レイヤー 1
 62
   251
420
  4934474
370
    20
100
AcDbLine
 10
77.64589665863225
 20
-181.8571636992506
 30
0.0
 11
83.64589665863247
 21
-181.8571636992506
 31
0.0
  0
MTEXT
  5
1E4
330
1D5
100
AcDbEntity
  8
レイヤー 1
100
AcDbMText
 10
53.03105997243289
 20
-180.1904871172245
 30
0.0
 40
0.2
 41
0.0
 46
0.0
 71
     7
 72
     1
  1
\C251;\c4868939;\FKozGoPr6N-Regular|b0|i0|c128;\H4.000000;\W0.750000;1.5
 73
     1
 44
1.0
  0
ENDBLK
  5
1D8
330
1D5
100
AcDbEntity
  8
0
100
AcDbBlockEnd
  0
BLOCK
  5
1E7
330
1E5
100
AcDbEntity
  8
0
100
AcDbBlockBegin
  2
Block_17
 70
     0
 10
0.0
 20
0.0
 30
0.0
  3
Block_17
  1

  0
SPLINE
  5
1E9
330
1E5
100
AcDbEntity
  8
レイヤー 1
 62
   137
420
  5146495
370
    20
100
AcDbSpline
210
0.0
220
0.0
230
1.0
 70
     8
 71
     3
 72
     8
 73
     4
 74
     0
 42
0.0000000001
 43
0.0000000001
 40
0.0
 40
0.0
 40
0.0
 40
0.0
 40
1.0
 40
1.0
 40
1.0
 40
1.0
 10
25.82439096744367
 20
-403.3213986939142
 30
0.0
 10
25.79350380119024
 20
-393.3894289641263
 30
0.0
 10
25.77589055207423
 20
-383.4574213358883
 30
0.0
 10
25.7667194437226
 20
-373.5254089445776
 30
0.0
  0
LINE
  5
1EA
330
1E5
100
AcDbEntity
  8
レイヤー 1
 62
   137
420
  5146495
370
    20
100
AcDbLine
 10
287.8243909674432
 20
-403.3213986939142
 30
0.0
 11
25.82439096744367
 21
-403.3213986939142
 31
0.0
  0
SPLINE
  5
1EB
330
1E5
100
AcDbEntity
  8
レイヤー 1
 62
   137
420
  5146495
370
    20
100
AcDbSpline
210
0.0
220
0.0
230
1.0
 70
     8
 71
     3
 72
     8
 73
     4
 74
     0
 42
0.0000000001
 43
0.0000000001
 40
0.0
 40
0.0
 40
0.0
 40
0.0
 40
1.0
 40
1.0
 40
1.0
 40
1.0
 10
287.8580377481571
 20
-364.6860823904343
 30
0.0
 10
287.8666665947
 20
-377.4722221278542
 30
0.0
 10
287.8666665947
 20
-390.5249999023688
 30
0.0
 10
287.8243909674432
 20
-403.3213986939142
 30
0.0
  0
LINE
  5
1EC
330
1E5
100
AcDbEntity
  8
レイヤー 1
 62
   137
420
  5146495
370
    20
100
AcDbLine
 10
130.8243909674435
 20
-397.3213986939141
 30
0.0
 11
25.82439096744367
 21
-397.3213986939141
 31
0.0
  0
LINE
  5
1ED
330
1E5
100
AcDbEntity
  8
レイヤー 1
 62
   137
420
  5146495
370
    20
100
AcDbLine
 10
130.8243909674435
 20
-391.3213986939139
 30
0.0
 11
25.82439096744367
 21
-391.3213986939139
 31
0.0
  0
LINE
  5
1EE
330
1E5
100
AcDbEntity
  8
レイヤー 1
 62
   137
420
  5146495
370
    20
100
AcDbLine
 10
130.8243909674435
 20
-385.3213986939143
 30
0.0
 11
25.82439096744367
 21
-385.3213986939143
 31
0.0
  0
LINE
  5
1EF
330
1E5
100
AcDbEntity
  8
レイヤー 1
 62
   137
420
  5146495
370
    20
100
AcDbLine
 10
130.8243909674435
 20
-379.3213986939141
 30
0.0
 11
25.82439096744367
 21
-379.3213986939141
 31
0.0
  0
LINE
  5
1F0
330
1E5
100
AcDbEntity
  8
レイヤー 1
 62
   137
420
  5146495
370
    20
100
AcDbLine
 10
130.8243909674435
 20
-373.3213986939138
 30
0.0
 11
25.82439096744367
 21
-373.3213986939138
 31
0.0
  0
LINE
  5
1F1
330
1E5
100
AcDbEntity
  8
レイヤー 1
 62
   137
420
  5146495
370
    20
100
AcDbLine
 10
28.82439096744345
 20
-401.7855006939142
 30
0.0
 11
30.82439096744352
 21
-398.3213986939141
 31
0.0
  0
LINE
  5
1F2
330
1E5
100
AcDbEntity
  8
レイヤー 1
 62
   137
420
  5146495
370
    20
100
AcDbLine
 10
32.82439096744359
 20
-401.7855006939142
 30
0.0
 11
30.82439096744352
 21
-398.3213986939141
 31
0.0
  0
LINE
  5
1F3
330
1E5
100
AcDbEntity
  8
レイヤー 1
 62
   137
420
  5146495
370
    20
100
AcDbLine
 10
35.82439096744338
 20
-403.3213986939142
 30
0.0
 11
35.82439096744338
 21
-373.3213986939138
 31
0.0
  0
LINE
  5
1F4
330
1E5
100
AcDbEntity
  8
レイヤー 1
 62
   137
420
  5146495
370
    20
100
AcDbLine
 10
50.82439096744359
 20
-403.3213986939142
 30
0.0
 11
50.82439096744359
 21
-373.3213986939138
 31
0.0
  0
LINE
  5
1F5
330
1E5
100
AcDbEntity
  8
レイヤー 1
 62
   137
420
  5146495
370
    20
100
AcDbLine
 10
80.82439096744369
 20
-403.3213986939142
 30
0.0
 11
80.82439096744369
 21
-373.3213986939138
 31
0.0
  0
LINE
  5
1F6
330
1E5
100
AcDbEntity
  8
レイヤー 1
 62
   137
420
  5146495
370
    20
100
AcDbLine
 10
28.82439096744345
 20
-401.7855006939142
 30
0.0
 11
32.82439096744359
 21
-401.7855006939142
 31
0.0
  0
LINE
  5
1F7
330
1E5
100
AcDbEntity
  8
レイヤー 1
 62
   137
420
  5146495
370
    20
100
AcDbLine
 10
40.32439096744353
 20
-400.3213986939142
 30
0.0
 11
41.32439096744358
 21
-400.3213986939142
 31
0.0
  0
LINE
  5
1F8
330
1E5
100
AcDbEntity
  8
レイヤー 1
 62
   137
420
  5146495
370
    20
100
AcDbLine
 10
45.32439096744339
 20
-400.3213986939142
 30
0.0
 11
46.32439096744342
 21
-400.3213986939142
 31
0.0
  0
LINE
  5
1F9
330
1E5
100
AcDbEntity
  8
レイヤー 1
 62
   137
420
  5146495
370
    20
100
AcDbLine
 10
32.82439096744359
 20
-395.7855006939141
 30
0.0
 11
30.82439096744352
 21
-392.3213986939139
 31
0.0
  0
LINE
  5
1FA
330
1E5
100
AcDbEntity
  8
レイヤー 1
 62
   137
420
  5146495
370
    20
100
AcDbLine
 10
28.82439096744345
 20
-395.7855006939141
 30
0.0
 11
32.82439096744359
 21
-395.7855006939141
 31
0.0
  0
LINE
  5
1FB
330
1E5
100
AcDbEntity
  8
レイヤー 1
 62
   137
420
  5146495
370
    20
100
AcDbLine
 10
28.82439096744345
 20
-395.7855006939141
 30
0.0
 11
30.82439096744352
 21
-392.3213986939139
 31
0.0
  0
LINE
  5
1FC
330
1E5
100
AcDbEntity
  8
レイヤー 1
 62
   137
420
  5146495
370
    20
100
AcDbLine
 10
32.82439096744359
 20
-389.7855006939139
 30
0.0
 11
30.82439096744352
 21
-386.3213986939143
 31
0.0
  0
LINE
  5
1FD
330
1E5
100
AcDbEntity
  8
レイヤー 1
 62
   137
420
  5146495
370
    20
100
AcDbLine
 10
28.82439096744345
 20
-389.7855006939139
 30
0.0
 11
32.82439096744359
 21
-389.7855006939139
 31
0.0
  0
LINE
  5
1FE
330
1E5
100
AcDbEntity
  8
レイヤー 1
 62
   137
420
  5146495
370
    20
100
AcDbLine
 10
28.82439096744345
 20
-389.7855006939139
 30
0.0
 11
30.82439096744352
 21
-386.3213986939143
 31
0.0
  0
LINE
  5
1FF
330
1E5
100
AcDbEntity
  8
レイヤー 1
 62
   137
420
  5146495
370
    20
100
AcDbLine
 10
28.82439096744345
 20
-377.7855006939141
 30
0.0
 11
30.82439096744352
 21
-374.3213986939139
 31
0.0
  0
LINE
  5
200
330
1E5
100
AcDbEntity
  8
レイヤー 1
 62
   137
420
  5146495
370
    20
100
AcDbLine
 10
32.82439096744359
 20
-377.7855006939141
 30
0.0
 11
30.82439096744352
 21
-374.3213986939139
 31
0.0
  0
LINE
  5
201
330
1E5
100
AcDbEntity
  8
レイヤー 1
 62
   137
420
  5146495
370
    20
100
AcDbLine
 10
28.82439096744345
 20
-377.7855006939141
 30
0.0
 11
32.82439096744359
 21
-377.7855006939141
 31
0.0
  0
LINE
  5
202
330
1E5
100
AcDbEntity
  8
レイヤー 1
 62
   137
420
  5146495
370
    20
100
AcDbLine
 10
32.82439096744359
 20
-383.7855006939143
 30
0.0
 11
30.82439096744352
 21
-380.3213986939141
 31
0.0
  0
LINE
  5
203
330
1E5
100
AcDbEntity
  8
レイヤー 1
 62
   137
420
  5146495
370
    20
100
AcDbLine
 10
28.82439096744345
 20
-383.7855006939143
 30
0.0
 11
32.82439096744359
 21
-383.7855006939143
 31
0.0
  0
LINE
  5
204
330
1E5
100
AcDbEntity
  8
レイヤー 1
 62
   137
420
  5146495
370
    20
100
AcDbLine
 10
28.82439096744345
 20
-383.7855006939143
 30
0.0
 11
30.82439096744352
 21
-380.3213986939141
 31
0.0
  0
LINE
  5
205
330
1E5
100
AcDbEntity
  8
レイヤー 1
 62
   137
420
  5146495
370
    20
100
AcDbLine
 10
40.32439096744353
 20
-394.321398693914
 30
0.0
 11
41.32439096744358
 21
-394.321398693914
 31
0.0
  0
LINE
  5
206
330
1E5
100
AcDbEntity
  8
レイヤー 1
 62
   137
420
  5146495
370
    20
100
AcDbLine
 10
45.32439096744339
 20
-394.321398693914
 30
0.0
 11
46.32439096744342
 21
-394.321398693914
 31
0.0
  0
LINE
  5
207
330
1E5
100
AcDbEntity
  8
レイヤー 1
 62
   137
420
  5146495
370
    20
100
AcDbLine
 10
40.32439096744353
 20
-388.3213986939144
 30
0.0
 11
41.32439096744358
 21
-388.3213986939144
 31
0.0
  0
LINE
  5
208
330
1E5
100
AcDbEntity
  8
レイヤー 1
 62
   137
420
  5146495
370
    20
100
AcDbLine
 10
45.32439096744339
 20
-388.3213986939144
 30
0.0
 11
46.32439096744342
 21
-388.3213986939144
 31
0.0
  0
LINE
  5
209
330
1E5
100
AcDbEntity
  8
レイヤー 1
 62
   137
420
  5146495
370
    20
100
AcDbLine
 10
40.32439096744353
 20
-382.3213986939142
 30
0.0
 11
41.32439096744358
 21
-382.3213986939142
 31
0.0
  0
LINE
  5
20A
330
1E5
100
AcDbEntity
  8
レイヤー 1
 62
   137
420
  5146495
370
    20
100
AcDbLine
 10
40.32439096744353
 20
-376.321398693914
 30
0.0
 11
41.32439096744358
 21
-376.321398693914
 31
0.0
  0
LINE
  5
20B
330
1E5
100
AcDbEntity
  8
レイヤー 1
 62
   137
420
  5146495
370
    20
100
AcDbLine
 10
45.32439096744339
 20
-382.3213986939142
 30
0.0
 11
46.32439096744342
 21
-382.3213986939142
 31
0.0
  0
LINE
  5
20C
330
1E5
100
AcDbEntity
  8
レイヤー 1
 62
   137
420
  5146495
370
    20
100
AcDbLine
 10
45.32439096744339
 20
-376.321398693914
 30
0.0
 11
46.32439096744342
 21
-376.321398693914
 31
0.0
  0
LINE
  5
20D
330
1E5
100
AcDbEntity
  8
レイヤー 1
 62
   137
420
  5146495
370
    20
100
AcDbLine
 10
120.8243909674435
 20
-403.3213986939142
 30
0.0
 11
120.8243909674435
 21
-373.3213986939138
 31
0.0
  0
LINE
  5
20E
330
1E5
100
AcDbEntity
  8
レイヤー 1
 62
   137
420
  5146495
370
    20
100
AcDbLine
 10
130.8243909674435
 20
-373.3213986939138
 30
0.0
 11
130.8243909674435
 21
-403.3213986939142
 31
0.0
  0
LINE
  5
20F
330
1E5
100
AcDbEntity
  8
レイヤー 1
 62
   137
420
  5146495
370
    20
100
AcDbLine
 10
156.8243909674431
 20
-403.3213986939142
 30
0.0
 11
156.8243909674431
 21
-413.3213986939139
 31
0.0
  0
LINE
  5
210
330
1E5
100
AcDbEntity
  8
レイヤー 1
 62
   137
420
  5146495
370
    20
100
AcDbLine
 10
69.49105796744341
 20
-403.3213986939142
 30
0.0
 11
69.49105796744341
 21
-408.3213986939145
 31
0.0
  0
LINE
  5
211
330
1E5
100
AcDbEntity
  8
レイヤー 1
 62
   137
420
  5146495
370
    20
100
AcDbLine
 10
113.1577239674434
 20
-403.3213986939142
 30
0.0
 11
113.1577239674434
 21
-408.3213986939145
 31
0.0
  0
LINE
  5
212
330
1E5
100
AcDbEntity
  8
レイヤー 1
 62
   137
420
  5146495
370
    20
100
AcDbLine
 10
156.8243909674431
 20
-403.3213986939142
 30
0.0
 11
156.8243909674431
 21
-408.3213986939145
 31
0.0
  0
LINE
  5
213
330
1E5
100
AcDbEntity
  8
レイヤー 1
 62
   137
420
  5146495
370
    20
100
AcDbLine
 10
200.4910579674438
 20
-403.3213986939142
 30
0.0
 11
200.4910579674438
 21
-408.3213986939145
 31
0.0
  0
LINE
  5
214
330
1E5
100
AcDbEntity
  8
レイヤー 1
 62
   137
420
  5146495
370
    20
100
AcDbLine
 10
244.1577239674439
 20
-403.3213986939142
 30
0.0
 11
244.1577239674439
 21
-408.3213986939145
 31
0.0
  0
MTEXT
  5
215
330
1E5
100
AcDbEntity
  8
レイヤー 1
100
AcDbMText
 10
22.27058829704466
 20
-332.0713919339228
 30
0.0
 40
0.2
 41
0.0
 46
0.0
 71
     7
 72
     1
  1
\C137;\c8357710;\FMS Gothic|b0|i0|c128;\H3.000000;\W1.540000;C
 73
     1
 44
1.0
  0
MTEXT
  5
216
330
1E5
100
AcDbEntity
  8
レイヤー 1
100
AcDbMText
 10
22.27058829704466
 20
-379.5713995514424
 30
0.0
 40
0.2
 41
0.0
 46
0.0
 71
     7
 72
     1
  1
\C137;\c8357710;\FMS Gothic|b0|i0|c128;\H3.000000;\W1.540000;D
 73
     1
 44
1.0
  0
MTEXT
  5
217
330
1E5
100
AcDbEntity
  8
レイヤー 1
100
AcDbMText
 10
46.15680795151418
 20
-407.0910591379326
 30
0.0
 40
0.2
 41
0.0
 46
0.0
 71
     7
 72
     1
  1
\C137;\c8357710;\FMS Gothic|b0|i0|c128;\H3.000000;\W1.540000;1
 73
     1
 44
1.0
  0
MTEXT
  5
218
330
1E5
100
AcDbEntity
  8
レイヤー 1
100
AcDbMText
 10
89.823479354443
 20
-407.0910591379326
 30
0.0
 40
0.2
 41
0.0
 46
0.0
 71
     7
 72
     1
  1
\C137;\c8357710;\FMS Gothic|b0|i0|c128;\H3.000000;\W1.540000;2
 73
     1
 44
1.0
  0
MTEXT
  5
219
330
1E5
100
AcDbEntity
  8
レイヤー 1
100
AcDbMText
 10
133.4901507573718
 20
-407.0910591379326
 30
0.0
 40
0.2
 41
0.0
 46
0.0
 71
     7
 72
     1
  1
\C137;\c8357710;\FMS Gothic|b0|i0|c128;\H3.000000;\W1.540000;3
 73
     1
 44
1.0
  0
MTEXT
  5
21A
330
1E5
100
AcDbEntity
  8
レイヤー 1
100
AcDbMText
 10
177.1568006284538
 20
-407.0910591379326
 30
0.0
 40
0.2
 41
0.0
 46
0.0
 71
     7
 72
     1
  1
\C137;\c8357710;\FMS Gothic|b0|i0|c128;\H3.000000;\W1.540000;4
 73
     1
 44
1.0
  0
MTEXT
  5
21B
330
1E5
100
AcDbEntity
  8
レイヤー 1
100
AcDbMText
 10
220.8234720313827
 20
-407.0910591379326
 30
0.0
 40
0.2
 41
0.0
 46
0.0
 71
     7
 72
     1
  1
\C137;\c8357710;\FMS Gothic|b0|i0|c128;\H3.000000;\W1.540000;5
 73
     1
 44
1.0
  0
MTEXT
  5
21C
330
1E5
100
AcDbEntity
  8
レイヤー 1
100
AcDbMText
 10
264.4901434343115
 20
-407.0910591379326
 30
0.0
 40
0.2
 41
0.0
 46
0.0
 71
     7
 72
     1
  1
\C137;\c8357710;\FMS Gothic|b0|i0|c128;\H3.000000;\W1.540000;6
 73
     1
 44
1.0
  0
MTEXT
  5
21D
330
1E5
100
AcDbEntity
  8
レイヤー 1
100
AcDbMText
 10
288.5622529050187
 20
-379.5713995514424
 30
0.0
 40
0.2
 41
0.0
 46
0.0
 71
     7
 72
     1
  1
\C137;\c8357710;\FMS Gothic|b0|i0|c128;\H3.000000;\W1.540000;D
 73
     1
 44
1.0
  0
SPLINE
  5
21E
330
1E5
100
AcDbEntity
  8
レイヤー 1
 62
   137
420
  5146495
370
    20
100
AcDbSpline
210
0.0
220
0.0
230
1.0
 70
     8
 71
     3
 72
     8
 73
     4
 74
     0
 42
0.0000000001
 43
0.0000000001
 40
0.0
 40
0.0
 40
0.0
 40
0.0
 40
1.0
 40
1.0
 40
1.0
 40
1.0
 10
158.122262967444
 20
-364.3213986939142
 30
0.0
 10
201.0833332830625
 20
-364.4194443533396
 30
0.0
 10
244.1222221611917
 20
-364.4194443533396
 30
0.0
 10
287.2379866542391
 20
-364.3213986939142
 30
0.0
  0
LINE
  5
21F
330
1E5
100
AcDbEntity
  8
レイヤー 1
 62
   137
420
  5146495
370
    20
100
AcDbLine
 10
158.122262967444
 20
-400.3213986939142
 30
0.0
 11
287.8243909674432
 21
-400.3213986939142
 31
0.0
  0
LINE
  5
220
330
1E5
100
AcDbEntity
  8
レイヤー 1
 62
   137
420
  5146495
370
    20
100
AcDbLine
 10
158.122262967444
 20
-376.321398693914
 30
0.0
 11
287.8243909674432
 21
-376.321398693914
 31
0.0
  0
LINE
  5
221
330
1E5
100
AcDbEntity
  8
レイヤー 1
 62
   137
420
  5146495
370
    20
100
AcDbLine
 10
195.952050967444
 20
-391.3213986939139
 30
0.0
 11
287.8243909674432
 21
-391.3213986939139
 31
0.0
  0
LINE
  5
222
330
1E5
100
AcDbEntity
  8
レイヤー 1
 62
   137
420
  5146495
370
    20
100
AcDbLine
 10
158.122262967444
 20
-403.3213986939142
 30
0.0
 11
287.8243909674432
 21
-403.3213986939142
 31
0.0
  0
SPLINE
  5
223
330
1E5
100
AcDbEntity
  8
レイヤー 1
 62
   137
420
  5146495
370
    20
100
AcDbSpline
210
0.0
220
0.0
230
1.0
 70
     8
 71
     3
 72
     8
 73
     4
 74
     0
 42
0.0000000001
 43
0.0000000001
 40
0.0
 40
0.0
 40
0.0
 40
0.0
 40
1.0
 40
1.0
 40
1.0
 40
1.0
 10
287.2379866542391
 20
-364.3213986939142
 30
0.0
 10
244.1222221611917
 20
-364.4194443533396
 30
0.0
 10
201.0833332830625
 20
-364.4194443533396
 30
0.0
 10
158.122262967444
 20
-364.3213986939142
 30
0.0
  0
LINE
  5
224
330
1E5
100
AcDbEntity
  8
レイヤー 1
 62
   137
420
  5146495
370
    20
100
AcDbLine
 10
181.5407029674432
 20
-376.321398693914
 30
0.0
 11
181.5407029674432
 21
-403.3213986939142
 31
0.0
  0
LINE
  5
225
330
1E5
100
AcDbEntity
  8
レイヤー 1
 62
   137
420
  5146495
370
    20
100
AcDbLine
 10
163.5265189674438
 20
-376.321398693914
 30
0.0
 11
163.5265189674438
 21
-403.3213986939142
 31
0.0
  0
LINE
  5
226
330
1E5
100
AcDbEntity
  8
レイヤー 1
 62
   137
420
  5146495
370
    20
100
AcDbLine
 10
190.5477949674429
 20
-376.321398693914
 30
0.0
 11
190.5477949674429
 21
-403.3213986939142
 31
0.0
  0
LINE
  5
227
330
1E5
100
AcDbEntity
  8
レイヤー 1
 62
   137
420
  5146495
370
    20
100
AcDbLine
 10
195.952050967444
 20
-388.3213986939144
 30
0.0
 11
195.952050967444
 21
-403.3213986939142
 31
0.0
  0
LINE
  5
228
330
1E5
100
AcDbEntity
  8
レイヤー 1
 62
   137
420
  5146495
370
    20
100
AcDbLine
 10
158.122262967444
 20
-364.3213986939142
 30
0.0
 11
158.122262967444
 21
-403.3213986939142
 31
0.0
  0
LINE
  5
229
330
1E5
100
AcDbEntity
  8
レイヤー 1
 62
   137
420
  5146495
370
    20
100
AcDbLine
 10
226.5761639674436
 20
-364.3213986939142
 30
0.0
 11
226.5761639674436
 21
-403.3213986939142
 31
0.0
  0
LINE
  5
22A
330
1E5
100
AcDbEntity
  8
レイヤー 1
 62
   137
420
  5146495
370
    20
100
AcDbLine
 10
206.5903479674441
 20
-391.3213986939139
 30
0.0
 11
206.5903479674441
 21
-403.3213986939142
 31
0.0
  0
LINE
  5
22B
330
1E5
100
AcDbEntity
  8
レイヤー 1
 62
   137
420
  5146495
370
    20
100
AcDbLine
 10
217.2286459674436
 20
-391.3213986939139
 30
0.0
 11
217.2286459674436
 21
-403.3213986939142
 31
0.0
  0
LINE
  5
22C
330
1E5
100
AcDbEntity
  8
レイヤー 1
 62
   137
420
  5146495
370
    20
100
AcDbLine
 10
158.122262967444
 20
-397.3213986939141
 30
0.0
 11
195.952050967444
 21
-397.3213986939141
 31
0.0
  0
LINE
  5
22D
330
1E5
100
AcDbEntity
  8
レイヤー 1
 62
   137
420
  5146495
370
    20
100
AcDbLine
 10
158.122262967444
 20
-403.3213986939142
 30
0.0
 11
158.122262967444
 21
-400.3213986939142
 31
0.0
  0
MTEXT
  5
22E
330
1E5
100
AcDbEntity
  8
レイヤー 1
100
AcDbMText
 10
197.8077580275337
 20
-402.8381102932384
 30
0.0
 40
0.2
 41
0.0
 46
0.0
 71
     7
 72
     1
  1
\C137;\c8357710;\FMS Gothic|b0|i0|c128;\H1.791674;\W1.540000;製図
 73
     1
 44
1.0
  0
MTEXT
  5
22F
330
1E5
100
AcDbEntity
  8
レイヤー 1
100
AcDbMText
 10
208.446040631211
 20
-402.8381102932384
 30
0.0
 40
0.2
 41
0.0
 46
0.0
 71
     7
 72
     1
  1
\C137;\c8357710;\FMS Gothic|b0|i0|c128;\H1.791674;\W1.540000;設計
 73
     1
 44
1.0
  0
MTEXT
  5
230
330
1E5
100
AcDbEntity
  8
レイヤー 1
100
AcDbMText
 10
218.3947012461283
 20
-402.7691976176101
 30
0.0
 40
0.2
 41
0.0
 46
0.0
 71
     7
 72
     1
  1
\C137;\c8357710;\FMS Gothic|b0|i0|c128;\H1.791674;\W1.540000;照査
 73
     1
 44
1.0
  0
LINE
  5
231
330
1E5
100
AcDbEntity
  8
レイヤー 1
 62
   137
420
  5146495
370
    20
100
AcDbLine
 10
158.122262967444
 20
-388.3213986939144
 30
0.0
 11
195.952050967444
 21
-388.3213986939144
 31
0.0
  0
LINE
  5
232
330
1E5
100
AcDbEntity
  8
レイヤー 1
 62
   137
420
  5146495
370
    20
100
AcDbLine
 10
158.122262967444
 20
-391.3213986939139
 30
0.0
 11
195.952050967444
 21
-391.3213986939139
 31
0.0
  0
LINE
  5
233
330
1E5
100
AcDbEntity
  8
レイヤー 1
 62
   137
420
  5146495
370
    20
100
AcDbLine
 10
158.122262967444
 20
-394.321398693914
 30
0.0
 11
195.952050967444
 21
-394.321398693914
 31
0.0
  0
LINE
  5
234
330
1E5
100
AcDbEntity
  8
レイヤー 1
 62
   137
420
  5146495
370
    20
100
AcDbLine
 10
158.122262967444
 20
-379.3213986939141
 30
0.0
 11
213.9662349674433
 21
-379.3213986939141
 31
0.0
  0
LINE
  5
235
330
1E5
100
AcDbEntity
  8
レイヤー 1
 62
   137
420
  5146495
370
    20
100
AcDbLine
 10
158.122262967444
 20
-382.3213986939142
 30
0.0
 11
213.9662349674433
 21
-382.3213986939142
 31
0.0
  0
LINE
  5
236
330
1E5
100
AcDbEntity
  8
レイヤー 1
 62
   137
420
  5146495
370
    20
100
AcDbLine
 10
158.122262967444
 20
-385.3213986939143
 30
0.0
 11
213.9662349674433
 21
-385.3213986939143
 31
0.0
  0
LINE
  5
237
330
1E5
100
AcDbEntity
  8
レイヤー 1
 62
   137
420
  5146495
370
    20
100
AcDbLine
 10
195.952050967444
 20
-376.321398693914
 30
0.0
 11
195.952050967444
 21
-388.3213986939144
 31
0.0
  0
LINE
  5
238
330
1E5
100
AcDbEntity
  8
レイヤー 1
 62
   137
420
  5146495
370
    20
100
AcDbLine
 10
203.1577239674431
 20
-376.321398693914
 30
0.0
 11
203.1577239674431
 21
-385.3213986939143
 31
0.0
  0
LINE
  5
239
330
1E5
100
AcDbEntity
  8
レイヤー 1
 62
   137
420
  5146495
370
    20
100
AcDbLine
 10
213.9662349674433
 20
-364.3213986939142
 30
0.0
 11
213.9662349674433
 21
-391.3213986939139
 31
0.0
  0
LINE
  5
23A
330
1E5
100
AcDbEntity
  8
レイヤー 1
 62
   137
420
  5146495
370
    20
100
AcDbLine
 10
280.6187169674436
 20
-391.3213986939139
 30
0.0
 11
280.6187169674436
 21
-403.3213986939142
 31
0.0
  0
SPLINE
  5
23B
330
1E5
100
AcDbEntity
  8
レイヤー 1
 62
   137
420
  5146495
370
    20
100
AcDbSpline
210
0.0
220
0.0
230
1.0
 70
     8
 71
     3
 72
     8
 73
     4
 74
     0
 42
0.0000000001
 43
0.0000000001
 40
0.0
 40
0.0
 40
0.0
 40
0.0
 40
1.0
 40
1.0
 40
1.0
 40
1.0
 10
287.8243909674432
 20
-364.5879640388687
 30
0.0
 10
287.8666665947
 20
-377.4722221278542
 30
0.0
 10
287.8666665947
 20
-390.1722221246792
 30
0.0
 10
287.8243909674432
 20
-403.3213986939142
 30
0.0
  0
SPLINE
  5
23C
330
1E5
100
AcDbEntity
  8
レイヤー 1
 62
   137
420
  5146495
370
    20
100
AcDbSpline
210
0.0
220
0.0
230
1.0
 70
     8
 71
     3
 72
     8
 73
     4
 74
     0
 42
0.0000000001
 43
0.0000000001
 40
0.0
 40
0.0
 40
0.0
 40
0.0
 40
1.0
 40
1.0
 40
1.0
 40
1.0
 10
287.8243909674432
 20
-403.3213986939142
 30
0.0
 10
287.8666665947
 20
-390.1722221246792
 30
0.0
 10
287.8666665947
 20
-377.4722221278542
 30
0.0
 10
287.8243909674432
 20
-364.5879640388687
 30
0.0
  0
LINE
  5
23D
330
1E5
100
AcDbEntity
  8
レイヤー 1
 62
   137
420
  5146495
370
    20
100
AcDbLine
 10
280.6187169674436
 20
-397.3213986939141
 30
0.0
 11
287.8243909674432
 21
-397.3213986939141
 31
0.0
  0
MTEXT
  5
23E
330
1E5
100
AcDbEntity
  8
レイヤー 1
100
AcDbMText
 10
22.27246425919561
 20
-246.3668202949893
 30
0.0
 40
0.2
 41
0.0
 46
0.0
 71
     7
 72
     1
  1
\C137;\c8357710;\FMS Gothic|b0|i0|c128;\H3.000000;\W1.540000;A
 73
     1
 44
1.0
  0
MTEXT
  5
23F
330
1E5
100
AcDbEntity
  8
レイヤー 1
100
AcDbMText
 10
22.32971474831026
 20
-294.4368189605433
 30
0.0
 40
0.2
 41
0.0
 46
0.0
 71
     7
 72
     1
  1
\C137;\c8357710;\FMS Gothic|b0|i0|c128;\H3.000000;\W1.540000;B
 73
     1
 44
1.0
  0
MTEXT
  5
240
330
1E5
100
AcDbEntity
  8
レイヤー 1
100
AcDbMText
 10
227.7403409600463
 20
-369.3879449132818
 30
0.0
 40
0.2
 41
0.0
 46
0.0
 71
     7
 72
     1
  1
\C251;\c4868939;\FMS Gothic|b0|i0|c128;\H2.747433;\W0.770000;マジェスティックマウンティングディスク
 73
     1
 44
1.0
  0
MTEXT
  5
241
330
1E5
100
AcDbEntity
  8
レイヤー 1
100
AcDbMText
 10
181.2779099752968
 20
-373.0381097072911
 30
0.0
 40
0.2
 41
0.0
 46
0.0
 71
     7
 72
     1
  1
\C251;\c4868939;\FMS Gothic|b0|i0|c128;\H4.000000;\W0.770000;SUS304
 73
     1
 44
1.0
  0
LINE
  5
242
330
1E5
100
AcDbEntity
  8
レイヤー 1
 62
   137
420
  5146495
370
    20
100
AcDbLine
 10
169.2217420110106
 20
-376.321398693914
 30
0.0
 11
169.2217420110106
 21
-364.3213986939142
 31
0.0
  0
MTEXT
  5
243
330
1E5
100
AcDbEntity
  8
レイヤー 1
100
AcDbMText
 10
159.5364398981313
 20
-372.8519561259304
 30
0.0
 40
0.2
 41
0.0
 46
0.0
 71
     7
 72
     1
  1
\C251;\c4868939;\FMS Gothic|b0|i0|c128;\H4.000000;\W0.770000;材質
 73
     1
 44
1.0
  0
MTEXT
  5
244
330
1E5
100
AcDbEntity
  8
レイヤー 1
100
AcDbMText
 10
216.3608245308707
 20
-372.528203277704
 30
0.0
 40
0.2
 41
0.0
 46
0.0
 71
     7
 72
     1
  1
\C251;\c4868939;\FMS Gothic|b0|i0|c128;\H4.000000;\W0.770000;品名
 73
     1
 44
1.0
  0
MTEXT
  5
245
330
1E5
100
AcDbEntity
  8
レイヤー 1
100
AcDbMText
 10
216.3608245308707
 20
-386.240113945934
 30
0.0
 40
0.2
 41
0.0
 46
0.0
 71
     7
 72
     1
  1
\C251;\c4868939;\FMS Gothic|b0|i0|c128;\H4.000000;\W0.770000;品番
 73
     1
 44
1.0
  0
LINE
  5
246
330
1E5
100
AcDbEntity
  8
レイヤー 1
 62
   137
420
  5146495
370
    20
100
AcDbLine
 10
206.5903479674441
 20
-385.3213986939143
 30
0.0
 11
206.5903479674441
 21
-391.3213986939139
 31
0.0
  0
LINE
  5
247
330
1E5
100
AcDbEntity
  8
レイヤー 1
  6
AI-Linetype-7
 62
    75
420
  6921064
370
    20
100
AcDbLine
 10
104.0226665360556
 20
-292.4924095518768
 30
0.0
 11
89.12617131526566
 21
-292.4924095518768
 31
0.0
  0
LINE
  5
249
330
1E5
100
AcDbEntity
  8
レイヤー 1
  6
AI-Linetype-8
 62
    75
420
  6921064
370
    20
100
AcDbLine
 10
155.5108468669181
 20
-292.4924095518768
 30
0.0
 11
254.5108468669171
 21
-292.4924095518768
 31
0.0
  0
LINE
  5
24B
330
1E5
100
AcDbEntity
  8
レイヤー 1
  6
AI-Linetype-9
 62
    75
420
  6921064
370
    20
100
AcDbLine
 10
205.010846866917
 20
-357.547837246535
 30
0.0
 11
205.010846866917
 21
-229.8806138677711
 31
0.0
  0
LINE
  5
24D
330
1E5
100
AcDbEntity
  8
レイヤー 1
 62
    75
420
  6921064
370
    20
100
AcDbLine
 10
94.50973648941149
 20
-237.4924095518768
 30
0.0
 11
94.30973648941147
 21
-237.6924095518774
 31
0.0
  0
INSERT
  5
24F
330
1E5
100
AcDbEntity
  8
レイヤー 1
100
AcDbBlockReference
  2
Block_18
 10
0.0
 20
0.0
 30
0.0
  0
LINE
  5
262
330
1E5
100
AcDbEntity
  8
レイヤー 1
 62
    75
420
  6921064
370
    20
100
AcDbLine
 10
94.30973648941147
 20
-292.4924095518768
 30
0.0
 11
94.30973648941147
 21
-255.1924095518771
 31
0.0
  0
LINE
  5
263
330
1E5
100
AcDbEntity
  8
レイヤー 1
 62
    75
420
  6921064
370
    20
100
AcDbLine
 10
99.30973648941167
 20
-272.9924095518771
 30
0.0
 11
99.30973648941167
 21
-265.0424095518776
 31
0.0
  0
INSERT
  5
265
330
1E5
100
AcDbEntity
  8
レイヤー 1
100
AcDbBlockReference
  2
Block_19
 10
0.0
 20
0.0
 30
0.0
  0
INSERT
  5
279
330
1E5
100
AcDbEntity
  8
レイヤー 1
100
AcDbBlockReference
  2
Block_20
 10
0.0
 20
0.0
 30
0.0
  0
CIRCLE
  5
28C
330
1E5
100
AcDbEntity
  8
レイヤー 1
 62
    75
420
  6921064
370
    20
100
AcDbCircle
 10
205.0108497954812
 20
-292.4923963027449
 30
0.0
 40
55.00000202075519
  0
ELLIPSE
  5
28D
330
1E5
100
AcDbEntity
  8
レイヤー 1
 62
    75
420
  6921064
370
    20
100
AcDbEllipse
 10
205.0108444125195
 20
-292.4924016857067
 30
0.0
 11
28.28427868820874
 21
28.28427868820874
 31
0.0
210
0.0
220
0.0
230
0.9999999999999998
 40
0.9999998654259567
 41
0.0
 42
6.283185307179586
  0
LINE
  5
28E
330
1E5
100
AcDbEntity
  8
レイヤー 1
 62
    75
420
  6921064
370
    20
100
AcDbLine
 10
94.50973648941149
 20
-347.4924095518775
 30
0.0
 11
94.30973648941147
 21
-347.2924095518774
 31
0.0
  0
LINE
  5
28F
330
1E5
100
AcDbEntity
  8
レイヤー 1
 62
    75
420
  6921064
370
    20
100
AcDbLine
 10
94.30973648941147
 20
-292.4924095518768
 30
0.0
 11
94.30973648941147
 21
-329.7924095518772
 31
0.0
  0
LINE
  5
290
330
1E5
100
AcDbEntity
  8
レイヤー 1
 62
    75
420
  6921064
370
    20
100
AcDbLine
 10
94.50973648941149
 20
-347.4924095518775
 30
0.0
 11
94.53854302180666
 21
-347.4924095518775
 31
0.0
  0
LINE
  5
291
330
1E5
100
AcDbEntity
  8
レイヤー 1
 62
    75
420
  6921064
370
    20
100
AcDbLine
 10
94.50973648941149
 20
-347.4924095518775
 30
0.0
 11
94.57225226250338
 21
-347.4924095518781
 31
0.0
  0
LINE
  5
292
330
1E5
100
AcDbEntity
  8
レイヤー 1
 62
    75
420
  6921064
370
    20
100
AcDbLine
 10
99.30973648941167
 20
-272.9924095518771
 30
0.0
 11
99.30973648941167
 21
-319.9424095518773
 31
0.0
  0
LINE
  5
293
330
1E5
100
AcDbEntity
  8
レイヤー 1
 62
    75
420
  6921064
370
    20
100
AcDbLine
 10
97.80973648941161
 20
-333.9924095518773
 30
0.0
 11
97.80973648941161
 21
-339.2424095518783
 31
0.0
  0
SPLINE
  5
294
330
1E5
100
AcDbEntity
  8
レイヤー 1
 62
    75
420
  6921064
370
    20
100
AcDbSpline
210
0.0
220
0.0
230
1.0
 70
     8
 71
     3
 72
     8
 73
     4
 74
     0
 42
0.0000000001
 43
0.0000000001
 40
0.0
 40
0.0
 40
0.0
 40
0.0
 40
1.0
 40
1.0
 40
1.0
 40
1.0
 10
99.30973648941167
 20
-332.4924095518769
 30
0.0
 10
98.48130936466523
 20
-332.4924095518769
 30
0.0
 10
97.80973648941161
 20
-333.1639824271312
 30
0.0
 10
97.80973648941161
 20
-333.9924095518773
 30
0.0
  0
INSERT
  5
296
330
1E5
100
AcDbEntity
  8
レイヤー 1
100
AcDbBlockReference
  2
Block_21
 10
0.0
 20
0.0
 30
0.0
  0
LINE
  5
2A5
330
1E5
100
AcDbEntity
  8
レイヤー 1
  6
AI-Linetype-10
 62
    75
420
  6921064
370
    20
100
AcDbLine
 10
94.30973648941147
 20
-313.9924095518773
 30
0.0
 11
99.30973648941167
 21
-313.9924095518773
 31
0.0
  0
CIRCLE
  5
2A7
330
1E5
100
AcDbEntity
  8
レイヤー 1
 62
    75
420
  6921064
370
    20
100
AcDbCircle
 10
205.0108497954812
 20
-292.4923963027449
 30
0.0
 40
21.5000011814197
  0
INSERT
  5
2A9
330
1E5
100
AcDbEntity
  8
レイヤー 1
100
AcDbBlockReference
  2
Block_22
 10
0.0
 20
0.0
 30
0.0
  0
SPLINE
  5
2B1
330
1E5
100
AcDbEntity
  8
レイヤー 1
 62
    75
420
  6921064
370
    20
100
AcDbSpline
210
0.0
220
0.0
230
1.0
 70
     8
 71
     3
 72
     8
 73
     4
 74
     0
 42
0.0000000001
 43
0.0000000001
 40
0.0
 40
0.0
 40
0.0
 40
0.0
 40
1.0
 40
1.0
 40
1.0
 40
1.0
 10
94.96274793466353
 20
-347.3046804759633
 30
0.0
 10
96.80580508828384
 20
-344.9999323021483
 30
0.0
 10
97.80986045866155
 20
-342.1366911453117
 30
0.0
 10
97.80986045866155
 20
-339.1856364497472
 30
0.0
  0
SPLINE
  5
2B2
330
1E5
100
AcDbEntity
  8
レイヤー 1
 62
    75
420
  6921064
370
    20
100
AcDbSpline
210
0.0
220
0.0
230
1.0
 70
     8
 71
     3
 72
     8
 73
     4
 74
     0
 42
0.0000000001
 43
0.0000000001
 40
0.0
 40
0.0
 40
0.0
 40
0.0
 40
1.0
 40
1.0
 40
1.0
 40
1.0
 10
94.57225226250947
 20
-347.4924095518781
 30
0.0
 10
94.7241785171227
 20
-347.4924095518781
 30
0.0
 10
94.86786363082691
 20
-347.423333565786
 30
0.0
 10
94.96274793466705
 20
-347.3046804759588
 30
0.0
  0
LINE
  5
2B3
330
1E5
100
AcDbEntity
  8
レイヤー 1
 62
    75
420
  6921064
370
    20
100
AcDbLine
 10
94.50973648941149
 20
-237.4924095518768
 30
0.0
 11
94.53854302180666
 21
-237.4924095518768
 31
0.0
  0
LINE
  5
2B4
330
1E5
100
AcDbEntity
  8
レイヤー 1
 62
    75
420
  6921064
370
    20
100
AcDbLine
 10
94.50973648941149
 20
-237.4924095518768
 30
0.0
 11
94.57225226250338
 21
-237.4924095518761
 31
0.0
  0
LINE
  5
2B5
330
1E5
100
AcDbEntity
  8
レイヤー 1
 62
    75
420
  6921064
370
    20
100
AcDbLine
 10
97.80973648941161
 20
-250.9924095518769
 30
0.0
 11
97.80973648941161
 21
-245.7424095518766
 31
0.0
  0
SPLINE
  5
2B6
330
1E5
100
AcDbEntity
  8
レイヤー 1
 62
    75
420
  6921064
370
    20
100
AcDbSpline
210
0.0
220
0.0
230
1.0
 70
     8
 71
     3
 72
     8
 73
     4
 74
     0
 42
0.0000000001
 43
0.0000000001
 40
0.0
 40
0.0
 40
0.0
 40
0.0
 40
1.0
 40
1.0
 40
1.0
 40
1.0
 10
97.80973648941161
 20
-250.9924095518769
 30
0.0
 10
97.80973648941161
 20
-251.8208366766237
 30
0.0
 10
98.48130936466523
 20
-252.4924095518773
 30
0.0
 10
99.30973648941167
 20
-252.4924095518773
 30
0.0
  0
SPLINE
  5
2B7
330
1E5
100
AcDbEntity
  8
レイヤー 1
 62
    75
420
  6921064
370
    20
100
AcDbSpline
210
0.0
220
0.0
230
1.0
 70
     8
 71
     3
 72
     8
 73
     4
 74
     0
 42
0.0000000001
 43
0.0000000001
 40
0.0
 40
0.0
 40
0.0
 40
0.0
 40
1.0
 40
1.0
 40
1.0
 40
1.0
 10
97.80986045866155
 20
-245.799182654007
 30
0.0
 10
97.80986045866155
 20
-242.8481279584425
 30
0.0
 10
96.80580508828384
 20
-239.9848868016059
 30
0.0
 10
94.96274793466353
 20
-237.680138627791
 30
0.0
  0
SPLINE
  5
2B8
330
1E5
100
AcDbEntity
  8
レイヤー 1
 62
    75
420
  6921064
370
    20
100
AcDbSpline
210
0.0
220
0.0
230
1.0
 70
     8
 71
     3
 72
     8
 73
     4
 74
     0
 42
0.0000000001
 43
0.0000000001
 40
0.0
 40
0.0
 40
0.0
 40
0.0
 40
1.0
 40
1.0
 40
1.0
 40
1.0
 10
94.96274793466353
 20
-237.680138627791
 30
0.0
 10
94.86786363082178
 20
-237.5614855379651
 30
0.0
 10
94.72417851711661
 20
-237.4924095518742
 30
0.0
 10
94.5722522625037
 20
-237.4924095518761
 30
0.0
  0
INSERT
  5
2BA
330
1E5
100
AcDbEntity
  8
レイヤー 1
100
AcDbBlockReference
  2
Block_23
 10
0.0
 20
0.0
 30
0.0
  0
INSERT
  5
2C5
330
1E5
100
AcDbEntity
  8
レイヤー 1
100
AcDbBlockReference
  2
Block_25
 10
0.0
 20
0.0
 30
0.0
  0
LINE
  5
2CB
330
1E5
100
AcDbEntity
  8
レイヤー 1
 62
    75
420
  6921064
370
    20
100
AcDbLine
 10
99.30973648941167
 20
-292.4924095518768
 30
0.0
 11
109.3097364894113
 21
-292.4924095518768
 31
0.0
  0
LINE
  5
2CC
330
1E5
100
AcDbEntity
  8
レイヤー 1
  6
AI-Linetype-11
 62
    75
420
  6921064
370
    20
100
AcDbLine
 10
94.30973648941147
 20
-272.9924095518771
 30
0.0
 11
99.30973648941167
 21
-272.9924095518771
 31
0.0
  0
MTEXT
  5
2CE
330
1E5
100
AcDbEntity
  8
レイヤー 1
100
AcDbMText
 10
235.4830638720646
 20
-399.2396757611249
 30
0.0
 40
0.2
 41
0.0
 46
0.0
 71
     7
 72
     1
  1
\C251;\c4868939;\FMS Gothic|b0|i0|c128;\H6.493933;\W0.385000;MARDAK INTERNATIONAL
 73
     1
 44
1.0
  0
LINE
  5
2CF
330
1E5
100
AcDbEntity
  8
レイヤー 1
 62
    75
420
  6921064
370
    20
100
AcDbLine
 10
99.30973648941167
 20
-323.4424095518771
 30
0.0
 11
99.30973648941167
 21
-332.4924095518769
 31
0.0
  0
LINE
  5
2D0
330
1E5
100
AcDbEntity
  8
レイヤー 1
 62
    75
420
  6921064
370
    20
100
AcDbLine
 10
99.30973648941167
 20
-261.5424095518771
 30
0.0
 11
99.30973648941167
 21
-252.4924095518773
 31
0.0
  0
LINE
  5
2D1
330
1E5
100
AcDbEntity
  8
レイヤー 1
 62
    75
420
  6921064
370
    20
100
AcDbLine
 10
94.30973648941147
 20
-252.0924095518773
 30
0.0
 11
94.30973648941147
 21
-237.6924095518774
 31
0.0
  0
LINE
  5
2D2
330
1E5
100
AcDbEntity
  8
レイヤー 1
 62
    75
420
  6921064
370
    20
100
AcDbLine
 10
94.30973648941147
 20
-332.8924095518769
 30
0.0
 11
94.30973648941147
 21
-347.2924095518774
 31
0.0
  0
CIRCLE
  5
2D3
330
1E5
100
AcDbEntity
  8
レイヤー 1
  6
AI-Linetype-12
 62
    75
420
  6921064
370
    20
100
AcDbCircle
 10
205.0108497954812
 20
-292.4923963027449
 30
0.0
 40
40.2000010072026
  0
CIRCLE
  5
2D5
330
1E5
100
AcDbEntity
  8
レイヤー 1
  6
AI-Linetype-13
 62
    75
420
  6921064
370
    20
100
AcDbCircle
 10
205.0108497954812
 20
-292.4924016857067
 30
0.0
 40
37.50000162246531
  0
MTEXT
  5
2D7
330
1E5
100
AcDbEntity
  8
レイヤー 1
100
AcDbMText
 10
85.59574430233153
 20
-366.5695015308755
 30
0.0
 40
0.2
 41
0.0
 46
0.0
 71
     7
 72
     1
  1
\C251;\c4868939;\FMS Gothic|b0|i0|c128;\H6.000000;\W1.026667;AA断面
 73
     1
 44
1.0
  0
INSERT
  5
2D9
330
1E5
100
AcDbEntity
  8
レイヤー 1
100
AcDbBlockReference
  2
Block_26
 10
0.0
 20
0.0
 30
0.0
  0
MTEXT
  5
2DF
330
1E5
100
AcDbEntity
  8
レイヤー 1
100
AcDbMText
 10
192.1670385939938
 20
-231.3383340893008
 30
0.0
 40
0.2
 41
0.0
 46
0.0
 71
     7
 72
     1
  1
\C251;\c4868939;\FMS Gothic|b0|i0|c128;\H4.000000;\W1.155000;A
 73
     1
 44
1.0
  0
INSERT
  5
2E1
330
1E5
100
AcDbEntity
  8
レイヤー 1
100
AcDbBlockReference
  2
Block_27
 10
0.0
 20
0.0
 30
0.0
  0
MTEXT
  5
2E7
330
1E5
100
AcDbEntity
  8
レイヤー 1
100
AcDbMText
 10
192.1670385939938
 20
-350.6960087641191
 30
0.0
 40
0.2
 41
0.0
 46
0.0
 71
     7
 72
     1
  1
\C251;\c4868939;\FMS Gothic|b0|i0|c128;\H4.000000;\W1.155000;A
 73
     1
 44
1.0
  0
LINE
  5
2E8
330
1E5
100
AcDbEntity
  8
レイヤー 1
 62
    75
420
  6921064
370
    20
100
AcDbLine
 10
99.15973648941148
 20
-264.8924095518771
 30
0.0
 11
97.6097364894116
 21
-264.8924095518771
 31
0.0
  0
LINE
  5
2E9
330
1E5
100
AcDbEntity
  8
レイヤー 1
 62
    75
420
  6921064
370
    20
100
AcDbLine
 10
97.6097364894116
 20
-261.692409551877
 30
0.0
 11
99.15973648941148
 21
-261.692409551877
 31
0.0
  0
INSERT
  5
2EB
330
1E5
100
AcDbEntity
  8
レイヤー 1
100
AcDbBlockReference
  2
Block_28
 10
0.0
 20
0.0
 30
0.0
  0
SPLINE
  5
2FE
330
1E5
100
AcDbEntity
  8
レイヤー 1
 62
    75
420
  6921064
370
    20
100
AcDbSpline
210
0.0
220
0.0
230
1.0
 70
     8
 71
     3
 72
     8
 73
     4
 74
     0
 42
0.0000000001
 43
0.0000000001
 40
0.0
 40
0.0
 40
0.0
 40
0.0
 40
1.0
 40
1.0
 40
1.0
 40
1.0
 10
99.30973648941167
 20
-265.0424095518776
 30
0.0
 10
99.30973648941167
 20
-264.9595668394028
 30
0.0
 10
99.2425792018863
 20
-264.8924095518771
 30
0.0
 10
99.15973648941148
 20
-264.8924095518771
 30
0.0
  0
SPLINE
  5
2FF
330
1E5
100
AcDbEntity
  8
レイヤー 1
 62
    75
420
  6921064
370
    20
100
AcDbSpline
210
0.0
220
0.0
230
1.0
 70
     8
 71
     3
 72
     8
 73
     4
 74
     0
 42
0.0000000001
 43
0.0000000001
 40
0.0
 40
0.0
 40
0.0
 40
0.0
 40
1.0
 40
1.0
 40
1.0
 40
1.0
 10
99.15973648941148
 20
-261.692409551877
 30
0.0
 10
99.2425792018863
 20
-261.692409551877
 30
0.0
 10
99.30973648941167
 20
-261.6252522643513
 30
0.0
 10
99.30973648941167
 20
-261.5424095518771
 30
0.0
  0
LINE
  5
300
330
1E5
100
AcDbEntity
  8
レイヤー 1
 62
    75
420
  6921064
370
    20
100
AcDbLine
 10
99.15973648941148
 20
-320.0924095518772
 30
0.0
 11
97.6097364894116
 21
-320.0924095518772
 31
0.0
  0
SPLINE
  5
301
330
1E5
100
AcDbEntity
  8
レイヤー 1
 62
    75
420
  6921064
370
    20
100
AcDbSpline
210
0.0
220
0.0
230
1.0
 70
     8
 71
     3
 72
     8
 73
     4
 74
     0
 42
0.0000000001
 43
0.0000000001
 40
0.0
 40
0.0
 40
0.0
 40
0.0
 40
1.0
 40
1.0
 40
1.0
 40
1.0
 10
99.15973648941148
 20
-320.0924095518772
 30
0.0
 10
99.2425792018863
 20
-320.0924095518772
 30
0.0
 10
99.30973648941167
 20
-320.0252522643521
 30
0.0
 10
99.30973648941167
 20
-319.9424095518773
 30
0.0
  0
LINE
  5
302
330
1E5
100
AcDbEntity
  8
レイヤー 1
 62
    75
420
  6921064
370
    20
100
AcDbLine
 10
97.6097364894116
 20
-261.692409551877
 30
0.0
 11
97.6097364894116
 21
-264.8924095518771
 31
0.0
  0
LINE
  5
303
330
1E5
100
AcDbEntity
  8
レイヤー 1
 62
    75
420
  6921064
370
    20
100
AcDbLine
 10
97.6097364894116
 20
-323.2924095518773
 30
0.0
 11
99.15973648941148
 21
-323.2924095518773
 31
0.0
  0
SPLINE
  5
304
330
1E5
100
AcDbEntity
  8
レイヤー 1
 62
    75
420
  6921064
370
    20
100
AcDbSpline
210
0.0
220
0.0
230
1.0
 70
     8
 71
     3
 72
     8
 73
     4
 74
     0
 42
0.0000000001
 43
0.0000000001
 40
0.0
 40
0.0
 40
0.0
 40
0.0
 40
1.0
 40
1.0
 40
1.0
 40
1.0
 10
99.30973648941167
 20
-323.4424095518771
 30
0.0
 10
99.30973648941167
 20
-323.3595668394023
 30
0.0
 10
99.2425792018863
 20
-323.2924095518773
 30
0.0
 10
99.15973648941148
 20
-323.2924095518773
 30
0.0
  0
LINE
  5
305
330
1E5
100
AcDbEntity
  8
レイヤー 1
 62
    75
420
  6921064
370
    20
100
AcDbLine
 10
97.6097364894116
 20
-323.2924095518773
 30
0.0
 11
97.6097364894116
 21
-320.0924095518772
 31
0.0
  0
INSERT
  5
307
330
1E5
100
AcDbEntity
  8
レイヤー 1
100
AcDbBlockReference
  2
Block_29
 10
0.0
 20
0.0
 30
0.0
  0
INSERT
  5
316
330
1E5
100
AcDbEntity
  8
レイヤー 1
100
AcDbBlockReference
  2
Block_30
 10
0.0
 20
0.0
 30
0.0
  0
CIRCLE
  5
325
330
1E5
100
AcDbEntity
  8
レイヤー 1
 62
    75
420
  6921064
370
    20
100
AcDbCircle
 10
205.0108497954812
 20
-292.4924016857067
 30
0.0
 40
30.80000145459768
  0
CIRCLE
  5
326
330
1E5
100
AcDbEntity
  8
レイヤー 1
 62
    75
420
  6921064
370
    20
100
AcDbCircle
 10
205.0108497954812
 20
-292.4924016857067
 30
0.0
 40
27.60000298127625
  0
MTEXT
  5
327
330
1E5
100
AcDbEntity
  8
レイヤー 1
100
AcDbMText
 10
37.69464682590349
 20
-378.0611665840194
 30
0.0
 40
0.2
 41
0.0
 46
0.0
 71
     7
 72
     1
  1
\C251;\c4868939;\FMS Gothic|b0|i0|c128;\H3.000000;\W1.026667;2
 73
     1
 44
1.0
  0
MTEXT
  5
328
330
1E5
100
AcDbEntity
  8
レイヤー 1
100
AcDbMText
 10
42.1829414474146
 20
-378.0611665840194
 30
0.0
 40
0.2
 41
0.0
 46
0.0
 71
     7
 72
     1
  1
\C251;\c4868939;\FMS Gothic|b0|i0|c128;\H3.000000;\W1.026667;5
 73
     1
 44
1.0
  0
MTEXT
  5
329
330
1E5
100
AcDbEntity
  8
レイヤー 1
100
AcDbMText
 10
46.61319697592265
 20
-378.0611665840194
 30
0.0
 40
0.2
 41
0.0
 46
0.0
 71
     7
 72
     1
  1
\C251;\c4868939;\FMS Gothic|b0|i0|c128;\H3.000000;\W1.026667;13
 73
     1
 44
1.0
  0
MTEXT
  5
32A
330
1E5
100
AcDbEntity
  8
レイヤー 1
100
AcDbMText
 10
121.648970001326
 20
-378.0611665840194
 30
0.0
 40
0.2
 41
0.0
 46
0.0
 71
     7
 72
     1
  1
\C251;\c4868939;\FMS Gothic|b0|i0|c128;\H3.000000;\W1.026667;長原
 73
     1
 44
1.0
  0
MTEXT
  5
32B
330
1E5
100
AcDbEntity
  8
レイヤー 1
100
AcDbMText
 10
37.69464682590349
 20
-384.0971568948747
 30
0.0
 40
0.2
 41
0.0
 46
0.0
 71
     7
 72
     1
  1
\C251;\c4868939;\FMS Gothic|b0|i0|c128;\H3.000000;\W1.026667;4
 73
     1
 44
1.0
  0
MTEXT
  5
32C
330
1E5
100
AcDbEntity
  8
レイヤー 1
100
AcDbMText
 10
42.1829414474146
 20
-384.0971568948747
 30
0.0
 40
0.2
 41
0.0
 46
0.0
 71
     7
 72
     1
  1
\C251;\c4868939;\FMS Gothic|b0|i0|c128;\H3.000000;\W1.026667;4
 73
     1
 44
1.0
  0
MTEXT
  5
32D
330
1E5
100
AcDbEntity
  8
レイヤー 1
100
AcDbMText
 10
48.48826017227192
 20
-384.0971568948747
 30
0.0
 40
0.2
 41
0.0
 46
0.0
 71
     7
 72
     1
  1
\C251;\c4868939;\FMS Gothic|b0|i0|c128;\H3.000000;\W1.026667;3
 73
     1
 44
1.0
  0
MTEXT
  5
32E
330
1E5
100
AcDbEntity
  8
レイヤー 1
100
AcDbMText
 10
121.648970001326
 20
-384.0971568948747
 30
0.0
 40
0.2
 41
0.0
 46
0.0
 71
     7
 72
     1
  1
\C251;\c4868939;\FMS Gothic|b0|i0|c128;\H3.000000;\W1.026667;長原
 73
     1
 44
1.0
  0
MTEXT
  5
32F
330
1E5
100
AcDbEntity
  8
レイヤー 1
100
AcDbMText
 10
87.36617887220143
 20
-384.0971568948747
 30
0.0
 40
0.2
 41
0.0
 46
0.0
 71
     7
 72
     1
  1
\C251;\c4868939;\FMS Gothic|b0|i0|c128;\H3.000000;\W1.026667;Oリング溝追加
 73
     1
 44
1.0
  0
LINE
  5
330
330
1E5
100
AcDbEntity
  8
レイヤー 1
 62
   251
420
  4934474
370
    20
100
AcDbLine
 10
93.30973648941144
 20
-329.9924095518772
 30
0.0
 11
61.48840772524767
 21
-329.9924095518772
 31
0.0
  0
LINE
  5
331
330
1E5
100
AcDbEntity
  8
レイヤー 1
 62
   251
420
  4934474
370
    20
100
AcDbLine
 10
93.66302828769262
 20
-254.9924095518771
 30
0.0
 11
61.48840772524767
 21
-254.9924095518771
 31
0.0
  0
LINE
  5
332
330
1E5
100
AcDbEntity
  8
レイヤー 1
 62
   251
420
  4934474
370
    20
100
AcDbLine
 10
62.65507439191439
 20
-328.9924095518771
 30
0.0
 11
62.48840772524739
 21
-329.9924095518772
 31
0.0
  0
LINE
  5
333
330
1E5
100
AcDbEntity
  8
レイヤー 1
 62
   251
420
  4934474
370
    20
100
AcDbLine
 10
62.3217410585804
 20
-328.9924095518771
 30
0.0
 11
62.48840772524739
 21
-329.9924095518772
 31
0.0
  0
LINE
  5
334
330
1E5
100
AcDbEntity
  8
レイヤー 1
 62
   251
420
  4934474
370
    20
100
AcDbLine
 10
62.48840772524739
 20
-329.9924095518772
 30
0.0
 11
62.48840772524739
 21
-328.9924095518771
 31
0.0
  0
LINE
  5
335
330
1E5
100
AcDbEntity
  8
レイヤー 1
 62
   251
420
  4934474
370
    20
100
AcDbLine
 10
62.3217410585804
 20
-255.9924095518771
 30
0.0
 11
62.48840772524739
 21
-254.9924095518771
 31
0.0
  0
LINE
  5
336
330
1E5
100
AcDbEntity
  8
レイヤー 1
 62
   251
420
  4934474
370
    20
100
AcDbLine
 10
62.65507439191439
 20
-255.9924095518771
 30
0.0
 11
62.48840772524739
 21
-254.9924095518771
 31
0.0
  0
LINE
  5
337
330
1E5
100
AcDbEntity
  8
レイヤー 1
 62
   251
420
  4934474
370
    20
100
AcDbLine
 10
62.48840772524739
 20
-254.9924095518771
 30
0.0
 11
62.48840772524739
 21
-255.9924095518771
 31
0.0
  0
LINE
  5
338
330
1E5
100
AcDbEntity
  8
レイヤー 1
 62
   251
420
  4934474
370
    20
100
AcDbLine
 10
62.65507439191439
 20
-328.9924095518771
 30
0.0
 11
62.48840772524739
 21
-329.9924095518772
 31
0.0
  0
LINE
  5
339
330
1E5
100
AcDbEntity
  8
レイヤー 1
 62
   251
420
  4934474
370
    20
100
AcDbLine
 10
62.3217410585804
 20
-328.9924095518771
 30
0.0
 11
62.48840772524739
 21
-329.9924095518772
 31
0.0
  0
LINE
  5
33A
330
1E5
100
AcDbEntity
  8
レイヤー 1
 62
   251
420
  4934474
370
    20
100
AcDbLine
 10
62.48840772524739
 20
-329.9924095518772
 30
0.0
 11
62.48840772524739
 21
-328.9924095518771
 31
0.0
  0
LINE
  5
33B
330
1E5
100
AcDbEntity
  8
レイヤー 1
 62
   251
420
  4934474
370
    20
100
AcDbLine
 10
62.3217410585804
 20
-255.9924095518771
 30
0.0
 11
62.48840772524739
 21
-254.9924095518771
 31
0.0
  0
LINE
  5
33C
330
1E5
100
AcDbEntity
  8
レイヤー 1
 62
   251
420
  4934474
370
    20
100
AcDbLine
 10
62.65507439191439
 20
-255.9924095518771
 30
0.0
 11
62.48840772524739
 21
-254.9924095518771
 31
0.0
  0
LINE
  5
33D
330
1E5
100
AcDbEntity
  8
レイヤー 1
 62
   251
420
  4934474
370
    20
100
AcDbLine
 10
62.48840772524739
 20
-254.9924095518771
 30
0.0
 11
62.48840772524739
 21
-255.9924095518771
 31
0.0
  0
LINE
  5
33E
330
1E5
100
AcDbEntity
  8
レイヤー 1
 62
   251
420
  4934474
370
    20
100
AcDbLine
 10
62.48840772524739
 20
-329.9924095518772
 30
0.0
 11
62.48840772524739
 21
-254.9924095518771
 31
0.0
  0
MTEXT
  5
33F
330
1E5
100
AcDbEntity
  8
レイヤー 1
100
AcDbMText
 10
61.48840873028698
 20
-303.4922416775986
 30
0.0
 40
0.2
 41
0.0
 46
0.0
 71
     7
 72
     1
  1
\C251;\c4868939;\FKozGoPr6N-Regular|b0|i0|c128;\H4.000000;\W0.937500;φ75
 11
-0.0000000000000002
 21
1.0
 31
0.0
 73
     1
 44
1.0
  0
LINE
  5
340
330
1E5
100
AcDbEntity
  8
レイヤー 1
 62
    75
420
  6921064
370
    20
100
AcDbLine
 10
94.30973648941147
 20
-346.8248926526583
 30
0.0
 11
96.70546574682857
 21
-344.4291633952421
 31
0.0
  0
LINE
  5
341
330
1E5
100
AcDbEntity
  8
レイヤー 1
 62
    75
420
  6921064
370
    20
100
AcDbLine
 10
94.30973648941147
 20
-343.3011438597464
 30
0.0
 11
97.79455253846142
 21
-339.8163278106962
 31
0.0
  0
LINE
  5
342
330
1E5
100
AcDbEntity
  8
レイヤー 1
 62
    75
420
  6921064
370
    20
100
AcDbLine
 10
94.30973648941147
 20
-339.7773950668333
 30
0.0
 11
97.80973648941161
 21
-336.2773950668328
 31
0.0
  0
LINE
  5
343
330
1E5
100
AcDbEntity
  8
レイヤー 1
 62
    75
420
  6921064
370
    20
100
AcDbLine
 10
94.30973648941147
 20
-336.2536462739202
 30
0.0
 11
99.30973648941167
 21
-331.2536462739199
 31
0.0
  0
LINE
  5
344
330
1E5
100
AcDbEntity
  8
レイヤー 1
 62
    75
420
  6921064
370
    20
100
AcDbLine
 10
95.80973648941153
 20
-331.2298974810073
 30
0.0
 11
99.30973648941167
 21
-327.7298974810069
 31
0.0
  0
LINE
  5
345
330
1E5
100
AcDbEntity
  8
レイヤー 1
 62
    75
420
  6921064
370
    20
100
AcDbLine
 10
94.30973648941147
 20
-329.2061486880939
 30
0.0
 11
99.30973648941167
 21
-324.2061486880944
 31
0.0
  0
LINE
  5
346
330
1E5
100
AcDbEntity
  8
レイヤー 1
 62
    75
420
  6921064
370
    20
100
AcDbLine
 10
94.30973648941147
 20
-325.6823998951814
 30
0.0
 11
97.6097364894116
 21
-322.382399895181
 31
0.0
  0
LINE
  5
347
330
1E5
100
AcDbEntity
  8
レイヤー 1
 62
    75
420
  6921064
370
    20
100
AcDbLine
 10
94.30973648941147
 20
-322.1586511022683
 30
0.0
 11
99.30973648941167
 21
-317.1586511022681
 31
0.0
  0
LINE
  5
348
330
1E5
100
AcDbEntity
  8
レイヤー 1
 62
    75
420
  6921064
370
    20
100
AcDbLine
 10
94.30973648941147
 20
-318.6349023093551
 30
0.0
 11
98.95222924688937
 21
-313.9924095518773
 31
0.0
  0
LINE
  5
349
330
1E5
100
AcDbEntity
  8
レイヤー 1
 62
    75
420
  6921064
370
    20
100
AcDbLine
 10
94.30973648941147
 20
-315.111153516442
 30
0.0
 11
95.42848045397656
 21
-313.9924095518773
 31
0.0
  0
LINE
  5
34A
330
1E5
100
AcDbEntity
  8
レイヤー 1
 62
    75
420
  6921064
370
    20
100
AcDbLine
 10
97.66724373193355
 20
-272.9924095518771
 30
0.0
 11
99.30973648941167
 21
-271.3499167943993
 31
0.0
  0
LINE
  5
34B
330
1E5
100
AcDbEntity
  8
レイヤー 1
 62
    75
420
  6921064
370
    20
100
AcDbLine
 10
94.30973648941147
 20
-272.8261680014863
 30
0.0
 11
99.30973648941167
 21
-267.8261680014862
 31
0.0
  0
LINE
  5
34C
330
1E5
100
AcDbEntity
  8
レイヤー 1
 62
    75
420
  6921064
370
    20
100
AcDbLine
 10
94.30973648941147
 20
-269.3024192085732
 30
0.0
 11
98.71974614610756
 21
-264.8924095518771
 31
0.0
  0
LINE
  5
34D
330
1E5
100
AcDbEntity
  8
レイヤー 1
 62
    75
420
  6921064
370
    20
100
AcDbLine
 10
94.30973648941147
 20
-265.7786704156601
 30
0.0
 11
97.6097364894116
 21
-262.4786704156603
 31
0.0
  0
LINE
  5
34E
330
1E5
100
AcDbEntity
  8
レイヤー 1
 62
    75
420
  6921064
370
    20
100
AcDbLine
 10
98.39599735319456
 20
-261.692409551877
 30
0.0
 11
99.30973648941167
 21
-260.7786704156599
 31
0.0
  0
LINE
  5
34F
330
1E5
100
AcDbEntity
  8
レイヤー 1
 62
    75
420
  6921064
370
    20
100
AcDbLine
 10
94.30973648941147
 20
-262.2549216227476
 30
0.0
 11
99.30973648941167
 21
-257.2549216227468
 31
0.0
  0
LINE
  5
350
330
1E5
100
AcDbEntity
  8
レイヤー 1
 62
    75
420
  6921064
370
    20
100
AcDbLine
 10
94.30973648941147
 20
-258.7311728298345
 30
0.0
 11
99.30973648941167
 21
-253.7311728298343
 31
0.0
  0
LINE
  5
351
330
1E5
100
AcDbEntity
  8
レイヤー 1
 62
    75
420
  6921064
370
    20
100
AcDbLine
 10
94.30973648941147
 20
-255.2074240369213
 30
0.0
 11
94.52475097445541
 21
-254.9924095518771
 31
0.0
  0
LINE
  5
352
330
1E5
100
AcDbEntity
  8
レイヤー 1
 62
    75
420
  6921064
370
    20
100
AcDbLine
 10
95.80973648941153
 20
-253.7074240369216
 30
0.0
 11
97.93187606688363
 21
-251.5852844594504
 31
0.0
  0
LINE
  5
353
330
1E5
100
AcDbEntity
  8
レイヤー 1
 62
    75
420
  6921064
370
    20
100
AcDbLine
 10
94.30973648941147
 20
-251.6836752440095
 30
0.0
 11
97.80973648941161
 21
-248.1836752440084
 31
0.0
  0
LINE
  5
354
330
1E5
100
AcDbEntity
  8
レイヤー 1
 62
    75
420
  6921064
370
    20
100
AcDbLine
 10
94.30973648941147
 20
-248.1599264510963
 30
0.0
 11
97.76380364353542
 21
-244.7058592969711
 31
0.0
  0
LINE
  5
355
330
1E5
100
AcDbEntity
  8
レイヤー 1
 62
    75
420
  6921064
370
    20
100
AcDbLine
 10
94.30973648941147
 20
-244.6361776581832
 30
0.0
 11
97.17122862181058
 21
-241.7746855257841
 31
0.0
  0
LINE
  5
356
330
1E5
100
AcDbEntity
  8
レイヤー 1
 62
    75
420
  6921064
370
    20
100
AcDbLine
 10
94.30973648941147
 20
-241.1124288652701
 30
0.0
 11
96.08820063298352
 21
-239.3339647216971
 31
0.0
  0
LINE
  5
357
330
1E5
100
AcDbEntity
  8
レイヤー 1
 62
    75
420
  6921064
370
    20
100
AcDbLine
 10
99.30973648941167
 20
-261.5424095518771
 30
0.0
 11
99.30973648941167
 21
-252.4924095518773
 31
0.0
  0
SPLINE
  5
358
330
1E5
100
AcDbEntity
  8
レイヤー 1
 62
    75
420
  6921064
370
    20
100
AcDbSpline
210
0.0
220
0.0
230
1.0
 70
     8
 71
     3
 72
     8
 73
     4
 74
     0
 42
0.0000000001
 43
0.0000000001
 40
0.0
 40
0.0
 40
0.0
 40
0.0
 40
1.0
 40
1.0
 40
1.0
 40
1.0
 10
97.80973648941161
 20
-250.9924095518769
 30
0.0
 10
97.80973648941161
 20
-251.8208366766237
 30
0.0
 10
98.48130936466523
 20
-252.4924095518773
 30
0.0
 10
99.30973648941167
 20
-252.4924095518773
 30
0.0
  0
LINE
  5
359
330
1E5
100
AcDbEntity
  8
レイヤー 1
 62
    75
420
  6921064
370
    20
100
AcDbLine
 10
97.80973648941161
 20
-250.9924095518769
 30
0.0
 11
97.80973648941161
 21
-245.7424095518766
 31
0.0
  0
SPLINE
  5
35A
330
1E5
100
AcDbEntity
  8
レイヤー 1
 62
    75
420
  6921064
370
    20
100
AcDbSpline
210
0.0
220
0.0
230
1.0
 70
     8
 71
     3
 72
     8
 73
     4
 74
     0
 42
0.0000000001
 43
0.0000000001
 40
0.0
 40
0.0
 40
0.0
 40
0.0
 40
1.0
 40
1.0
 40
1.0
 40
1.0
 10
97.80973648941191
 20
-245.7424095518753
 30
0.0
 10
97.79693378221693
 20
-242.810852174515
 30
0.0
 10
96.79364565675456
 20
-239.9696813981506
 30
0.0
 10
94.96274793466353
 20
-237.680138627791
 30
0.0
  0
SPLINE
  5
35B
330
1E5
100
AcDbEntity
  8
レイヤー 1
 62
    75
420
  6921064
370
    20
100
AcDbSpline
210
0.0
220
0.0
230
1.0
 70
     8
 71
     3
 72
     8
 73
     4
 74
     0
 42
0.0000000001
 43
0.0000000001
 40
0.0
 40
0.0
 40
0.0
 40
0.0
 40
1.0
 40
1.0
 40
1.0
 40
1.0
 10
94.96274793466353
 20
-237.680138627791
 30
0.0
 10
94.86786363082178
 20
-237.5614855379651
 30
0.0
 10
94.72417851711661
 20
-237.4924095518742
 30
0.0
 10
94.5722522625037
 20
-237.4924095518761
 30
0.0
  0
LINE
  5
35C
330
1E5
100
AcDbEntity
  8
レイヤー 1
 62
    75
420
  6921064
370
    20
100
AcDbLine
 10
94.57225226250338
 20
-237.4924095518761
 30
0.0
 11
94.50973648941149
 21
-237.4924095518768
 31
0.0
  0
LINE
  5
35D
330
1E5
100
AcDbEntity
  8
レイヤー 1
 62
    75
420
  6921064
370
    20
100
AcDbLine
 10
94.50973648941149
 20
-237.4924095518768
 30
0.0
 11
94.30973648941147
 21
-237.6924095518774
 31
0.0
  0
LINE
  5
35E
330
1E5
100
AcDbEntity
  8
レイヤー 1
 62
    75
420
  6921064
370
    20
100
AcDbLine
 10
94.30973648941147
 20
-237.6924095518774
 30
0.0
 11
94.30973648941147
 21
-252.0924095518773
 31
0.0
  0
SPLINE
  5
35F
330
1E5
100
AcDbEntity
  8
レイヤー 1
 62
    75
420
  6921064
370
    20
100
AcDbSpline
210
0.0
220
0.0
230
1.0
 70
     8
 71
     3
 72
     8
 73
     4
 74
     0
 42
0.0000000001
 43
0.0000000001
 40
0.0
 40
0.0
 40
0.0
 40
0.0
 40
1.0
 40
1.0
 40
1.0
 40
1.0
 10
94.30973648941147
 20
-252.0924095518773
 30
0.0
 10
94.30973648941147
 20
-252.2028665018435
 30
0.0
 10
94.39927953944529
 20
-252.2924095518773
 30
0.0
 10
94.50973648941149
 20
-252.2924095518773
 30
0.0
  0
LINE
  5
360
330
1E5
100
AcDbEntity
  8
レイヤー 1
 62
    75
420
  6921064
370
    20
100
AcDbLine
 10
94.50973648941149
 20
-252.2924095518773
 30
0.0
 11
95.80973648941153
 21
-252.2924095518773
 31
0.0
  0
LINE
  5
361
330
1E5
100
AcDbEntity
  8
レイヤー 1
 62
    75
420
  6921064
370
    20
100
AcDbLine
 10
95.80973648941153
 20
-252.2924095518773
 30
0.0
 11
95.80973648941153
 21
-254.9924095518771
 31
0.0
  0
LINE
  5
362
330
1E5
100
AcDbEntity
  8
レイヤー 1
 62
    75
420
  6921064
370
    20
100
AcDbLine
 10
95.80973648941153
 20
-254.9924095518771
 30
0.0
 11
94.50973648941149
 21
-254.9924095518771
 31
0.0
  0
SPLINE
  5
363
330
1E5
100
AcDbEntity
  8
レイヤー 1
 62
    75
420
  6921064
370
    20
100
AcDbSpline
210
0.0
220
0.0
230
1.0
 70
     8
 71
     3
 72
     8
 73
     4
 74
     0
 42
0.0000000001
 43
0.0000000001
 40
0.0
 40
0.0
 40
0.0
 40
0.0
 40
1.0
 40
1.0
 40
1.0
 40
1.0
 10
94.50973648941149
 20
-254.9924095518771
 30
0.0
 10
94.39927953944529
 20
-254.9924095518771
 30
0.0
 10
94.30973648941147
 20
-255.0819526019109
 30
0.0
 10
94.30973648941147
 20
-255.1924095518771
 30
0.0
  0
LINE
  5
364
330
1E5
100
AcDbEntity
  8
レイヤー 1
 62
    75
420
  6921064
370
    20
100
AcDbLine
 10
94.30973648941147
 20
-255.1924095518771
 30
0.0
 11
94.30973648941147
 21
-272.9924095518771
 31
0.0
  0
LINE
  5
365
330
1E5
100
AcDbEntity
  8
レイヤー 1
 62
    75
420
  6921064
370
    20
100
AcDbLine
 10
94.30973648941147
 20
-272.9924095518771
 30
0.0
 11
99.30973648941167
 21
-272.9924095518771
 31
0.0
  0
LINE
  5
366
330
1E5
100
AcDbEntity
  8
レイヤー 1
 62
    75
420
  6921064
370
    20
100
AcDbLine
 10
99.30973648941167
 20
-272.9924095518771
 30
0.0
 11
99.30973648941167
 21
-265.0424095518776
 31
0.0
  0
SPLINE
  5
367
330
1E5
100
AcDbEntity
  8
レイヤー 1
 62
    75
420
  6921064
370
    20
100
AcDbSpline
210
0.0
220
0.0
230
1.0
 70
     8
 71
     3
 72
     8
 73
     4
 74
     0
 42
0.0000000001
 43
0.0000000001
 40
0.0
 40
0.0
 40
0.0
 40
0.0
 40
1.0
 40
1.0
 40
1.0
 40
1.0
 10
99.30973648941167
 20
-265.0424095518776
 30
0.0
 10
99.30973648941167
 20
-264.9595668394028
 30
0.0
 10
99.2425792018863
 20
-264.8924095518771
 30
0.0
 10
99.15973648941148
 20
-264.8924095518771
 30
0.0
  0
LINE
  5
368
330
1E5
100
AcDbEntity
  8
レイヤー 1
 62
    75
420
  6921064
370
    20
100
AcDbLine
 10
99.15973648941148
 20
-264.8924095518771
 30
0.0
 11
97.6097364894116
 21
-264.8924095518771
 31
0.0
  0
LINE
  5
369
330
1E5
100
AcDbEntity
  8
レイヤー 1
 62
    75
420
  6921064
370
    20
100
AcDbLine
 10
97.6097364894116
 20
-264.8924095518771
 30
0.0
 11
97.6097364894116
 21
-261.692409551877
 31
0.0
  0
LINE
  5
36A
330
1E5
100
AcDbEntity
  8
レイヤー 1
 62
    75
420
  6921064
370
    20
100
AcDbLine
 10
97.6097364894116
 20
-261.692409551877
 30
0.0
 11
99.15973648941148
 21
-261.692409551877
 31
0.0
  0
SPLINE
  5
36B
330
1E5
100
AcDbEntity
  8
レイヤー 1
 62
    75
420
  6921064
370
    20
100
AcDbSpline
210
0.0
220
0.0
230
1.0
 70
     8
 71
     3
 72
     8
 73
     4
 74
     0
 42
0.0000000001
 43
0.0000000001
 40
0.0
 40
0.0
 40
0.0
 40
0.0
 40
1.0
 40
1.0
 40
1.0
 40
1.0
 10
99.15973648941148
 20
-261.692409551877
 30
0.0
 10
99.2425792018863
 20
-261.692409551877
 30
0.0
 10
99.30973648941167
 20
-261.6252522643513
 30
0.0
 10
99.30973648941167
 20
-261.5424095518771
 30
0.0
  0
LINE
  5
36C
330
1E5
100
AcDbEntity
  8
レイヤー 1
 62
    75
420
  6921064
370
    20
100
AcDbLine
 10
94.30973648941147
 20
-313.9924095518773
 30
0.0
 11
99.30973648941167
 21
-313.9924095518773
 31
0.0
  0
LINE
  5
36D
330
1E5
100
AcDbEntity
  8
レイヤー 1
 62
    75
420
  6921064
370
    20
100
AcDbLine
 10
99.30973648941167
 20
-313.9924095518773
 30
0.0
 11
99.30973648941167
 21
-319.9424095518773
 31
0.0
  0
SPLINE
  5
36E
330
1E5
100
AcDbEntity
  8
レイヤー 1
 62
    75
420
  6921064
370
    20
100
AcDbSpline
210
0.0
220
0.0
230
1.0
 70
     8
 71
     3
 72
     8
 73
     4
 74
     0
 42
0.0000000001
 43
0.0000000001
 40
0.0
 40
0.0
 40
0.0
 40
0.0
 40
1.0
 40
1.0
 40
1.0
 40
1.0
 10
99.15973648941148
 20
-320.0924095518772
 30
0.0
 10
99.2425792018863
 20
-320.0924095518772
 30
0.0
 10
99.30973648941167
 20
-320.0252522643521
 30
0.0
 10
99.30973648941167
 20
-319.9424095518773
 30
0.0
  0
LINE
  5
36F
330
1E5
100
AcDbEntity
  8
レイヤー 1
 62
    75
420
  6921064
370
    20
100
AcDbLine
 10
99.15973648941148
 20
-320.0924095518772
 30
0.0
 11
97.6097364894116
 21
-320.0924095518772
 31
0.0
  0
LINE
  5
370
330
1E5
100
AcDbEntity
  8
レイヤー 1
 62
    75
420
  6921064
370
    20
100
AcDbLine
 10
97.6097364894116
 20
-320.0924095518772
 30
0.0
 11
97.6097364894116
 21
-323.2924095518773
 31
0.0
  0
LINE
  5
371
330
1E5
100
AcDbEntity
  8
レイヤー 1
 62
    75
420
  6921064
370
    20
100
AcDbLine
 10
97.6097364894116
 20
-323.2924095518773
 30
0.0
 11
99.15973648941148
 21
-323.2924095518773
 31
0.0
  0
SPLINE
  5
372
330
1E5
100
AcDbEntity
  8
レイヤー 1
 62
    75
420
  6921064
370
    20
100
AcDbSpline
210
0.0
220
0.0
230
1.0
 70
     8
 71
     3
 72
     8
 73
     4
 74
     0
 42
0.0000000001
 43
0.0000000001
 40
0.0
 40
0.0
 40
0.0
 40
0.0
 40
1.0
 40
1.0
 40
1.0
 40
1.0
 10
99.30973648941167
 20
-323.4424095518771
 30
0.0
 10
99.30973648941167
 20
-323.3595668394023
 30
0.0
 10
99.2425792018863
 20
-323.2924095518773
 30
0.0
 10
99.15973648941148
 20
-323.2924095518773
 30
0.0
  0
LINE
  5
373
330
1E5
100
AcDbEntity
  8
レイヤー 1
 62
    75
420
  6921064
370
    20
100
AcDbLine
 10
99.30973648941167
 20
-323.4424095518771
 30
0.0
 11
99.30973648941167
 21
-332.4924095518769
 31
0.0
  0
SPLINE
  5
374
330
1E5
100
AcDbEntity
  8
レイヤー 1
 62
    75
420
  6921064
370
    20
100
AcDbSpline
210
0.0
220
0.0
230
1.0
 70
     8
 71
     3
 72
     8
 73
     4
 74
     0
 42
0.0000000001
 43
0.0000000001
 40
0.0
 40
0.0
 40
0.0
 40
0.0
 40
1.0
 40
1.0
 40
1.0
 40
1.0
 10
99.30973648941167
 20
-332.4924095518769
 30
0.0
 10
98.48130936466523
 20
-332.4924095518769
 30
0.0
 10
97.80973648941161
 20
-333.1639824271312
 30
0.0
 10
97.80973648941161
 20
-333.9924095518773
 30
0.0
  0
LINE
  5
375
330
1E5
100
AcDbEntity
  8
レイヤー 1
 62
    75
420
  6921064
370
    20
100
AcDbLine
 10
97.80973648941161
 20
-333.9924095518773
 30
0.0
 11
97.80973648941161
 21
-339.2424095518789
 31
0.0
  0
SPLINE
  5
376
330
1E5
100
AcDbEntity
  8
レイヤー 1
 62
    75
420
  6921064
370
    20
100
AcDbSpline
210
0.0
220
0.0
230
1.0
 70
     8
 71
     3
 72
     8
 73
     4
 74
     0
 42
0.0000000001
 43
0.0000000001
 40
0.0
 40
0.0
 40
0.0
 40
0.0
 40
1.0
 40
1.0
 40
1.0
 40
1.0
 10
94.96274793466353
 20
-347.3046804759633
 30
0.0
 10
96.79364565675456
 20
-345.0151377056037
 30
0.0
 10
97.79693378221693
 20
-342.1739669292392
 30
0.0
 10
97.80973648941191
 20
-339.2424095518789
 30
0.0
  0
SPLINE
  5
377
330
1E5
100
AcDbEntity
  8
レイヤー 1
 62
    75
420
  6921064
370
    20
100
AcDbSpline
210
0.0
220
0.0
230
1.0
 70
     8
 71
     3
 72
     8
 73
     4
 74
     0
 42
0.0000000001
 43
0.0000000001
 40
0.0
 40
0.0
 40
0.0
 40
0.0
 40
1.0
 40
1.0
 40
1.0
 40
1.0
 10
94.57225226250947
 20
-347.4924095518781
 30
0.0
 10
94.7241785171227
 20
-347.4924095518781
 30
0.0
 10
94.86786363082691
 20
-347.423333565786
 30
0.0
 10
94.96274793466705
 20
-347.3046804759588
 30
0.0
  0
LINE
  5
378
330
1E5
100
AcDbEntity
  8
レイヤー 1
 62
    75
420
  6921064
370
    20
100
AcDbLine
 10
94.57225226250338
 20
-347.4924095518781
 30
0.0
 11
94.50973648941149
 21
-347.4924095518775
 31
0.0
  0
LINE
  5
379
330
1E5
100
AcDbEntity
  8
レイヤー 1
 62
    75
420
  6921064
370
    20
100
AcDbLine
 10
94.50973648941149
 20
-347.4924095518775
 30
0.0
 11
94.30973648941147
 21
-347.2924095518774
 31
0.0
  0
LINE
  5
37A
330
1E5
100
AcDbEntity
  8
レイヤー 1
 62
    75
420
  6921064
370
    20
100
AcDbLine
 10
94.30973648941147
 20
-347.2924095518774
 30
0.0
 11
94.30973648941147
 21
-332.8924095518769
 31
0.0
  0
SPLINE
  5
37B
330
1E5
100
AcDbEntity
  8
レイヤー 1
 62
    75
420
  6921064
370
    20
100
AcDbSpline
210
0.0
220
0.0
230
1.0
 70
     8
 71
     3
 72
     8
 73
     4
 74
     0
 42
0.0000000001
 43
0.0000000001
 40
0.0
 40
0.0
 40
0.0
 40
0.0
 40
1.0
 40
1.0
 40
1.0
 40
1.0
 10
94.50973648941149
 20
-332.692409551877
 30
0.0
 10
94.39927953944529
 20
-332.692409551877
 30
0.0
 10
94.30973648941147
 20
-332.7819526019108
 30
0.0
 10
94.30973648941147
 20
-332.8924095518769
 30
0.0
  0
LINE
  5
37C
330
1E5
100
AcDbEntity
  8
レイヤー 1
 62
    75
420
  6921064
370
    20
100
AcDbLine
 10
94.50973648941149
 20
-332.692409551877
 30
0.0
 11
95.80973648941153
 21
-332.692409551877
 31
0.0
  0
LINE
  5
37D
330
1E5
100
AcDbEntity
  8
レイヤー 1
 62
    75
420
  6921064
370
    20
100
AcDbLine
 10
95.80973648941153
 20
-332.692409551877
 30
0.0
 11
95.80973648941153
 21
-329.9924095518772
 31
0.0
  0
LINE
  5
37E
330
1E5
100
AcDbEntity
  8
レイヤー 1
 62
    75
420
  6921064
370
    20
100
AcDbLine
 10
95.80973648941153
 20
-329.9924095518772
 30
0.0
 11
94.50973648941149
 21
-329.9924095518772
 31
0.0
  0
SPLINE
  5
37F
330
1E5
100
AcDbEntity
  8
レイヤー 1
 62
    75
420
  6921064
370
    20
100
AcDbSpline
210
0.0
220
0.0
230
1.0
 70
     8
 71
     3
 72
     8
 73
     4
 74
     0
 42
0.0000000001
 43
0.0000000001
 40
0.0
 40
0.0
 40
0.0
 40
0.0
 40
1.0
 40
1.0
 40
1.0
 40
1.0
 10
94.30973648941147
 20
-329.7924095518772
 30
0.0
 10
94.30973648941147
 20
-329.9028665018433
 30
0.0
 10
94.39927953944529
 20
-329.9924095518772
 30
0.0
 10
94.50973648941149
 20
-329.9924095518772
 30
0.0
  0
LINE
  5
380
330
1E5
100
AcDbEntity
  8
レイヤー 1
 62
    75
420
  6921064
370
    20
100
AcDbLine
 10
94.30973648941147
 20
-329.7924095518772
 30
0.0
 11
94.30973648941147
 21
-313.9924095518773
 31
0.0
  0
LINE
  5
381
330
1E5
100
AcDbEntity
  8
レイヤー 1
 62
    75
420
  6921064
370
    20
100
AcDbLine
 10
94.50973648941149
 20
-254.9924095518771
 30
0.0
 11
95.80973648941153
 21
-254.9924095518771
 31
0.0
  0
LINE
  5
382
330
1E5
100
AcDbEntity
  8
レイヤー 1
 62
    75
420
  6921064
370
    20
100
AcDbLine
 10
94.50973648941149
 20
-252.2924095518773
 30
0.0
 11
95.80973648941153
 21
-252.2924095518773
 31
0.0
  0
LINE
  5
383
330
1E5
100
AcDbEntity
  8
レイヤー 1
 62
    75
420
  6921064
370
    20
100
AcDbLine
 10
95.80973648941153
 20
-252.2924095518773
 30
0.0
 11
95.80973648941153
 21
-254.9924095518771
 31
0.0
  0
SPLINE
  5
384
330
1E5
100
AcDbEntity
  8
レイヤー 1
 62
    75
420
  6921064
370
    20
100
AcDbSpline
210
0.0
220
0.0
230
1.0
 70
     8
 71
     3
 72
     8
 73
     4
 74
     0
 42
0.0000000001
 43
0.0000000001
 40
0.0
 40
0.0
 40
0.0
 40
0.0
 40
1.0
 40
1.0
 40
1.0
 40
1.0
 10
94.50973648941149
 20
-254.9924095518771
 30
0.0
 10
94.39927953944529
 20
-254.9924095518771
 30
0.0
 10
94.30973648941147
 20
-255.0819526019109
 30
0.0
 10
94.30973648941147
 20
-255.1924095518771
 30
0.0
  0
SPLINE
  5
385
330
1E5
100
AcDbEntity
  8
レイヤー 1
 62
    75
420
  6921064
370
    20
100
AcDbSpline
210
0.0
220
0.0
230
1.0
 70
     8
 71
     3
 72
     8
 73
     4
 74
     0
 42
0.0000000001
 43
0.0000000001
 40
0.0
 40
0.0
 40
0.0
 40
0.0
 40
1.0
 40
1.0
 40
1.0
 40
1.0
 10
94.30973648941147
 20
-252.0924095518773
 30
0.0
 10
94.30973648941147
 20
-252.2028665018435
 30
0.0
 10
94.39927953944529
 20
-252.2924095518773
 30
0.0
 10
94.50973648941149
 20
-252.2924095518773
 30
0.0
  0
LINE
  5
386
330
1E5
100
AcDbEntity
  8
レイヤー 1
 62
    75
420
  6921064
370
    20
100
AcDbLine
 10
94.50973648941149
 20
-329.9924095518772
 30
0.0
 11
95.80973648941153
 21
-329.9924095518772
 31
0.0
  0
LINE
  5
387
330
1E5
100
AcDbEntity
  8
レイヤー 1
 62
    75
420
  6921064
370
    20
100
AcDbLine
 10
94.50973648941149
 20
-332.692409551877
 30
0.0
 11
95.80973648941153
 21
-332.692409551877
 31
0.0
  0
LINE
  5
388
330
1E5
100
AcDbEntity
  8
レイヤー 1
 62
    75
420
  6921064
370
    20
100
AcDbLine
 10
95.80973648941153
 20
-332.692409551877
 30
0.0
 11
95.80973648941153
 21
-329.9924095518772
 31
0.0
  0
SPLINE
  5
389
330
1E5
100
AcDbEntity
  8
レイヤー 1
 62
    75
420
  6921064
370
    20
100
AcDbSpline
210
0.0
220
0.0
230
1.0
 70
     8
 71
     3
 72
     8
 73
     4
 74
     0
 42
0.0000000001
 43
0.0000000001
 40
0.0
 40
0.0
 40
0.0
 40
0.0
 40
1.0
 40
1.0
 40
1.0
 40
1.0
 10
94.30973648941147
 20
-329.7924095518772
 30
0.0
 10
94.30973648941147
 20
-329.9028665018433
 30
0.0
 10
94.39927953944529
 20
-329.9924095518772
 30
0.0
 10
94.50973648941149
 20
-329.9924095518772
 30
0.0
  0
SPLINE
  5
38A
330
1E5
100
AcDbEntity
  8
レイヤー 1
 62
    75
420
  6921064
370
    20
100
AcDbSpline
210
0.0
220
0.0
230
1.0
 70
     8
 71
     3
 72
     8
 73
     4
 74
     0
 42
0.0000000001
 43
0.0000000001
 40
0.0
 40
0.0
 40
0.0
 40
0.0
 40
1.0
 40
1.0
 40
1.0
 40
1.0
 10
94.50973648941149
 20
-332.692409551877
 30
0.0
 10
94.39927953944529
 20
-332.692409551877
 30
0.0
 10
94.30973648941147
 20
-332.7819526019108
 30
0.0
 10
94.30973648941147
 20
-332.8924095518769
 30
0.0
  0
INSERT
  5
38C
330
1E5
100
AcDbEntity
  8
レイヤー 1
100
AcDbBlockReference
  2
Block_31
 10
0.0
 20
0.0
 30
0.0
  0
INSERT
  5
39C
330
1E5
100
AcDbEntity
  8
レイヤー 1
100
AcDbBlockReference
  2
Block_32
 10
0.0
 20
0.0
 30
0.0
  0
ENDBLK
  5
1E8
330
1E5
100
AcDbEntity
  8
0
100
AcDbBlockEnd
  0
BLOCK
  5
250
330
24E
100
AcDbEntity
  8
0
100
AcDbBlockBegin
  2
Block_18
 70
     0
 10
0.0
 20
0.0
 30
0.0
  3
Block_18
  1

  0
LINE
  5
252
330
24E
100
AcDbEntity
  8
レイヤー 1
 62
   251
420
  4934474
370
    20
100
AcDbLine
 10
94.30973648941147
 20
-244.1924095518773
 30
0.0
 11
94.30973648941147
 21
-228.7470048587561
 31
0.0
  0
LINE
  5
253
330
24E
100
AcDbEntity
  8
レイヤー 1
 62
   251
420
  4934474
370
    20
100
AcDbLine
 10
99.30973648941167
 20
-251.4924095518773
 30
0.0
 11
99.30973648941167
 21
-228.7470048587561
 31
0.0
  0
LINE
  5
254
330
24E
100
AcDbEntity
  8
レイヤー 1
 62
   251
420
  4934474
370
     0
100
AcDbLine
 10
95.30973648941152
 20
-229.9136715254232
 30
0.0
 11
94.30973648941147
 21
-229.7470048587562
 31
0.0
  0
LINE
  5
255
330
24E
100
AcDbEntity
  8
レイヤー 1
 62
   251
420
  4934474
370
     0
100
AcDbLine
 10
95.30973648941152
 20
-229.5803381920892
 30
0.0
 11
94.30973648941147
 21
-229.7470048587562
 31
0.0
  0
LINE
  5
256
330
24E
100
AcDbEntity
  8
レイヤー 1
 62
   251
420
  4934474
370
     0
100
AcDbLine
 10
94.30973648941147
 20
-229.7470048587562
 30
0.0
 11
95.30973648941152
 21
-229.7470048587562
 31
0.0
  0
LINE
  5
257
330
24E
100
AcDbEntity
  8
レイヤー 1
 62
   251
420
  4934474
370
     0
100
AcDbLine
 10
98.30973648941162
 20
-229.5803381920892
 30
0.0
 11
99.30973648941167
 21
-229.7470048587562
 31
0.0
  0
LINE
  5
258
330
24E
100
AcDbEntity
  8
レイヤー 1
 62
   251
420
  4934474
370
     0
100
AcDbLine
 10
98.30973648941162
 20
-229.9136715254232
 30
0.0
 11
99.30973648941167
 21
-229.7470048587562
 31
0.0
  0
LINE
  5
259
330
24E
100
AcDbEntity
  8
レイヤー 1
 62
   251
420
  4934474
370
     0
100
AcDbLine
 10
99.30973648941167
 20
-229.7470048587562
 30
0.0
 11
98.30973648941162
 21
-229.7470048587562
 31
0.0
  0
LINE
  5
25A
330
24E
100
AcDbEntity
  8
レイヤー 1
 62
   251
420
  4934474
370
     0
100
AcDbLine
 10
95.30973648941152
 20
-229.9136715254232
 30
0.0
 11
94.30973648941147
 21
-229.7470048587562
 31
0.0
  0
LINE
  5
25B
330
24E
100
AcDbEntity
  8
レイヤー 1
 62
   251
420
  4934474
370
     0
100
AcDbLine
 10
95.30973648941152
 20
-229.5803381920892
 30
0.0
 11
94.30973648941147
 21
-229.7470048587562
 31
0.0
  0
LINE
  5
25C
330
24E
100
AcDbEntity
  8
レイヤー 1
 62
   251
420
  4934474
370
     0
100
AcDbLine
 10
94.30973648941147
 20
-229.7470048587562
 30
0.0
 11
95.30973648941152
 21
-229.7470048587562
 31
0.0
  0
LINE
  5
25D
330
24E
100
AcDbEntity
  8
レイヤー 1
 62
   251
420
  4934474
370
     0
100
AcDbLine
 10
98.30973648941162
 20
-229.5803381920892
 30
0.0
 11
99.30973648941167
 21
-229.7470048587562
 31
0.0
  0
LINE
  5
25E
330
24E
100
AcDbEntity
  8
レイヤー 1
 62
   251
420
  4934474
370
     0
100
AcDbLine
 10
98.30973648941162
 20
-229.9136715254232
 30
0.0
 11
99.30973648941167
 21
-229.7470048587562
 31
0.0
  0
LINE
  5
25F
330
24E
100
AcDbEntity
  8
レイヤー 1
 62
   251
420
  4934474
370
     0
100
AcDbLine
 10
99.30973648941167
 20
-229.7470048587562
 30
0.0
 11
98.30973648941162
 21
-229.7470048587562
 31
0.0
  0
LINE
  5
260
330
24E
100
AcDbEntity
  8
レイヤー 1
 62
   251
420
  4934474
370
    20
100
AcDbLine
 10
94.30973648941147
 20
-229.7470048587562
 30
0.0
 11
99.30973648941167
 21
-229.7470048587562
 31
0.0
  0
MTEXT
  5
261
330
24E
100
AcDbEntity
  8
レイヤー 1
100
AcDbMText
 10
95.35572134389111
 20
-228.747019392683
 30
0.0
 40
0.2
 41
0.0
 46
0.0
 71
     7
 72
     1
  1
\C251;\c4868939;\FMS Gothic|b0|i0|c128;\H4.000000;\W1.155000;5
 73
     1
 44
1.0
  0
ENDBLK
  5
251
330
24E
100
AcDbEntity
  8
0
100
AcDbBlockEnd
  0
BLOCK
  5
266
330
264
100
AcDbEntity
  8
0
100
AcDbBlockBegin
  2
Block_19
 70
     0
 10
0.0
 20
0.0
 30
0.0
  3
Block_19
  1

  0
LINE
  5
268
330
264
100
AcDbEntity
  8
レイヤー 1
 62
   251
420
  4934474
370
    20
100
AcDbLine
 10
93.50973648941145
 20
-347.4924095518775
 30
0.0
 11
53.43977258292157
 21
-347.4924095518775
 31
0.0
  0
LINE
  5
269
330
264
100
AcDbEntity
  8
レイヤー 1
 62
   251
420
  4934474
370
    20
100
AcDbLine
 10
93.50973648941145
 20
-237.4924095518768
 30
0.0
 11
53.43977258292157
 21
-237.4924095518768
 31
0.0
  0
LINE
  5
26A
330
264
100
AcDbEntity
  8
レイヤー 1
 62
   251
420
  4934474
370
     0
100
AcDbLine
 10
54.77310591625559
 20
-345.4924095518774
 30
0.0
 11
54.43977258292161
 21
-347.4924095518775
 31
0.0
  0
LINE
  5
26B
330
264
100
AcDbEntity
  8
レイヤー 1
 62
   251
420
  4934474
370
     0
100
AcDbLine
 10
54.10643924958762
 20
-345.4924095518774
 30
0.0
 11
54.43977258292161
 21
-347.4924095518775
 31
0.0
  0
LINE
  5
26C
330
264
100
AcDbEntity
  8
レイヤー 1
 62
   251
420
  4934474
370
     0
100
AcDbLine
 10
54.43977258292161
 20
-347.4924095518775
 30
0.0
 11
54.43977258292161
 21
-345.4924095518774
 31
0.0
  0
LINE
  5
26D
330
264
100
AcDbEntity
  8
レイヤー 1
 62
   251
420
  4934474
370
     0
100
AcDbLine
 10
54.10643924958762
 20
-239.4924095518768
 30
0.0
 11
54.43977258292161
 21
-237.4924095518768
 31
0.0
  0
LINE
  5
26E
330
264
100
AcDbEntity
  8
レイヤー 1
 62
   251
420
  4934474
370
     0
100
AcDbLine
 10
54.77310591625559
 20
-239.4924095518768
 30
0.0
 11
54.43977258292161
 21
-237.4924095518768
 31
0.0
  0
LINE
  5
26F
330
264
100
AcDbEntity
  8
レイヤー 1
 62
   251
420
  4934474
370
     0
100
AcDbLine
 10
54.43977258292161
 20
-237.4924095518768
 30
0.0
 11
54.43977258292161
 21
-239.4924095518768
 31
0.0
  0
LINE
  5
270
330
264
100
AcDbEntity
  8
レイヤー 1
 62
   251
420
  4934474
370
     0
100
AcDbLine
 10
54.77310591625559
 20
-345.4924095518774
 30
0.0
 11
54.43977258292161
 21
-347.4924095518775
 31
0.0
  0
LINE
  5
271
330
264
100
AcDbEntity
  8
レイヤー 1
 62
   251
420
  4934474
370
     0
100
AcDbLine
 10
54.10643924958762
 20
-345.4924095518774
 30
0.0
 11
54.43977258292161
 21
-347.4924095518775
 31
0.0
  0
LINE
  5
272
330
264
100
AcDbEntity
  8
レイヤー 1
 62
   251
420
  4934474
370
     0
100
AcDbLine
 10
54.43977258292161
 20
-347.4924095518775
 30
0.0
 11
54.43977258292161
 21
-345.4924095518774
 31
0.0
  0
LINE
  5
273
330
264
100
AcDbEntity
  8
レイヤー 1
 62
   251
420
  4934474
370
     0
100
AcDbLine
 10
54.10643924958762
 20
-239.4924095518768
 30
0.0
 11
54.43977258292161
 21
-237.4924095518768
 31
0.0
  0
LINE
  5
274
330
264
100
AcDbEntity
  8
レイヤー 1
 62
   251
420
  4934474
370
     0
100
AcDbLine
 10
54.77310591625559
 20
-239.4924095518768
 30
0.0
 11
54.43977258292161
 21
-237.4924095518768
 31
0.0
  0
LINE
  5
275
330
264
100
AcDbEntity
  8
レイヤー 1
 62
   251
420
  4934474
370
     0
100
AcDbLine
 10
54.43977258292161
 20
-237.4924095518768
 30
0.0
 11
54.43977258292161
 21
-239.4924095518768
 31
0.0
  0
LINE
  5
276
330
264
100
AcDbEntity
  8
レイヤー 1
 62
   251
420
  4934474
370
    20
100
AcDbLine
 10
54.43977258292161
 20
-347.4924095518775
 30
0.0
 11
54.43977258292161
 21
-237.4924095518768
 31
0.0
  0
MTEXT
  5
277
330
264
100
AcDbEntity
  8
レイヤー 1
100
AcDbMText
 10
52.790016330661
 20
-300.4891519431069
 30
0.0
 40
0.2
 41
0.0
 46
0.0
 71
     7
 72
     1
  1
\C251;\c4868939;\FMS Gothic|b0|i0|c128;\H4.000000;\W1.155000;φ110
 11
0.0000000000000001
 21
1.0
 31
0.0
 73
     1
 44
1.0
  0
ENDBLK
  5
267
330
264
100
AcDbEntity
  8
0
100
AcDbBlockEnd
  0
BLOCK
  5
27A
330
278
100
AcDbEntity
  8
0
100
AcDbBlockBegin
  2
Block_20
 70
     0
 10
0.0
 20
0.0
 30
0.0
  3
Block_20
  1

  0
LINE
  5
27C
330
278
100
AcDbEntity
  8
レイヤー 1
 62
   251
420
  4934474
370
    20
100
AcDbLine
 10
100.3097364894117
 20
-332.4924095518769
 30
0.0
 11
131.8464857066925
 21
-332.4924095518769
 31
0.0
  0
LINE
  5
27D
330
278
100
AcDbEntity
  8
レイヤー 1
 62
   251
420
  4934474
370
    20
100
AcDbLine
 10
100.3097364894117
 20
-252.4924095518773
 30
0.0
 11
131.8464857066925
 21
-252.4924095518773
 31
0.0
  0
LINE
  5
27E
330
278
100
AcDbEntity
  8
レイヤー 1
 62
   251
420
  4934474
370
     0
100
AcDbLine
 10
131.1798190400264
 20
-330.4924095518769
 30
0.0
 11
130.8464857066925
 21
-332.4924095518769
 31
0.0
  0
LINE
  5
27F
330
278
100
AcDbEntity
  8
レイヤー 1
 62
   251
420
  4934474
370
     0
100
AcDbLine
 10
130.5131523733585
 20
-330.4924095518769
 30
0.0
 11
130.8464857066925
 21
-332.4924095518769
 31
0.0
  0
LINE
  5
280
330
278
100
AcDbEntity
  8
レイヤー 1
 62
   251
420
  4934474
370
     0
100
AcDbLine
 10
130.8464857066925
 20
-332.4924095518769
 30
0.0
 11
130.8464857066925
 21
-330.4924095518769
 31
0.0
  0
LINE
  5
281
330
278
100
AcDbEntity
  8
レイヤー 1
 62
   251
420
  4934474
370
     0
100
AcDbLine
 10
130.5131523733585
 20
-254.4924095518767
 30
0.0
 11
130.8464857066925
 21
-252.4924095518773
 31
0.0
  0
LINE
  5
282
330
278
100
AcDbEntity
  8
レイヤー 1
 62
   251
420
  4934474
370
     0
100
AcDbLine
 10
131.1798190400264
 20
-254.4924095518767
 30
0.0
 11
130.8464857066925
 21
-252.4924095518773
 31
0.0
  0
LINE
  5
283
330
278
100
AcDbEntity
  8
レイヤー 1
 62
   251
420
  4934474
370
     0
100
AcDbLine
 10
130.8464857066925
 20
-252.4924095518773
 30
0.0
 11
130.8464857066925
 21
-254.4924095518767
 31
0.0
  0
LINE
  5
284
330
278
100
AcDbEntity
  8
レイヤー 1
 62
   251
420
  4934474
370
     0
100
AcDbLine
 10
131.1798190400264
 20
-330.4924095518769
 30
0.0
 11
130.8464857066925
 21
-332.4924095518769
 31
0.0
  0
LINE
  5
285
330
278
100
AcDbEntity
  8
レイヤー 1
 62
   251
420
  4934474
370
     0
100
AcDbLine
 10
130.5131523733585
 20
-330.4924095518769
 30
0.0
 11
130.8464857066925
 21
-332.4924095518769
 31
0.0
  0
LINE
  5
286
330
278
100
AcDbEntity
  8
レイヤー 1
 62
   251
420
  4934474
370
     0
100
AcDbLine
 10
130.8464857066925
 20
-332.4924095518769
 30
0.0
 11
130.8464857066925
 21
-330.4924095518769
 31
0.0
  0
LINE
  5
287
330
278
100
AcDbEntity
  8
レイヤー 1
 62
   251
420
  4934474
370
     0
100
AcDbLine
 10
130.5131523733585
 20
-254.4924095518767
 30
0.0
 11
130.8464857066925
 21
-252.4924095518773
 31
0.0
  0
LINE
  5
288
330
278
100
AcDbEntity
  8
レイヤー 1
 62
   251
420
  4934474
370
     0
100
AcDbLine
 10
131.1798190400264
 20
-254.4924095518767
 30
0.0
 11
130.8464857066925
 21
-252.4924095518773
 31
0.0
  0
LINE
  5
289
330
278
100
AcDbEntity
  8
レイヤー 1
 62
   251
420
  4934474
370
     0
100
AcDbLine
 10
130.8464857066925
 20
-252.4924095518773
 30
0.0
 11
130.8464857066925
 21
-254.4924095518767
 31
0.0
  0
LINE
  5
28A
330
278
100
AcDbEntity
  8
レイヤー 1
 62
   251
420
  4934474
370
    20
100
AcDbLine
 10
130.8464857066925
 20
-332.4924095518769
 30
0.0
 11
130.8464857066925
 21
-252.4924095518773
 31
0.0
  0
MTEXT
  5
28B
330
278
100
AcDbEntity
  8
レイヤー 1
100
AcDbMText
 10
129.1967435725728
 20
-298.988468349732
 30
0.0
 40
0.2
 41
0.0
 46
0.0
 71
     7
 72
     1
  1
\C251;\c4868939;\FMS Gothic|b0|i0|c128;\H4.000000;\W1.155000;φ80
 11
0.0000000000000001
 21
1.0
 31
0.0
 73
     1
 44
1.0
  0
ENDBLK
  5
27B
330
278
100
AcDbEntity
  8
0
100
AcDbBlockEnd
  0
BLOCK
  5
297
330
295
100
AcDbEntity
  8
0
100
AcDbBlockBegin
  2
Block_21
 70
     0
 10
0.0
 20
0.0
 30
0.0
  3
Block_21
  1

  0
LINE
  5
299
330
295
100
AcDbEntity
  8
レイヤー 1
 62
   251
420
  4934474
370
    20
100
AcDbLine
 10
97.80973648941161
 20
-345.4924095518812
 30
0.0
 11
97.80973648941161
 21
-354.21661136313
 31
0.0
  0
LINE
  5
29A
330
295
100
AcDbEntity
  8
レイヤー 1
 62
   251
420
  4934474
370
    20
100
AcDbLine
 10
99.30973648941167
 20
-333.492409551877
 30
0.0
 11
99.30973648941167
 21
-354.21661136313
 31
0.0
  0
LINE
  5
29B
330
295
100
AcDbEntity
  8
レイヤー 1
 62
   251
420
  4934474
370
    20
100
AcDbLine
 10
97.80973648941161
 20
-353.21661136313
 30
0.0
 11
99.30973648941167
 21
-353.21661136313
 31
0.0
  0
LINE
  5
29C
330
295
100
AcDbEntity
  8
レイヤー 1
 62
   251
420
  4934474
370
     0
100
AcDbLine
 10
96.80973648941156
 20
-353.049944696463
 30
0.0
 11
97.80973648941161
 21
-353.21661136313
 31
0.0
  0
LINE
  5
29D
330
295
100
AcDbEntity
  8
レイヤー 1
 62
   251
420
  4934474
370
     0
100
AcDbLine
 10
96.80973648941156
 20
-353.383278029797
 30
0.0
 11
97.80973648941161
 21
-353.21661136313
 31
0.0
  0
LINE
  5
29E
330
295
100
AcDbEntity
  8
レイヤー 1
 62
   251
420
  4934474
370
     0
100
AcDbLine
 10
97.80973648941161
 20
-353.21661136313
 30
0.0
 11
96.80973648941156
 21
-353.21661136313
 31
0.0
  0
LINE
  5
29F
330
295
100
AcDbEntity
  8
レイヤー 1
 62
   251
420
  4934474
370
    20
100
AcDbLine
 10
97.80973648941161
 20
-353.21661136313
 30
0.0
 11
94.8097364894115
 21
-353.21661136313
 31
0.0
  0
LINE
  5
2A0
330
295
100
AcDbEntity
  8
レイヤー 1
 62
   251
420
  4934474
370
     0
100
AcDbLine
 10
100.3097364894117
 20
-353.383278029797
 30
0.0
 11
99.30973648941167
 21
-353.21661136313
 31
0.0
  0
LINE
  5
2A1
330
295
100
AcDbEntity
  8
レイヤー 1
 62
   251
420
  4934474
370
     0
100
AcDbLine
 10
100.3097364894117
 20
-353.049944696463
 30
0.0
 11
99.30973648941167
 21
-353.21661136313
 31
0.0
  0
LINE
  5
2A2
330
295
100
AcDbEntity
  8
レイヤー 1
 62
   251
420
  4934474
370
     0
100
AcDbLine
 10
99.30973648941167
 20
-353.21661136313
 30
0.0
 11
100.3097364894117
 21
-353.21661136313
 31
0.0
  0
LINE
  5
2A3
330
295
100
AcDbEntity
  8
レイヤー 1
 62
   251
420
  4934474
370
    20
100
AcDbLine
 10
99.30973648941167
 20
-353.21661136313
 30
0.0
 11
109.7057851340976
 21
-353.21661136313
 31
0.0
  0
MTEXT
  5
2A4
330
295
100
AcDbEntity
  8
レイヤー 1
100
AcDbMText
 10
101.0520790695178
 20
-352.2166093157681
 30
0.0
 40
0.2
 41
0.0
 46
0.0
 71
     7
 72
     1
  1
\C251;\c4868939;\FMS Gothic|b0|i0|c128;\H4.000000;\W1.155000;1.5
 73
     1
 44
1.0
  0
ENDBLK
  5
298
330
295
100
AcDbEntity
  8
0
100
AcDbBlockEnd
  0
BLOCK
  5
2AA
330
2A8
100
AcDbEntity
  8
0
100
AcDbBlockBegin
  2
Block_22
 70
     0
 10
0.0
 20
0.0
 30
0.0
  3
Block_22
  1

  0
LINE
  5
2AC
330
2A8
100
AcDbEntity
  8
レイヤー 1
 62
   251
420
  4934474
370
     0
100
AcDbLine
 10
224.5431059093019
 20
-281.3224214373375
 30
0.0
 11
223.5949225146929
 21
-281.6812055339259
 31
0.0
  0
LINE
  5
2AD
330
2A8
100
AcDbEntity
  8
レイヤー 1
 62
   251
420
  4934474
370
     0
100
AcDbLine
 10
224.3754903431318
 20
-281.034296233496
 30
0.0
 11
223.5949225146929
 21
-281.6812055339259
 31
0.0
  0
LINE
  5
2AE
330
2A8
100
AcDbEntity
  8
レイヤー 1
 62
   251
420
  4934474
370
     0
100
AcDbLine
 10
223.5949225146929
 20
-281.6812055339259
 30
0.0
 11
224.4592981262175
 21
-281.1783588354168
 31
0.0
  0
LINE
  5
2AF
330
2A8
100
AcDbEntity
  8
レイヤー 1
 62
   251
420
  4934474
370
    20
100
AcDbLine
 10
223.5949225146929
 20
-281.6812055339259
 30
0.0
 11
267.9734497202517
 21
-255.8641931234686
 31
0.0
  0
MTEXT
  5
2B0
330
2A8
100
AcDbEntity
  8
レイヤー 1
100
AcDbMText
 10
259.990563938258
 20
-259.3512638940402
 30
0.0
 40
0.2
 41
0.0
 46
0.0
 71
     7
 72
     1
  1
\C251;\c4868939;\FMS Gothic|b0|i0|c128;\H4.000000;\W1.155000;∅43
 11
0.8643755980054139
 21
0.502846721748072
 31
0.0
 73
     1
 44
1.0
  0
ENDBLK
  5
2AB
330
2A8
100
AcDbEntity
  8
0
100
AcDbBlockEnd
  0
BLOCK
  5
2BB
330
2B9
100
AcDbEntity
  8
0
100
AcDbBlockBegin
  2
Block_23
 70
     0
 10
0.0
 20
0.0
 30
0.0
  3
Block_23
  1

  0
LWPOLYLINE
  5
2BD
330
2B9
100
AcDbEntity
  8
レイヤー 1
 62
   251
420
  4934474
370
     0
100
AcDbPolyline
 90
        1
 70
     0
 43
0.0
 10
97.02126671650653
 20
-241.3403086699346
  0
INSERT
  5
2BF
330
2B9
100
AcDbEntity
  8
レイヤー 1
100
AcDbBlockReference
  2
Block_24
 10
0.0
 20
0.0
 30
0.0
  0
ENDBLK
  5
2BC
330
2B9
100
AcDbEntity
  8
0
100
AcDbBlockEnd
  0
BLOCK
  5
2C0
330
2BE
100
AcDbEntity
  8
0
100
AcDbBlockBegin
  2
Block_24
 70
     0
 10
0.0
 20
0.0
 30
0.0
  3
Block_24
  1

  0
LWPOLYLINE
  5
2C2
330
2BE
100
AcDbEntity
  8
レイヤー 1
 62
   251
420
  4934474
370
    20
100
AcDbPolyline
 90
        1
 70
     0
 43
0.0
 10
113.7888033915514
 20
-235.2178088137583
  0
LWPOLYLINE
  5
2C3
330
2BE
100
AcDbEntity
  8
レイヤー 1
 62
   251
420
  4934474
370
    20
100
AcDbPolyline
 90
        1
 70
     0
 43
0.0
 10
97.02126671650653
 20
-241.3403086699346
  0
ENDBLK
  5
2C1
330
2BE
100
AcDbEntity
  8
0
100
AcDbBlockEnd
  0
BLOCK
  5
2C6
330
2C4
100
AcDbEntity
  8
0
100
AcDbBlockBegin
  2
Block_25
 70
     0
 10
0.0
 20
0.0
 30
0.0
  3
Block_25
  1

  0
LWPOLYLINE
  5
2C8
330
2C4
100
AcDbEntity
  8
レイヤー 1
 62
   251
420
  4934474
370
     0
100
AcDbPolyline
 90
        1
 70
     0
 43
0.0
 10
95.00540093724849
 20
-237.7426452118052
  0
LWPOLYLINE
  5
2C9
330
2C4
100
AcDbEntity
  8
レイヤー 1
 62
   251
420
  4934474
370
     0
100
AcDbPolyline
 90
        1
 70
     0
 43
0.0
 10
95.00540093724849
 20
-237.7426452118052
  0
LWPOLYLINE
  5
2CA
330
2C4
100
AcDbEntity
  8
レイヤー 1
 62
   251
420
  4934474
370
     0
100
AcDbPolyline
 90
        1
 70
     0
 43
0.0
 10
95.00540093724849
 20
-237.7426452118052
  0
ENDBLK
  5
2C7
330
2C4
100
AcDbEntity
  8
0
100
AcDbBlockEnd
  0
BLOCK
  5
2DA
330
2D8
100
AcDbEntity
  8
0
100
AcDbBlockBegin
  2
Block_26
 70
     0
 10
0.0
 20
0.0
 30
0.0
  3
Block_26
  1

  0
LWPOLYLINE
  5
2DC
330
2D8
100
AcDbEntity
  8
レイヤー 1
100
AcDbPolyline
 90
        3
 70
     1
 43
0.0
 10
203.010842675213
 20
-232.6716506376329
 10
205.0108497954812
 20
-232.3383161175882
 10
203.010842675213
 20
-232.0049815975435
  0
HATCH
  5
2DD
330
2D8
100
AcDbEntity
  8
レイヤー 1
 62
   251
420
  4934474
440
 33554687
100
AcDbHatch
 10
0.0
 20
0.0
 30
0.0
210
0.0
220
0.0
230
1.0
  2
SOLID
 70
     1
 71
     1
 91
        1
 92
        1
 93
        3
 72
     1
 10
203.010842675213
 20
-232.6716506376329
 11
205.0108497954812
 21
-232.3383161175882
 72
     1
 10
205.0108497954812
 20
-232.3383161175882
 11
203.010842675213
 21
-232.0049815975435
 72
     1
 10
203.010842675213
 20
-232.0049815975435
 11
203.010842675213
 21
-232.6716506376329
 97
        1
330
2DC
 75
     2
 76
     1
 98
        1
 10
0.0
 20
0.0
450
        0
451
        0
460
0.0
461
0.0
452
        0
462
0.0
453
        0
470

  0
LWPOLYLINE
  5
2DE
330
2D8
100
AcDbEntity
  8
レイヤー 1
 62
   251
420
  4934474
370
    20
100
AcDbPolyline
 90
        3
 70
     0
 43
0.0
 10
203.0108468669169
 20
-232.3383254680133
 10
195.2608468669174
 20
-232.3383254680133
 10
191.4466337266086
 20
-232.3383254680133
  0
ENDBLK
  5
2DB
330
2D8
100
AcDbEntity
  8
0
100
AcDbBlockEnd
  0
BLOCK
  5
2E2
330
2E0
100
AcDbEntity
  8
0
100
AcDbBlockBegin
  2
Block_27
 70
     0
 10
0.0
 20
0.0
 30
0.0
  3
Block_27
  1

  0
LWPOLYLINE
  5
2E4
330
2E0
100
AcDbEntity
  8
レイヤー 1
100
AcDbPolyline
 90
        4
 70
     1
 43
0.0
 10
203.0108468669169
 20
-351.3626799959521
 10
205.010846866917
 20
-351.6960133292855
 10
203.0108468669169
 20
-352.0293466626188
 10
203.0108468669169
 20
-352.0293466626188
  0
HATCH
  5
2E5
330
2E0
100
AcDbEntity
  8
レイヤー 1
 62
   251
420
  4934474
440
 33554687
100
AcDbHatch
 10
0.0
 20
0.0
 30
0.0
210
0.0
220
0.0
230
1.0
  2
SOLID
 70
     1
 71
     1
 91
        1
 92
        1
 93
        3
 72
     1
 10
203.0108468669169
 20
-351.3626799959521
 11
205.010846866917
 21
-351.6960133292855
 72
     1
 10
205.010846866917
 20
-351.6960133292855
 11
203.0108468669169
 21
-352.0293466626188
 72
     1
 10
203.0108468669169
 20
-352.0293466626188
 11
203.0108468669169
 21
-351.3626799959521
 97
        1
330
2E4
 75
     2
 76
     1
 98
        1
 10
0.0
 20
0.0
450
        0
451
        0
460
0.0
461
0.0
452
        0
462
0.0
453
        0
470

  0
LWPOLYLINE
  5
2E6
330
2E0
100
AcDbEntity
  8
レイヤー 1
 62
   251
420
  4934474
370
    20
100
AcDbPolyline
 90
        3
 70
     0
 43
0.0
 10
203.0108468669169
 20
-351.6960133292855
 10
195.2608468669174
 20
-351.6960133292855
 10
191.4466337266086
 20
-351.6960133292855
  0
ENDBLK
  5
2E3
330
2E0
100
AcDbEntity
  8
0
100
AcDbBlockEnd
  0
BLOCK
  5
2EC
330
2EA
100
AcDbEntity
  8
0
100
AcDbBlockBegin
  2
Block_28
 70
     0
 10
0.0
 20
0.0
 30
0.0
  3
Block_28
  1

  0
LINE
  5
2EE
330
2EA
100
AcDbEntity
  8
レイヤー 1
 62
   251
420
  4934474
370
    20
100
AcDbLine
 10
100.1597364894115
 20
-320.0924095518772
 30
0.0
 11
125.8105031376755
 21
-320.0924095518772
 31
0.0
  0
LINE
  5
2EF
330
2EA
100
AcDbEntity
  8
レイヤー 1
 62
   251
420
  4934474
370
    20
100
AcDbLine
 10
100.1597364894115
 20
-264.8924095518771
 30
0.0
 11
125.8105031376755
 21
-264.8924095518771
 31
0.0
  0
LINE
  5
2F0
330
2EA
100
AcDbEntity
  8
レイヤー 1
 62
   251
420
  4934474
370
     0
100
AcDbLine
 10
124.9771698043425
 20
-319.0924095518771
 30
0.0
 11
124.8105031376755
 21
-320.0924095518772
 31
0.0
  0
LINE
  5
2F1
330
2EA
100
AcDbEntity
  8
レイヤー 1
 62
   251
420
  4934474
370
     0
100
AcDbLine
 10
124.6438364710085
 20
-319.0924095518771
 30
0.0
 11
124.8105031376755
 21
-320.0924095518772
 31
0.0
  0
LINE
  5
2F2
330
2EA
100
AcDbEntity
  8
レイヤー 1
 62
   251
420
  4934474
370
     0
100
AcDbLine
 10
124.8105031376755
 20
-320.0924095518772
 30
0.0
 11
124.8105031376755
 21
-319.0924095518771
 31
0.0
  0
LINE
  5
2F3
330
2EA
100
AcDbEntity
  8
レイヤー 1
 62
   251
420
  4934474
370
     0
100
AcDbLine
 10
124.6105031376752
 20
-266.0924095518772
 30
0.0
 11
124.8105031376755
 21
-264.8924095518771
 31
0.0
  0
LINE
  5
2F4
330
2EA
100
AcDbEntity
  8
レイヤー 1
 62
   251
420
  4934474
370
     0
100
AcDbLine
 10
125.0105031376758
 20
-266.0924095518772
 30
0.0
 11
124.8105031376755
 21
-264.8924095518771
 31
0.0
  0
LINE
  5
2F5
330
2EA
100
AcDbEntity
  8
レイヤー 1
 62
   251
420
  4934474
370
     0
100
AcDbLine
 10
124.8105031376755
 20
-264.8924095518771
 30
0.0
 11
124.8105031376755
 21
-266.0924095518772
 31
0.0
  0
LINE
  5
2F6
330
2EA
100
AcDbEntity
  8
レイヤー 1
 62
   251
420
  4934474
370
     0
100
AcDbLine
 10
124.9771698043425
 20
-319.0924095518771
 30
0.0
 11
124.8105031376755
 21
-320.0924095518772
 31
0.0
  0
LINE
  5
2F7
330
2EA
100
AcDbEntity
  8
レイヤー 1
 62
   251
420
  4934474
370
     0
100
AcDbLine
 10
124.6438364710085
 20
-319.0924095518771
 30
0.0
 11
124.8105031376755
 21
-320.0924095518772
 31
0.0
  0
LINE
  5
2F8
330
2EA
100
AcDbEntity
  8
レイヤー 1
 62
   251
420
  4934474
370
     0
100
AcDbLine
 10
124.8105031376755
 20
-320.0924095518772
 30
0.0
 11
124.8105031376755
 21
-319.0924095518771
 31
0.0
  0
LINE
  5
2F9
330
2EA
100
AcDbEntity
  8
レイヤー 1
 62
   251
420
  4934474
370
     0
100
AcDbLine
 10
124.6105031376752
 20
-266.0924095518772
 30
0.0
 11
124.8105031376755
 21
-264.8924095518771
 31
0.0
  0
LINE
  5
2FA
330
2EA
100
AcDbEntity
  8
レイヤー 1
 62
   251
420
  4934474
370
     0
100
AcDbLine
 10
125.0105031376758
 20
-266.0924095518772
 30
0.0
 11
124.8105031376755
 21
-264.8924095518771
 31
0.0
  0
LINE
  5
2FB
330
2EA
100
AcDbEntity
  8
レイヤー 1
 62
   251
420
  4934474
370
     0
100
AcDbLine
 10
124.8105031376755
 20
-264.8924095518771
 30
0.0
 11
124.8105031376755
 21
-266.0924095518772
 31
0.0
  0
LINE
  5
2FC
330
2EA
100
AcDbEntity
  8
レイヤー 1
 62
   251
420
  4934474
370
    20
100
AcDbLine
 10
124.8105031376755
 20
-320.0924095518772
 30
0.0
 11
124.8105031376755
 21
-264.8924095518771
 31
0.0
  0
MTEXT
  5
2FD
330
2EA
100
AcDbEntity
  8
レイヤー 1
100
AcDbMText
 10
122.5245410189023
 20
-305.7367213862394
 30
0.0
 40
0.2
 41
0.0
 46
0.0
 71
     7
 72
     1
  1
\C251;\c4868939;\FMS Gothic|b0|i0|c128;\H4.000000;\W1.155000;φ55.2
 11
0.0000000000000001
 21
1.0
 31
0.0
 73
     1
 44
1.0
  0
ENDBLK
  5
2ED
330
2EA
100
AcDbEntity
  8
0
100
AcDbBlockEnd
  0
BLOCK
  5
308
330
306
100
AcDbEntity
  8
0
100
AcDbBlockBegin
  2
Block_29
 70
     0
 10
0.0
 20
0.0
 30
0.0
  3
Block_29
  1

  0
LINE
  5
30A
330
306
100
AcDbEntity
  8
レイヤー 1
 62
   251
420
  4934474
370
    20
100
AcDbLine
 10
97.6097364894116
 20
-260.6924095518776
 30
0.0
 11
97.6097364894116
 21
-238.5911819454941
 31
0.0
  0
LINE
  5
30B
330
306
100
AcDbEntity
  8
レイヤー 1
 62
   251
420
  4934474
370
    20
100
AcDbLine
 10
97.6097364894116
 20
-239.5911819454942
 30
0.0
 11
99.30973648941167
 21
-239.5911819454942
 31
0.0
  0
LINE
  5
30C
330
306
100
AcDbEntity
  8
レイヤー 1
 62
   251
420
  4934474
370
     0
100
AcDbLine
 10
96.40973648941155
 20
-239.3911819454942
 30
0.0
 11
97.6097364894116
 21
-239.5911819454942
 31
0.0
  0
LINE
  5
30D
330
306
100
AcDbEntity
  8
レイヤー 1
 62
   251
420
  4934474
370
     0
100
AcDbLine
 10
96.40973648941155
 20
-239.7911819454942
 30
0.0
 11
97.6097364894116
 21
-239.5911819454942
 31
0.0
  0
LINE
  5
30E
330
306
100
AcDbEntity
  8
レイヤー 1
 62
   251
420
  4934474
370
     0
100
AcDbLine
 10
97.6097364894116
 20
-239.5911819454942
 30
0.0
 11
96.40973648941155
 21
-239.5911819454942
 31
0.0
  0
LINE
  5
30F
330
306
100
AcDbEntity
  8
レイヤー 1
 62
   251
420
  4934474
370
    20
100
AcDbLine
 10
97.6097364894116
 20
-239.5911819454942
 30
0.0
 11
96.58379995851358
 21
-239.5911819454942
 31
0.0
  0
LINE
  5
310
330
306
100
AcDbEntity
  8
レイヤー 1
 62
   251
420
  4934474
370
     0
100
AcDbLine
 10
100.5097364894117
 20
-239.7911819454942
 30
0.0
 11
99.30973648941167
 21
-239.5911819454942
 31
0.0
  0
LINE
  5
311
330
306
100
AcDbEntity
  8
レイヤー 1
 62
   251
420
  4934474
370
     0
100
AcDbLine
 10
100.5097364894117
 20
-239.3911819454942
 30
0.0
 11
99.30973648941167
 21
-239.5911819454942
 31
0.0
  0
LINE
  5
312
330
306
100
AcDbEntity
  8
レイヤー 1
 62
   251
420
  4934474
370
     0
100
AcDbLine
 10
99.30973648941167
 20
-239.5911819454942
 30
0.0
 11
100.5097364894117
 21
-239.5911819454942
 31
0.0
  0
LINE
  5
313
330
306
100
AcDbEntity
  8
レイヤー 1
 62
   251
420
  4934474
370
    20
100
AcDbLine
 10
99.30973648941167
 20
-239.5911819454942
 30
0.0
 11
131.7384382032894
 21
-239.5911819454942
 31
0.0
  0
MTEXT
  5
314
330
306
100
AcDbEntity
  8
レイヤー 1
100
AcDbMText
 10
115.4746268089677
 20
-237.9651044462596
 30
0.0
 40
0.2
 41
0.0
 46
0.0
 71
     7
 72
     1
  1
\C251;\c4868939;\FMS Gothic|b0|i0|c128;\H4.000000;\W1.155000;1.8
 73
     1
 44
1.0
  0
ENDBLK
  5
309
330
306
100
AcDbEntity
  8
0
100
AcDbBlockEnd
  0
BLOCK
  5
317
330
315
100
AcDbEntity
  8
0
100
AcDbBlockBegin
  2
Block_30
 70
     0
 10
0.0
 20
0.0
 30
0.0
  3
Block_30
  1

  0
LINE
  5
319
330
315
100
AcDbEntity
  8
レイヤー 1
 62
   251
420
  4934474
370
    20
100
AcDbLine
 10
100.1597364894115
 20
-264.8924095518771
 30
0.0
 11
117.7169275840037
 21
-264.8924095518771
 31
0.0
  0
LINE
  5
31A
330
315
100
AcDbEntity
  8
レイヤー 1
 62
   251
420
  4934474
370
    20
100
AcDbLine
 10
100.1597364894115
 20
-261.692409551877
 30
0.0
 11
117.7169275840037
 21
-261.692409551877
 31
0.0
  0
LINE
  5
31B
330
315
100
AcDbEntity
  8
レイヤー 1
 62
   251
420
  4934474
370
    20
100
AcDbLine
 10
116.7169275840036
 20
-264.8924095518771
 30
0.0
 11
116.7169275840036
 21
-261.692409551877
 31
0.0
  0
LINE
  5
31C
330
315
100
AcDbEntity
  8
レイヤー 1
 62
   251
420
  4934474
370
     0
100
AcDbLine
 10
116.4835942506696
 20
-266.2924095518771
 30
0.0
 11
116.7169275840036
 21
-264.8924095518771
 31
0.0
  0
LINE
  5
31D
330
315
100
AcDbEntity
  8
レイヤー 1
 62
   251
420
  4934474
370
     0
100
AcDbLine
 10
116.9502609173373
 20
-266.2924095518771
 30
0.0
 11
116.7169275840036
 21
-264.8924095518771
 31
0.0
  0
LINE
  5
31E
330
315
100
AcDbEntity
  8
レイヤー 1
 62
   251
420
  4934474
370
     0
100
AcDbLine
 10
116.7169275840036
 20
-264.8924095518771
 30
0.0
 11
116.7169275840036
 21
-266.2924095518771
 31
0.0
  0
LINE
  5
31F
330
315
100
AcDbEntity
  8
レイヤー 1
 62
   251
420
  4934474
370
    20
100
AcDbLine
 10
116.7169275840036
 20
-264.8924095518771
 30
0.0
 11
116.7169275840036
 21
-283.1939696906498
 31
0.0
  0
LINE
  5
320
330
315
100
AcDbEntity
  8
レイヤー 1
 62
   251
420
  4934474
370
     0
100
AcDbLine
 10
116.916927584004
 20
-260.492409551877
 30
0.0
 11
116.7169275840036
 21
-261.692409551877
 31
0.0
  0
LINE
  5
321
330
315
100
AcDbEntity
  8
レイヤー 1
 62
   251
420
  4934474
370
     0
100
AcDbLine
 10
116.516927584003
 20
-260.492409551877
 30
0.0
 11
116.7169275840036
 21
-261.692409551877
 31
0.0
  0
LINE
  5
322
330
315
100
AcDbEntity
  8
レイヤー 1
 62
   251
420
  4934474
370
     0
100
AcDbLine
 10
116.7169275840036
 20
-261.692409551877
 30
0.0
 11
116.7169275840036
 21
-260.492409551877
 31
0.0
  0
LINE
  5
323
330
315
100
AcDbEntity
  8
レイヤー 1
 62
   251
420
  4934474
370
    20
100
AcDbLine
 10
116.7169275840036
 20
-261.692409551877
 30
0.0
 11
116.7169275840036
 21
-257.9473122060647
 31
0.0
  0
MTEXT
  5
324
330
315
100
AcDbEntity
  8
レイヤー 1
100
AcDbMText
 10
115.0908647037576
 20
-283.4517767303523
 30
0.0
 40
0.2
 41
0.0
 46
0.0
 71
     7
 72
     1
  1
\C251;\c4868939;\FMS Gothic|b0|i0|c128;\H4.000000;\W1.155000;3.2
 11
0.0000000000000001
 21
1.0
 31
0.0
 73
     1
 44
1.0
  0
ENDBLK
  5
318
330
315
100
AcDbEntity
  8
0
100
AcDbBlockEnd
  0
BLOCK
  5
38D
330
38B
100
AcDbEntity
  8
0
100
AcDbBlockBegin
  2
Block_31
 70
     0
 10
0.0
 20
0.0
 30
0.0
  3
Block_31
  1

  0
LINE
  5
38F
330
38B
100
AcDbEntity
  8
レイヤー 1
 62
   251
420
  4934474
370
    20
100
AcDbLine
 10
93.50973648941145
 20
-254.9924095518771
 30
0.0
 11
89.1126378492364
 21
-254.9924095518771
 31
0.0
  0
LINE
  5
390
330
38B
100
AcDbEntity
  8
レイヤー 1
 62
   251
420
  4934474
370
    20
100
AcDbLine
 10
93.50973648941145
 20
-252.2924095518773
 30
0.0
 11
89.1126378492364
 21
-252.2924095518773
 31
0.0
  0
LINE
  5
391
330
38B
100
AcDbEntity
  8
レイヤー 1
 62
   251
420
  4934474
370
    20
100
AcDbLine
 10
90.11263784923643
 20
-254.9924095518771
 30
0.0
 11
90.11263784923643
 21
-252.2924095518773
 31
0.0
  0
LINE
  5
392
330
38B
100
AcDbEntity
  8
レイヤー 1
 62
   251
420
  4934474
370
     0
100
AcDbLine
 10
89.94597118256946
 20
-255.9924095518771
 30
0.0
 11
90.11263784923643
 21
-254.9924095518771
 31
0.0
  0
LINE
  5
393
330
38B
100
AcDbEntity
  8
レイヤー 1
 62
   251
420
  4934474
370
     0
100
AcDbLine
 10
90.27930451590343
 20
-255.9924095518771
 30
0.0
 11
90.11263784923643
 21
-254.9924095518771
 31
0.0
  0
LINE
  5
394
330
38B
100
AcDbEntity
  8
レイヤー 1
 62
   251
420
  4934474
370
     0
100
AcDbLine
 10
90.11263784923643
 20
-254.9924095518771
 30
0.0
 11
90.11263784923643
 21
-255.9924095518771
 31
0.0
  0
LINE
  5
395
330
38B
100
AcDbEntity
  8
レイヤー 1
 62
   251
420
  4934474
370
    20
100
AcDbLine
 10
90.11263784923643
 20
-254.9924095518771
 30
0.0
 11
90.11263784923643
 21
-279.9646674663525
 31
0.0
  0
LINE
  5
396
330
38B
100
AcDbEntity
  8
レイヤー 1
 62
   251
420
  4934474
370
     0
100
AcDbLine
 10
90.27930451590343
 20
-251.2924095518773
 30
0.0
 11
90.11263784923643
 21
-252.2924095518773
 31
0.0
  0
LINE
  5
397
330
38B
100
AcDbEntity
  8
レイヤー 1
 62
   251
420
  4934474
370
     0
100
AcDbLine
 10
89.94597118256946
 20
-251.2924095518773
 30
0.0
 11
90.11263784923643
 21
-252.2924095518773
 31
0.0
  0
LINE
  5
398
330
38B
100
AcDbEntity
  8
レイヤー 1
 62
   251
420
  4934474
370
     0
100
AcDbLine
 10
90.11263784923643
 20
-252.2924095518773
 30
0.0
 11
90.11263784923643
 21
-251.2924095518773
 31
0.0
  0
LINE
  5
399
330
38B
100
AcDbEntity
  8
レイヤー 1
 62
   251
420
  4934474
370
    20
100
AcDbLine
 10
90.11263784923643
 20
-252.2924095518773
 30
0.0
 11
90.11263784923643
 21
-249.2043721403045
 31
0.0
  0
MTEXT
  5
39A
330
38B
100
AcDbEntity
  8
レイヤー 1
100
AcDbMText
 10
88.44597945651264
 20
-279.9646510801825
 30
0.0
 40
0.2
 41
0.0
 46
0.0
 71
     7
 72
     1
  1
\C251;\c4868939;\FKozGoPr6N-Regular|b0|i0|c128;\H4.000000;\W0.750000;2-2.7
 11
0.0000000000000001
 21
1.0
 31
0.0
 73
     1
 44
1.0
  0
ENDBLK
  5
38E
330
38B
100
AcDbEntity
  8
0
100
AcDbBlockEnd
  0
BLOCK
  5
39D
330
39B
100
AcDbEntity
  8
0
100
AcDbBlockBegin
  2
Block_32
 70
     0
 10
0.0
 20
0.0
 30
0.0
  3
Block_32
  1

  0
LINE
  5
39F
330
39B
100
AcDbEntity
  8
レイヤー 1
 62
   251
420
  4934474
370
    20
100
AcDbLine
 10
94.30973648941147
 20
-348.2924095518769
 30
0.0
 11
94.30973648941147
 21
-357.9521471757741
 31
0.0
  0
LINE
  5
3A0
330
39B
100
AcDbEntity
  8
レイヤー 1
 62
   251
420
  4934474
370
    20
100
AcDbLine
 10
95.80973648941153
 20
-333.692409551877
 30
0.0
 11
95.80973648941153
 21
-357.9521471757741
 31
0.0
  0
LINE
  5
3A1
330
39B
100
AcDbEntity
  8
レイヤー 1
 62
   251
420
  4934474
370
    20
100
AcDbLine
 10
94.30973648941147
 20
-356.9521471757741
 30
0.0
 11
95.80973648941153
 21
-356.9521471757741
 31
0.0
  0
LINE
  5
3A2
330
39B
100
AcDbEntity
  8
レイヤー 1
 62
   251
420
  4934474
370
     0
100
AcDbLine
 10
93.30973648941144
 20
-356.7854805091071
 30
0.0
 11
94.30973648941147
 21
-356.9521471757741
 31
0.0
  0
LINE
  5
3A3
330
39B
100
AcDbEntity
  8
レイヤー 1
 62
   251
420
  4934474
370
     0
100
AcDbLine
 10
93.30973648941144
 20
-357.1188138424411
 30
0.0
 11
94.30973648941147
 21
-356.9521471757741
 31
0.0
  0
LINE
  5
3A4
330
39B
100
AcDbEntity
  8
レイヤー 1
 62
   251
420
  4934474
370
     0
100
AcDbLine
 10
94.30973648941147
 20
-356.9521471757741
 30
0.0
 11
93.30973648941144
 21
-356.9521471757741
 31
0.0
  0
LINE
  5
3A5
330
39B
100
AcDbEntity
  8
レイヤー 1
 62
   251
420
  4934474
370
    20
100
AcDbLine
 10
94.30973648941147
 20
-356.9521471757741
 30
0.0
 11
68.62426046777362
 21
-356.9521471757741
 31
0.0
  0
LINE
  5
3A6
330
39B
100
AcDbEntity
  8
レイヤー 1
 62
   251
420
  4934474
370
     0
100
AcDbLine
 10
96.80973648941156
 20
-357.1188138424411
 30
0.0
 11
95.80973648941153
 21
-356.9521471757741
 31
0.0
  0
LINE
  5
3A7
330
39B
100
AcDbEntity
  8
レイヤー 1
 62
   251
420
  4934474
370
     0
100
AcDbLine
 10
96.80973648941156
 20
-356.7854805091071
 30
0.0
 11
95.80973648941153
 21
-356.9521471757741
 31
0.0
  0
LINE
  5
3A8
330
39B
100
AcDbEntity
  8
レイヤー 1
 62
   251
420
  4934474
370
     0
100
AcDbLine
 10
95.80973648941153
 20
-356.9521471757741
 30
0.0
 11
96.80973648941156
 21
-356.9521471757741
 31
0.0
  0
LINE
  5
3A9
330
39B
100
AcDbEntity
  8
レイヤー 1
 62
   251
420
  4934474
370
    20
100
AcDbLine
 10
95.80973648941153
 20
-356.9521471757741
 30
0.0
 11
99.5780176932087
 21
-356.9521471757741
 31
0.0
  0
MTEXT
  5
3AA
330
39B
100
AcDbEntity
  8
レイヤー 1
100
AcDbMText
 10
68.62426192369409
 20
-355.2854788421818
 30
0.0
 40
0.2
 41
0.0
 46
0.0
 71
     7
 72
     1
  1
\C251;\c4868939;\FKozGoPr6N-Regular|b0|i0|c128;\H4.000000;\W0.750000;2-1.5
 73
     1
 44
1.0
  0
ENDBLK
  5
39E
330
39B
100
AcDbEntity
  8
0
100
AcDbBlockEnd
  0
ENDSEC
  0
SECTION
  2
ENTITIES
  0
INSERT
  5
7A
330
70
100
AcDbEntity
  8
レイヤー 1
100
AcDbBlockReference
  2
Block_0
 10
0.0
 20
0.0
 30
0.0
  0
INSERT
  5
1E6
330
70
100
AcDbEntity
  8
レイヤー 1
100
AcDbBlockReference
  2
Block_17
 10
0.0
 20
0.0
 30
0.0
  0
MTEXT
  5
3AB
330
70
100
AcDbEntity
  8
レイヤー 1
100
AcDbMText
 10
230.5599147644086
 20
-373.9444443509583
 30
0.0
 40
0.2
 41
0.0
 46
0.0
 71
     7
 72
     1
  1
\C251;\c5659228;\FKozGoPr6N-Regular|b0|i0|c128;\H2.747433;\W1.000000;5mm/10mm
 73
     1
 44
1.0
  0
MTEXT
  5
3AC
330
70
100
AcDbEntity
  8
レイヤー 1
100
AcDbMText
 10
229.3055554982292
 20
-386.8797443694259
 30
0.0
 40
0.2
 41
0.0
 46
0.0
 71
     7
 72
     1
  1
\C251;\c5659228;\FKozGoPr6N-Regular|b0|i0|c128;\H4.495800;\W1.000000;SC-WBM-0174590S
 73
     1
 44
1.0
  0
LINE
  5
3AD
330
70
100
AcDbEntity
  8
レイヤー 1
100
AcDbLine
 10
227.2672838938006
 20
-150.4800081920975
 30
0.0
 11
210.804320934953
 21
-202.9905812073904
 31
0.0
  0
LINE
  5
3AE
330
70
100
AcDbEntity
  8
レイヤー 1
100
AcDbLine
 10
226.6401234001298
 20
-259.8198608789709
 30
0.0
 11
210.804320934953
 21
-202.9905812073904
 31
0.0
  0
LINE
  5
3AF
330
70
100
AcDbEntity
  8
レイヤー 1
100
AcDbLine
 10
288.2783124414938
 20
-177.3296295852944
 30
0.0
 11
288.2783124414938
 21
-176.7352946997438
 31
0.0
  0
LINE
  5
3B0
330
70
100
AcDbEntity
  8
レイヤー 1
100
AcDbLine
 10
184.4635802007976
 20
-142.1800081920975
 30
0.0
 11
149.3425925552565
 21
-201.6320987150213
 31
0.0
  0
LINE
  5
3B1
330
70
100
AcDbEntity
  8
レイヤー 1
100
AcDbLine
 10
183.5108486140615
 20
-272.9924095518771
 30
0.0
 11
149.3425925552565
 21
-201.6320987150213
 31
0.0
  0
LINE
  5
3B2
330
70
100
AcDbEntity
  8
レイヤー 1
100
AcDbLine
 10
177.1568006284538
 20
-133.4050081920976
 30
0.0
 11
149.3425925552565
 21
-201.6320987150213
 31
0.0
  0
MTEXT
  5
3B3
330
70
100
AcDbEntity
  8
レイヤー 1
100
AcDbMText
 10
148.1273925410931
 20
-202.8079480829786
 30
0.0
 40
0.2
 41
0.0
 46
0.0
 71
     7
 72
     1
  1
\C251;\c5659228;\FKozGoPr6N-Regular|b0|i0|c128;\H1.498600;\W1.000000;●
 73
     1
 44
1.0
  0
MTEXT
  5
3B4
330
70
100
AcDbEntity
  8
レイヤー 1
100
AcDbMText
 10
209.7754276175052
 20
-204.1645499778658
 30
0.0
 40
0.2
 41
0.0
 46
0.0
 71
     7
 72
     1
  1
\C251;\c5659228;\FKozGoPr6N-Regular|b0|i0|c128;\H1.498600;\W1.000000;●
 73
     1
 44
1.0
  0
MTEXT
  5
3B5
330
70
100
AcDbEntity
  8
レイヤー 1
100
AcDbMText
 10
215.3511962352247
 20
-199.4370944054359
 30
0.0
 40
0.2
 41
0.0
 46
0.0
 71
     7
 72
     1
  1
\C251;\c5659228;\FKozGoPr6N-Regular|b0|i0|c128;\H2.497667;\W1.000000;底面
 73
     1
 44
1.0
  0
MTEXT
  5
3B6
330
70
100
AcDbEntity
  8
レイヤー 1
100
AcDbMText
 10
215.4462808706176
 20
-207.6214354949696
 30
0.0
 40
0.2
 41
0.0
 46
0.0
 71
     7
 72
     1
  1
\C251;\c5659228;\FKozGoPr6N-Regular|b0|i0|c128;\H2.247900;\W1.000000;線径 2.0mm 内径 74.5mm
 73
     1
 44
1.0
  0
MTEXT
  5
3B7
330
70
100
AcDbEntity
  8
レイヤー 1
100
AcDbMText
 10
154.8301703171952
 20
-197.7123073507455
 30
0.0
 40
0.2
 41
0.0
 46
0.0
 71
     7
 72
     1
  1
\C251;\c5659228;\FKozGoPr6N-Regular|b0|i0|c128;\H2.497667;\W1.000000;上面
 73
     1
 44
1.0
  0
MTEXT
  5
3B8
330
70
100
AcDbEntity
  8
レイヤー 1
100
AcDbMText
 10
154.6734184726163
 20
-206.8845295706747
 30
0.0
 40
0.2
 41
0.0
 46
0.0
 71
     7
 72
     1
  1
\C251;\c5659228;\FKozGoPr6N-Regular|b0|i0|c128;\H2.247900;\W1.000000;線径 3.1mm 内径 53.8 
 73
     1
 44
1.0
  0
MTEXT
  5
3B9
330
70
100
AcDbEntity
  8
レイヤー 1
100
AcDbMText
 10
153.1330947493144
 20
-202.4075633920522
 30
0.0
 40
0.2
 41
0.0
 46
0.0
 71
     7
 72
     1
  1
\C251;\c4868939;\FKozGoPr6N-Regular|b0|i0|c128;\H2.247900;\W0.770000;Oリング白色
 73
     1
 44
1.0
  0
MTEXT
  5
3BA
330
70
100
AcDbEntity
  8
レイヤー 1
100
AcDbMText
 10
175.8442407804204
 20
-134.3537500681368
 30
0.0
 40
0.2
 41
0.0
 46
0.0
 71
     7
 72
     1
  1
\C251;\c5659228;\FKozGoPr6N-Regular|b0|i0|c128;\H1.498600;\W1.000000;●
 73
     1
 44
1.0
  0
MTEXT
  5
3BB
330
70
100
AcDbEntity
  8
レイヤー 1
100
AcDbMText
 10
226.2385054128686
 20
-151.2876916719084
 30
0.0
 40
0.2
 41
0.0
 46
0.0
 71
     7
 72
     1
  1
\C251;\c5659228;\FKozGoPr6N-Regular|b0|i0|c128;\H1.498600;\W1.000000;●
 73
     1
 44
1.0
  0
MTEXT
  5
3BC
330
70
100
AcDbEntity
  8
レイヤー 1
100
AcDbMText
 10
182.3372714540495
 20
-274.0430756201693
 30
0.0
 40
0.2
 41
0.0
 46
0.0
 71
     7
 72
     1
  1
\C251;\c5659228;\FKozGoPr6N-Regular|b0|i0|c128;\H1.498600;\W1.000000;●
 73
     1
 44
1.0
  0
MTEXT
  5
3BD
330
70
100
AcDbEntity
  8
レイヤー 1
100
AcDbMText
 10
225.454520105583
 20
-260.6274754614409
 30
0.0
 40
0.2
 41
0.0
 46
0.0
 71
     7
 72
     1
  1
\C251;\c5659228;\FKozGoPr6N-Regular|b0|i0|c128;\H1.498600;\W1.000000;●
 73
     1
 44
1.0
  0
ENDSEC
  0
SECTION
  2
OBJECTS
  0
DICTIONARY
  5
C
330
0
100
AcDbDictionary
281
     1
  3
ACAD_COLOR
350
63
  3
ACAD_DETAILVIEWSTYLE
350
6A
  3
ACAD_GROUP
350
D
  3
ACAD_LAYOUT
350
62
  3
ACAD_MATERIAL
350
10
  3
ACAD_MLEADERSTYLE
350
66
  3
ACAD_MLINESTYLE
350
5F
  3
ACAD_PLOTSETTINGS
350
61
  3
ACAD_PLOTSTYLENAME
350
E
  3
ACAD_SCALELIST
350
42
  3
ACAD_SECTIONVIEWSTYLE
350
68
  3
ACAD_TABLESTYLE
350
64
  3
ACAD_VISUALSTYLE
350
29
  3
ACDB_RECOMPOSE_DATA
350
3C6
  3
AcDbVariableDictionary
350
3BE
  0
DICTIONARY
  5
63
102
{ACAD_REACTORS
330
C
102
}
330
C
100
AcDbDictionary
281
     1
  0
DICTIONARY
  5
6A
102
{ACAD_REACTORS
330
C
102
}
330
C
100
AcDbDictionary
281
     1
  3
Imperial24
350
6B
  0
DICTIONARY
  5
D
102
{ACAD_REACTORS
330
C
102
}
330
C
100
AcDbDictionary
281
     1
  0
DICTIONARY
  5
62
102
{ACAD_REACTORS
330
C
102
}
330
C
100
AcDbDictionary
281
     1
  3
Layout1
350
6F
  3
Layout2
350
77
  3
Model
350
73
  0
DICTIONARY
  5
10
102
{ACAD_REACTORS
330
C
102
}
330
C
100
AcDbDictionary
281
     1
  3
ByBlock
350
19
  3
ByLayer
350
11
  3
Global
350
21
  0
DICTIONARY
  5
66
102
{ACAD_REACTORS
330
C
102
}
330
C
100
AcDbDictionary
281
     1
  3
Standard
350
67
  0
DICTIONARY
  5
5F
102
{ACAD_REACTORS
330
C
102
}
330
C
100
AcDbDictionary
281
     1
  3
Standard
350
60
  0
DICTIONARY
  5
61
102
{ACAD_REACTORS
330
C
102
}
330
C
100
AcDbDictionary
281
     1
  0
ACDBDICTIONARYWDFLT
  5
E
102
{ACAD_REACTORS
330
C
102
}
330
C
100
AcDbDictionary
281
     1
  3
Normal
350
F
100
AcDbDictionaryWithDefault
340
F
  0
DICTIONARY
  5
42
102
{ACAD_REACTORS
330
C
102
}
330
C
100
AcDbDictionary
281
     1
  3
A0
350
43
  3
A1
350
44
  3
A2
350
45
  3
A3
350
46
  3
A4
350
47
  3
A5
350
48
  3
A6
350
49
  3
A7
350
4A
  3
A8
350
4B
  3
A9
350
4C
  3
B0
350
4D
  3
B1
350
4E
  3
B2
350
4F
  3
B3
350
50
  3
B4
350
51
  3
B5
350
52
  3
B6
350
53
  0
DICTIONARY
  5
68
102
{ACAD_REACTORS
330
C
102
}
330
C
100
AcDbDictionary
281
     1
  3
Imperial24
350
69
  0
DICTIONARY
  5
64
102
{ACAD_REACTORS
330
C
102
}
330
C
100
AcDbDictionary
281
     1
  3
Standard
350
65
  0
DICTIONARY
  5
29
102
{ACAD_REACTORS
330
C
102
}
330
C
100
AcDbDictionary
281
     1
  3
2dWireframe
350
2F
  3
Basic
350
2E
  3
Brighten
350
35
  3
ColorChange
350
39
  3
Conceptual
350
32
  3
Dim
350
34
  3
EdgeColorOff
350
41
  3
Facepattern
350
38
  3
Flat
350
2A
  3
FlatWithEdges
350
2B
  3
Gouraud
350
2C
  3
GouraudWithEdges
350
2D
  3
Hidden
350
31
  3
JitterOff
350
3F
  3
Linepattern
350
37
  3
OverhangOff
350
40
  3
Realistic
350
33
  3
Shaded
350
3E
  3
Shaded with edges
350
3D
  3
Shades of Gray
350
3A
  3
Sketchy
350
3B
  3
Thicken
350
36
  3
Wireframe
350
30
  3
X-Ray
350
3C
  0
XRECORD
  5
3C6
102
{ACAD_REACTORS
330
C
102
}
330
C
100
AcDbXrecord
280
     1
 90
        1
330
65
  0
DICTIONARY
  5
3BE
102
{ACAD_REACTORS
330
C
102
}
330
C
100
AcDbDictionary
281
     1
  3
CANNOSCALE
350
3C3
  3
CMLEADERSTYLE
350
3C0
  3
CTABLESTYLE
350
3BF
  3
CVIEWDETAILSTYLE
350
3C1
  3
CVIEWSECTIONSTYLE
350
3C2
  0
ACDBDETAILVIEWSTYLE
  5
6B
102
{ACAD_REACTORS
330
6A
102
}
330
6A
100
AcDbModelDocViewStyle
 70
     0
  3
Imperial24
290
     1
300
Imperial24
 90
        0
100
AcDbDetailViewStyle
 70
     0
 71
     0
 90
        3
 71
     1
340
55
 62
   256
 40
0.24
340
0
 62
   256
 40
0.24
300

 40
0.36
280
     3
 71
     2
340
5D
 90
       25
 62
   256
 71
     3
340
55
 62
   256
 40
0.24
 90
        1
 40
0.75
 90
        1
300
%<\AcVar ViewType \f "%tc1">% %<\AcVar ViewDetailId>%\PSCALE %<\AcVar ViewScale \f "%sn">%
 71
     4
340
5D
 90
       25
 62
   256
340
5D
 90
       25
 62
   256
280
     0
  0
LAYOUT
  5
6F
102
{ACAD_REACTORS
330
62
102
}
330
62
100
AcDbPlotSettings
  1

  2

  4

  6

 40
0.0
 41
0.0
 42
0.0
 43
0.0
 44
0.0
 45
0.0
 46
0.0
 47
0.0
 48
0.0
 49
0.0
140
0.0
141
0.0
142
1.0
143
1.0
 70
   688
 72
     0
 73
     0
 74
     5
  7

 75
    16
147
1.0
 76
     0
 77
     2
 78
   300
148
0.0
149
0.0
100
AcDbLayout
  1
Layout1
 70
     1
 71
     1
 10
0.0
 20
0.0
 11
12.0
 21
9.0
 12
0.0
 22
0.0
 32
0.0
 14
0.0
 24
0.0
 34
0.0
 15
0.0
 25
0.0
 35
0.0
146
0.0
 13
0.0
 23
0.0
 33
0.0
 16
1.0
 26
0.0
 36
0.0
 17
0.0
 27
1.0
 37
0.0
 76
     0
330
6C
  0
LAYOUT
  5
77
102
{ACAD_REACTORS
330
62
102
}
330
62
100
AcDbPlotSettings
  1

  2

  4

  6

 40
0.0
 41
0.0
 42
0.0
 43
0.0
 44
0.0
 45
0.0
 46
0.0
 47
0.0
 48
0.0
 49
0.0
140
0.0
141
0.0
142
1.0
143
1.0
 70
   688
 72
     0
 73
     0
 74
     5
  7

 75
    16
147
1.0
 76
     0
 77
     2
 78
   300
148
0.0
149
0.0
100
AcDbLayout
  1
Layout2
 70
     1
 71
     2
 10
0.0
 20
0.0
 11
12.0
 21
9.0
 12
0.0
 22
0.0
 32
0.0
 14
0.0
 24
0.0
 34
0.0
 15
0.0
 25
0.0
 35
0.0
146
0.0
 13
0.0
 23
0.0
 33
0.0
 16
1.0
 26
0.0
 36
0.0
 17
0.0
 27
1.0
 37
0.0
 76
     0
330
74
  0
LAYOUT
  5
73
102
{ACAD_REACTORS
330
62
102
}
330
62
100
AcDbPlotSettings
  1

  2

  4

  6

 40
0.0
 41
0.0
 42
0.0
 43
0.0
 44
0.0
 45
0.0
 46
0.0
 47
0.0
 48
0.0
 49
0.0
140
0.0
141
0.0
142
1.0
143
1.0
 70
  1712
 72
     0
 73
     0
 74
     0
  7

 75
     0
147
1.0
 76
     0
 77
     2
 78
   300
148
0.0
149
0.0
100
AcDbLayout
  1
Model
 70
     1
 71
     0
 10
0.0
 20
0.0
 11
12.0
 21
9.0
 12
0.0
 22
0.0
 32
0.0
 14
0.0
 24
0.0
 34
0.0
 15
0.0
 25
0.0
 35
0.0
146
0.0
 13
0.0
 23
0.0
 33
0.0
 16
1.0
 26
0.0
 36
0.0
 17
0.0
 27
1.0
 37
0.0
 76
     0
330
70
  0
MATERIAL
  5
19
102
{ACAD_XDICTIONARY
360
1A
102
}
102
{ACAD_REACTORS
330
10
102
}
330
10
100
AcDbMaterial
  1
ByBlock
 72
     0
 43
0.0208333333333333
 43
0.0
 43
0.0
 43
0.0
 43
0.0
 43
0.0208333333333333
 43
0.0
 43
0.0
 43
0.0
 43
0.0
 43
1.0
 43
0.0
 43
0.0
 43
0.0
 43
0.0
 43
1.0
 77
     0
 47
0.0208333333333333
 47
0.0
 47
0.0
 47
0.0
 47
0.0
 47
0.0208333333333333
 47
0.0
 47
0.0
 47
0.0
 47
0.0
 47
1.0
 47
0.0
 47
0.0
 47
0.0
 47
0.0
 47
1.0
171
     0
 49
0.0208333333333333
 49
0.0
 49
0.0
 49
0.0
 49
0.0
 49
0.0208333333333333
 49
0.0
 49
0.0
 49
0.0
 49
0.0
 49
1.0
 49
0.0
 49
0.0
 49
0.0
 49
0.0
 49
1.0
175
     0
142
0.0208333333333333
142
0.0
142
0.0
142
0.0
142
0.0
142
0.0208333333333333
142
0.0
142
0.0
142
0.0
142
0.0
142
1.0
142
0.0
142
0.0
142
0.0
142
0.0
142
1.0
179
     0
144
0.0208333333333333
144
0.0
144
0.0
144
0.0
144
0.0
144
0.0208333333333333
144
0.0
144
0.0
144
0.0
144
0.0
144
1.0
144
0.0
144
0.0
144
0.0
144
0.0
144
1.0
147
0.0208333333333333
147
0.0
147
0.0
147
0.0
147
0.0
147
0.0208333333333333
147
0.0
147
0.0
147
0.0
147
0.0
147
1.0
147
0.0
147
0.0
147
0.0
147
0.0
147
1.0
  0
MATERIAL
  5
11
102
{ACAD_XDICTIONARY
360
12
102
}
102
{ACAD_REACTORS
330
10
102
}
330
10
100
AcDbMaterial
  1
ByLayer
 72
     0
 43
0.0208333333333333
 43
0.0
 43
0.0
 43
0.0
 43
0.0
 43
0.0208333333333333
 43
0.0
 43
0.0
 43
0.0
 43
0.0
 43
1.0
 43
0.0
 43
0.0
 43
0.0
 43
0.0
 43
1.0
 77
     0
 47
0.0208333333333333
 47
0.0
 47
0.0
 47
0.0
 47
0.0
 47
0.0208333333333333
 47
0.0
 47
0.0
 47
0.0
 47
0.0
 47
1.0
 47
0.0
 47
0.0
 47
0.0
 47
0.0
 47
1.0
171
     0
 49
0.0208333333333333
 49
0.0
 49
0.0
 49
0.0
 49
0.0
 49
0.0208333333333333
 49
0.0
 49
0.0
 49
0.0
 49
0.0
 49
1.0
 49
0.0
 49
0.0
 49
0.0
 49
0.0
 49
1.0
175
     0
142
0.0208333333333333
142
0.0
142
0.0
142
0.0
142
0.0
142
0.0208333333333333
142
0.0
142
0.0
142
0.0
142
0.0
142
1.0
142
0.0
142
0.0
142
0.0
142
0.0
142
1.0
179
     0
144
0.0208333333333333
144
0.0
144
0.0
144
0.0
144
0.0
144
0.0208333333333333
144
0.0
144
0.0
144
0.0
144
0.0
144
1.0
144
0.0
144
0.0
144
0.0
144
0.0
144
1.0
147
0.0208333333333333
147
0.0
147
0.0
147
0.0
147
0.0
147
0.0208333333333333
147
0.0
147
0.0
147
0.0
147
0.0
147
1.0
147
0.0
147
0.0
147
0.0
147
0.0
147
1.0
  0
MATERIAL
  5
21
102
{ACAD_XDICTIONARY
360
22
102
}
102
{ACAD_REACTORS
330
10
102
}
330
10
100
AcDbMaterial
  1
Global
 72
     0
 43
0.0208333333333333
 43
0.0
 43
0.0
 43
0.0
 43
0.0
 43
0.0208333333333333
 43
0.0
 43
0.0
 43
0.0
 43
0.0
 43
1.0
 43
0.0
 43
0.0
 43
0.0
 43
0.0
 43
1.0
 77
     0
 47
0.0208333333333333
 47
0.0
 47
0.0
 47
0.0
 47
0.0
 47
0.0208333333333333
 47
0.0
 47
0.0
 47
0.0
 47
0.0
 47
1.0
 47
0.0
 47
0.0
 47
0.0
 47
0.0
 47
1.0
171
     0
 49
0.0208333333333333
 49
0.0
 49
0.0
 49
0.0
 49
0.0
 49
0.0208333333333333
 49
0.0
 49
0.0
 49
0.0
 49
0.0
 49
1.0
 49
0.0
 49
0.0
 49
0.0
 49
0.0
 49
1.0
175
     0
142
0.0208333333333333
142
0.0
142
0.0
142
0.0
142
0.0
142
0.0208333333333333
142
0.0
142
0.0
142
0.0
142
0.0
142
1.0
142
0.0
142
0.0
142
0.0
142
0.0
142
1.0
179
     0
144
0.0208333333333333
144
0.0
144
0.0
144
0.0
144
0.0
144
0.0208333333333333
144
0.0
144
0.0
144
0.0
144
0.0
144
1.0
144
0.0
144
0.0
144
0.0
144
0.0
144
1.0
147
0.0208333333333333
147
0.0
147
0.0
147
0.0
147
0.0
147
0.0208333333333333
147
0.0
147
0.0
147
0.0
147
0.0
147
1.0
147
0.0
147
0.0
147
0.0
147
0.0
147
1.0
  0
MLEADERSTYLE
  5
67
102
{ACAD_REACTORS
330
66
102
}
330
66
100
AcDbMLeaderStyle
179
     2
170
     2
171
     1
172
     0
 90
        2
 40
0.0
 41
0.0
173
     1
 91
-1056964608
340
5B
 92
       -2
290
     1
 42
0.09
291
     1
 43
0.36
  3
Standard
 44
0.18
300

342
55
174
     1
178
     6
175
     1
176
     0
 93
-1056964608
 45
0.18
292
     0
297
     0
 46
0.18
 94
-1056964608
 47
1.0
 49
1.0
140
1.0
293
     1
141
0.0
294
     1
177
     0
142
1.0
295
     1
296
     0
143
0.125
271
     0
272
     9
273
     9
298
     1
  0
MLINESTYLE
  5
60
102
{ACAD_REACTORS
330
5F
102
}
330
5F
100
AcDbMlineStyle
  2
STANDARD
 70
     0
  3

 62
   256
 51
90.0
 52
90.0
 71
     2
 49
0.5
 62
   256
  6
BYLAYER
 49
-0.5
 62
   256
  6
BYLAYER
  0
ACDBPLACEHOLDER
  5
F
102
{ACAD_REACTORS
330
E
102
}
330
E
  0
SCALE
  5
43
102
{ACAD_REACTORS
330
42
102
}
330
42
100
AcDbScale
 70
     0
300
1:1
140
1.0
141
1.0
290
     1
  0
SCALE
  5
44
102
{ACAD_REACTORS
330
42
102
}
330
42
100
AcDbScale
 70
     0
300
1/128" = 1'-0"
140
0.0078125
141
12.0
290
     0
  0
SCALE
  5
45
102
{ACAD_REACTORS
330
42
102
}
330
42
100
AcDbScale
 70
     0
300
1/64" = 1'-0"
140
0.015625
141
12.0
290
     0
  0
SCALE
  5
46
102
{ACAD_REACTORS
330
42
102
}
330
42
100
AcDbScale
 70
     0
300
1/32" = 1'-0"
140
0.03125
141
12.0
290
     0
  0
SCALE
  5
47
102
{ACAD_REACTORS
330
42
102
}
330
42
100
AcDbScale
 70
     0
300
1/16" = 1'-0"
140
0.0625
141
12.0
290
     0
  0
SCALE
  5
48
102
{ACAD_REACTORS
330
42
102
}
330
42
100
AcDbScale
 70
     0
300
3/32" = 1'-0"
140
0.09375
141
12.0
290
     0
  0
SCALE
  5
49
102
{ACAD_REACTORS
330
42
102
}
330
42
100
AcDbScale
 70
     0
300
1/8" = 1'-0"
140
0.125
141
12.0
290
     0
  0
SCALE
  5
4A
102
{ACAD_REACTORS
330
42
102
}
330
42
100
AcDbScale
 70
     0
300
3/16" = 1'-0"
140
0.1875
141
12.0
290
     0
  0
SCALE
  5
4B
102
{ACAD_REACTORS
330
42
102
}
330
42
100
AcDbScale
 70
     0
300
1/4" = 1'-0"
140
0.25
141
12.0
290
     0
  0
SCALE
  5
4C
102
{ACAD_REACTORS
330
42
102
}
330
42
100
AcDbScale
 70
     0
300
3/8" = 1'-0"
140
0.375
141
12.0
290
     0
  0
SCALE
  5
4D
102
{ACAD_REACTORS
330
42
102
}
330
42
100
AcDbScale
 70
     0
300
1/2" = 1'-0"
140
0.5
141
12.0
290
     0
  0
SCALE
  5
4E
102
{ACAD_REACTORS
330
42
102
}
330
42
100
AcDbScale
 70
     0
300
3/4" = 1'-0"
140
0.75
141
12.0
290
     0
  0
SCALE
  5
4F
102
{ACAD_REACTORS
330
42
102
}
330
42
100
AcDbScale
 70
     0
300
1" = 1'-0"
140
1.0
141
12.0
290
     0
  0
SCALE
  5
50
102
{ACAD_REACTORS
330
42
102
}
330
42
100
AcDbScale
 70
     0
300
1-1/2" = 1'-0"
140
1.5
141
12.0
290
     0
  0
SCALE
  5
51
102
{ACAD_REACTORS
330
42
102
}
330
42
100
AcDbScale
 70
     0
300
3" = 1'-0"
140
3.0
141
12.0
290
     0
  0
SCALE
  5
52
102
{ACAD_REACTORS
330
42
102
}
330
42
100
AcDbScale
 70
     0
300
6" = 1'-0"
140
6.0
141
12.0
290
     0
  0
SCALE
  5
53
102
{ACAD_REACTORS
330
42
102
}
330
42
100
AcDbScale
 70
     0
300
1'-0" = 1'-0"
140
12.0
141
12.0
290
     0
  0
ACDBSECTIONVIEWSTYLE
  5
69
102
{ACAD_REACTORS
330
68
102
}
330
68
100
AcDbModelDocViewStyle
 70
     0
  3
Imperial24
290
     1
300
Imperial24
 90
        0
100
AcDbSectionViewStyle
 70
     0
 71
     0
 90
       78
 71
     1
340
55
 62
   256
 40
0.24
340
0
340
0
 62
   256
 40
0.24
300
I, O, Q, S, X, Z
 40
0.48
 90
        3
 40
0.18
 90
        1
 71
     2
340
5D
 90
       25
 62
   256
340
5D
 90
       50
 62
   256
 40
0.24
 40
0.0
 40
0.24
 71
     3
340
55
 62
   256
 40
0.24
 90
        1
 40
0.75
 90
        1
300
%<\AcVar ViewType \f "%tc1">% %<\AcVar ViewSectionStartId>%-%<\AcVar ViewSectionEndId>%\PSCALE %<\AcVar ViewScale \f "%sn">%
 71
     4
 62
   256
 62
   257
300
ANSI31
 40
1.0
 90
        0
290
     0
290
     0
 90
        6
 40
0.0
 40
1.570796326794896
 40
0.2617993877991494
 40
1.308996938995747
 40
-0.2617993877991494
 40
1.832595714594046
  0
TABLESTYLE
  5
65
102
{ACAD_XDICTIONARY
360
3C4
102
}
102
{ACAD_REACTORS
330
64
102
}
330
64
100
AcDbTableStyle
280
     0
  3
Standard
 70
     0
 71
     0
 40
0.06
 41
0.06
280
     0
281
     0
  7
Standard
140
0.18
170
     2
 62
     0
 63
     7
283
     0
 90
      512
 91
        0
  1

274
    -2
284
     1
 64
     0
275
    -2
285
     1
 65
     0
276
    -2
286
     1
 66
     0
277
    -2
287
     1
 67
     0
278
    -2
288
     1
 68
     0
279
    -2
289
     1
 69
     0
  7
Standard
140
0.25
170
     5
 62
     0
 63
     7
283
     0
 90
      512
 91
        0
  1

274
    -2
284
     1
 64
     0
275
    -2
285
     1
 65
     0
276
    -2
286
     1
 66
     0
277
    -2
287
     1
 67
     0
278
    -2
288
     1
 68
     0
279
    -2
289
     1
 69
     0
  7
Standard
140
0.18
170
     5
 62
     0
 63
     7
283
     0
 90
      512
 91
        0
  1

274
    -2
284
     1
 64
     0
275
    -2
285
     1
 65
     0
276
    -2
286
     1
 66
     0
277
    -2
287
     1
 67
     0
278
    -2
288
     1
 68
     0
279
    -2
289
     1
 69
     0
  0
VISUALSTYLE
  5
2F
102
{ACAD_REACTORS
330
29
102
}
330
29
100
AcDbVisualStyle
  2
2dWireframe
 70
     4
177
     3
291
     0
 70
    58
 90
        0
176
     1
 90
        2
176
     1
 90
        0
176
     1
 90
        0
176
     1
 40
0.6
176
     1
 40
30.0
176
     1
 62
     7
420
 16777215
176
     1
 90
        1
176
     1
 90
        4
176
     1
 62
     7
176
     1
 62
   257
176
     1
 90
        1
176
     1
 90
        1
176
     1
 40
1.0
176
     1
 90
        0
176
     1
 62
   257
176
     1
 40
1.0
176
     1
 90
        1
176
     1
 90
        6
176
     1
 90
        2
176
     1
 62
     7
176
     1
 90
        5
176
     1
 90
        0
176
     1
 90
        0
176
     1
290
     0
176
     1
 90
        1
176
     1
 40
0.0
176
     1
 90
        0
176
     1
290
     1
176
     1
290
     1
176
     1
290
     0
176
     1
290
     0
176
     1
290
     0
176
     1
290
     0
176
     1
290
     0
176
     1
290
     0
176
     1
290
     0
176
     1
 90
       50
176
     1
 40
0.0
176
     1
 40
1.0
176
     1
 90
        0
176
     1
 62
    18
420
        0
176
     1
 90
       50
176
     1
 90
        3
176
     1
 62
     5
420
      255
176
     1
290
     0
176
     1
 90
       50
176
     1
 90
       50
176
     1
 90
       50
176
     1
290
     0
176
     1
 90
       50
176
     1
 62
   256
176
     0
 40
1.0
176
     0
 90
        2
176
     1
  1
strokes_ogs.tif
176
     1
290
     0
176
     1
 40
1.0
176
     1
 40
1.0
176
     1
  0
VISUALSTYLE
  5
2E
102
{ACAD_REACTORS
330
29
102
}
330
29
100
AcDbVisualStyle
  2
Basic
 70
     7
177
     3
291
     1
 70
    58
 90
        1
176
     1
 90
        0
176
     1
 90
        1
176
     1
 90
        0
176
     1
 40
0.6
176
     1
 40
30.0
176
     1
 62
     7
420
 16777215
176
     1
 90
        0
176
     1
 90
        4
176
     1
 62
     7
176
     1
 62
   257
176
     1
 90
        1
176
     1
 90
        1
176
     1
 40
1.0
176
     1
 90
        8
176
     1
 62
     7
176
     1
 40
1.0
176
     1
 90
        1
176
     1
 90
        6
176
     1
 90
        2
176
     1
 62
     7
176
     1
 90
        5
176
     1
 90
        0
176
     1
 90
        0
176
     1
290
     0
176
     1
 90
        1
176
     1
 40
0.0
176
     1
 90
        0
176
     1
290
     0
176
     1
290
     1
176
     1
290
     1
176
     1
290
     0
176
     1
290
     0
176
     1
290
     0
176
     1
290
     0
176
     1
290
     0
176
     1
290
     0
176
     1
 90
       50
176
     1
 40
0.0
176
     1
 40
1.0
176
     1
 90
        0
176
     1
 62
    18
420
        0
176
     1
 90
       50
176
     1
 90
        3
176
     1
 62
     5
420
      255
176
     1
290
     0
176
     1
 90
       50
176
     1
 90
       50
176
     1
 90
       50
176
     1
290
     0
176
     1
 90
       50
176
     1
 62
   256
176
     0
 40
1.0
176
     0
 90
        2
176
     1
  1
strokes_ogs.tif
176
     1
290
     0
176
     1
 40
1.0
176
     1
 40
1.0
176
     1
  0
VISUALSTYLE
  5
35
102
{ACAD_REACTORS
330
29
102
}
330
29
100
AcDbVisualStyle
  2
Brighten
 70
    12
177
     3
291
     1
 70
    58
 90
        2
176
     1
 90
        2
176
     1
 90
        0
176
     1
 90
        0
176
     1
 40
0.6
176
     1
 40
30.0
176
     1
 62
     7
420
 16777215
176
     1
 90
        1
176
     1
 90
        4
176
     1
 62
     7
176
     1
 62
   257
176
     1
 90
        1
176
     1
 90
        1
176
     1
 40
1.0
176
     1
 90
        8
176
     1
 62
     7
176
     1
 40
1.0
176
     1
 90
        1
176
     1
 90
        6
176
     1
 90
        2
176
     1
 62
     7
176
     1
 90
        5
176
     1
 90
        0
176
     1
 90
        0
176
     1
290
     0
176
     1
 90
        1
176
     1
 40
50.0
176
     1
 90
        0
176
     1
290
     0
176
     1
290
     1
176
     1
290
     1
176
     1
290
     0
176
     1
290
     0
176
     1
290
     0
176
     1
290
     0
176
     1
290
     0
176
     1
290
     0
176
     1
 90
       50
176
     1
 40
0.0
176
     1
 40
1.0
176
     1
 90
        0
176
     1
 62
    18
420
        0
176
     1
 90
       50
176
     1
 90
        3
176
     1
 62
     5
420
      255
176
     1
290
     0
176
     1
 90
       50
176
     1
 90
       50
176
     1
 90
       50
176
     1
290
     0
176
     1
 90
       50
176
     1
 62
   256
176
     0
 40
1.0
176
     0
 90
        2
176
     1
  1
strokes_ogs.tif
176
     1
290
     0
176
     1
 40
1.0
176
     1
 40
1.0
176
     1
  0
VISUALSTYLE
  5
39
102
{ACAD_REACTORS
330
29
102
}
330
29
100
AcDbVisualStyle
  2
ColorChange
 70
    16
177
     3
291
     1
 70
    58
 90
        2
176
     1
 90
        2
176
     1
 90
        3
176
     1
 90
        0
176
     1
 40
0.6
176
     1
 40
30.0
176
     1
 62
     8
420
  8421504
176
     1
 90
        1
176
     1
 90
        4
176
     1
 62
     7
176
     1
 62
   257
176
     1
 90
        1
176
     1
 90
        1
176
     1
 40
1.0
176
     1
 90
        8
176
     1
 62
     8
420
  8421504
176
     1
 40
1.0
176
     1
 90
        1
176
     1
 90
        6
176
     1
 90
        2
176
     1
 62
     7
176
     1
 90
        5
176
     1
 90
        0
176
     1
 90
        0
176
     1
290
     0
176
     1
 90
        1
176
     1
 40
0.0
176
     1
 90
        0
176
     1
290
     0
176
     1
290
     1
176
     1
290
     1
176
     1
290
     0
176
     1
290
     0
176
     1
290
     0
176
     1
290
     0
176
     1
290
     0
176
     1
290
     0
176
     1
 90
       50
176
     1
 40
0.0
176
     1
 40
1.0
176
     1
 90
        0
176
     1
 62
    18
420
        0
176
     1
 90
       50
176
     1
 90
        3
176
     1
 62
     5
420
      255
176
     1
290
     0
176
     1
 90
       50
176
     1
 90
       50
176
     1
 90
       50
176
     1
290
     0
176
     1
 90
       50
176
     1
 62
   256
176
     0
 40
1.0
176
     0
 90
        2
176
     1
  1
strokes_ogs.tif
176
     1
290
     0
176
     1
 40
1.0
176
     1
 40
1.0
176
     1
  0
VISUALSTYLE
  5
32
102
{ACAD_REACTORS
330
29
102
}
330
29
100
AcDbVisualStyle
  2
Conceptual
 70
     9
177
     3
291
     0
 70
    58
 90
        3
176
     1
 90
        2
176
     1
 90
        0
176
     1
 90
        0
176
     1
 40
0.6
176
     1
 40
30.0
176
     1
 62
     7
420
 16777215
176
     1
 90
        2
176
     1
 90
        2
176
     1
 62
     7
176
     1
 62
   257
176
     1
 90
        1
176
     1
 90
        1
176
     1
 40
179.0
176
     1
 90
        8
176
     1
 62
     7
176
     1
 40
1.0
176
     1
 90
        1
176
     1
 90
        6
176
     1
 90
        2
176
     1
 62
     7
176
     1
 90
        3
176
     1
 90
        0
176
     1
 90
        0
176
     1
290
     0
176
     1
 90
        1
176
     1
 40
0.0
176
     1
 90
        0
176
     1
290
     0
176
     1
290
     1
176
     1
290
     1
176
     1
290
     0
176
     1
290
     0
176
     1
290
     0
176
     1
290
     0
176
     1
290
     0
176
     1
290
     0
176
     1
 90
       50
176
     1
 40
0.0
176
     1
 40
1.0
176
     1
 90
        0
176
     1
 62
    18
420
        0
176
     1
 90
       50
176
     1
 90
        3
176
     1
 62
     5
420
      255
176
     1
290
     0
176
     1
 90
       50
176
     1
 90
       50
176
     1
 90
       50
176
     1
290
     0
176
     1
 90
       50
176
     1
 62
   256
176
     0
 40
1.0
176
     0
 90
        2
176
     1
  1
strokes_ogs.tif
176
     1
290
     0
176
     1
 40
1.0
176
     1
 40
1.0
176
     1
  0
VISUALSTYLE
  5
34
102
{ACAD_REACTORS
330
29
102
}
330
29
100
AcDbVisualStyle
  2
Dim
 70
    11
177
     3
291
     1
 70
    58
 90
        2
176
     1
 90
        2
176
     1
 90
        0
176
     1
 90
        0
176
     1
 40
0.6
176
     1
 40
30.0
176
     1
 62
     7
420
 16777215
176
     1
 90
        1
176
     1
 90
        4
176
     1
 62
     7
176
     1
 62
   257
176
     1
 90
        1
176
     1
 90
        1
176
     1
 40
1.0
176
     1
 90
        8
176
     1
 62
     7
176
     1
 40
1.0
176
     1
 90
        1
176
     1
 90
        6
176
     1
 90
        2
176
     1
 62
     7
176
     1
 90
        5
176
     1
 90
        0
176
     1
 90
        0
176
     1
290
     0
176
     1
 90
        1
176
     1
 40
-50.0
176
     1
 90
        0
176
     1
290
     0
176
     1
290
     1
176
     1
290
     1
176
     1
290
     0
176
     1
290
     0
176
     1
290
     0
176
     1
290
     0
176
     1
290
     0
176
     1
290
     0
176
     1
 90
       50
176
     1
 40
0.0
176
     1
 40
1.0
176
     1
 90
        0
176
     1
 62
    18
420
        0
176
     1
 90
       50
176
     1
 90
        3
176
     1
 62
     5
420
      255
176
     1
290
     0
176
     1
 90
       50
176
     1
 90
       50
176
     1
 90
       50
176
     1
290
     0
176
     1
 90
       50
176
     1
 62
   256
176
     0
 40
1.0
176
     0
 90
        2
176
     1
  1
strokes_ogs.tif
176
     1
290
     0
176
     1
 40
1.0
176
     1
 40
1.0
176
     1
  0
VISUALSTYLE
  5
41
102
{ACAD_REACTORS
330
29
102
}
330
29
100
AcDbVisualStyle
  2
EdgeColorOff
 70
    22
177
     3
291
     1
 70
    58
 90
        2
176
     0
 90
        2
176
     0
 90
        0
176
     0
 90
        0
176
     0
 40
0.6
176
     0
 40
30.0
176
     0
 62
     7
420
 16777215
176
     0
 90
        1
176
     0
 90
        4
176
     0
 62
     7
176
     0
 62
   257
176
     0
 90
        1
176
     0
 90
        1
176
     0
 40
1.0
176
     0
 90
        8
176
     2
 62
     7
176
     0
 40
1.0
176
     0
 90
        1
176
     0
 90
        6
176
     0
 90
        2
176
     0
 62
     7
176
     0
 90
        5
176
     0
 90
        0
176
     0
 90
        0
176
     0
290
     0
176
     0
 90
        1
176
     0
 40
0.0
176
     0
 90
        0
176
     0
290
     0
176
     0
290
     1
176
     0
290
     1
176
     0
290
     0
176
     0
290
     0
176
     0
290
     0
176
     0
290
     0
176
     0
290
     0
176
     0
290
     0
176
     0
 90
       50
176
     0
 40
0.0
176
     0
 40
1.0
176
     0
 90
        0
176
     0
 62
    18
420
        0
176
     0
 90
       50
176
     0
 90
        3
176
     0
 62
     5
420
      255
176
     0
290
     0
176
     0
 90
       50
176
     0
 90
       50
176
     0
 90
       50
176
     0
290
     0
176
     0
 90
       50
176
     0
 62
   256
176
     0
 40
1.0
176
     0
 90
        2
176
     0
  1
strokes_ogs.tif
176
     0
290
     0
176
     0
 40
1.0
176
     0
 40
1.0
176
     0
  0
VISUALSTYLE
  5
38
102
{ACAD_REACTORS
330
29
102
}
330
29
100
AcDbVisualStyle
  2
Facepattern
 70
    15
177
     3
291
     1
 70
    58
 90
        2
176
     1
 90
        2
176
     1
 90
        0
176
     1
 90
        0
176
     1
 40
0.6
176
     1
 40
30.0
176
     1
 62
     7
420
 16777215
176
     1
 90
        1
176
     1
 90
        4
176
     1
 62
     7
176
     1
 62
   257
176
     1
 90
        1
176
     1
 90
        1
176
     1
 40
1.0
176
     1
 90
        8
176
     1
 62
     7
176
     1
 40
1.0
176
     1
 90
        1
176
     1
 90
        6
176
     1
 90
        2
176
     1
 62
     7
176
     1
 90
        5
176
     1
 90
        0
176
     1
 90
        0
176
     1
290
     0
176
     1
 90
        1
176
     1
 40
0.0
176
     1
 90
        0
176
     1
290
     0
176
     1
290
     1
176
     1
290
     1
176
     1
290
     0
176
     1
290
     0
176
     1
290
     0
176
     1
290
     0
176
     1
290
     0
176
     1
290
     0
176
     1
 90
       50
176
     1
 40
0.0
176
     1
 40
1.0
176
     1
 90
        0
176
     1
 62
    18
420
        0
176
     1
 90
       50
176
     1
 90
        3
176
     1
 62
     5
420
      255
176
     1
290
     0
176
     1
 90
       50
176
     1
 90
       50
176
     1
 90
       50
176
     1
290
     0
176
     1
 90
       50
176
     1
 62
   256
176
     0
 40
1.0
176
     0
 90
        2
176
     1
  1
strokes_ogs.tif
176
     1
290
     0
176
     1
 40
1.0
176
     1
 40
1.0
176
     1
  0
VISUALSTYLE
  5
2A
102
{ACAD_REACTORS
330
29
102
}
330
29
100
AcDbVisualStyle
  2
Flat
 70
     0
177
     3
291
     1
 70
    58
 90
        2
176
     1
 90
        1
176
     1
 90
        1
176
     1
 90
        2
176
     1
 40
0.6
176
     1
 40
30.0
176
     1
 62
     7
420
 16777215
176
     1
 90
        0
176
     1
 90
        0
176
     1
 62
     7
176
     1
 62
   257
176
     1
 90
        1
176
     1
 90
        1
176
     1
 40
1.0
176
     1
 90
        8
176
     1
 62
     7
176
     1
 40
1.0
176
     1
 90
        1
176
     1
 90
        6
176
     1
 90
        2
176
     1
 62
     7
176
     1
 90
        5
176
     1
 90
        0
176
     1
 90
        0
176
     1
290
     0
176
     1
 90
       13
176
     1
 40
0.0
176
     1
 90
        0
176
     1
290
     0
176
     1
290
     1
176
     1
290
     1
176
     1
290
     0
176
     1
290
     0
176
     1
290
     0
176
     1
290
     0
176
     1
290
     0
176
     1
290
     0
176
     1
 90
       50
176
     1
 40
0.0
176
     1
 40
1.0
176
     1
 90
        0
176
     1
 62
    18
420
        0
176
     1
 90
       50
176
     1
 90
        3
176
     1
 62
     5
420
      255
176
     1
290
     0
176
     1
 90
       50
176
     1
 90
       50
176
     1
 90
       50
176
     1
290
     0
176
     1
 90
       50
176
     1
 62
   256
176
     0
 40
1.0
176
     0
 90
        2
176
     1
  1
strokes_ogs.tif
176
     1
290
     0
176
     1
 40
1.0
176
     1
 40
1.0
176
     1
  0
VISUALSTYLE
  5
2B
102
{ACAD_REACTORS
330
29
102
}
330
29
100
AcDbVisualStyle
  2
FlatWithEdges
 70
     1
177
     3
291
     1
 70
    58
 90
        2
176
     1
 90
        1
176
     1
 90
        1
176
     1
 90
        2
176
     1
 40
0.6
176
     1
 40
30.0
176
     1
 62
     7
420
 16777215
176
     1
 90
        1
176
     1
 90
        0
176
     1
 62
     7
176
     1
 62
   257
176
     1
 90
        1
176
     1
 90
        1
176
     1
 40
1.0
176
     1
 90
        0
176
     1
 62
   257
176
     1
 40
1.0
176
     1
 90
        1
176
     1
 90
        6
176
     1
 90
        2
176
     1
 62
     7
176
     1
 90
        5
176
     1
 90
        0
176
     1
 90
        0
176
     1
290
     0
176
     1
 90
       13
176
     1
 40
0.0
176
     1
 90
        0
176
     1
290
     0
176
     1
290
     1
176
     1
290
     1
176
     1
290
     0
176
     1
290
     0
176
     1
290
     0
176
     1
290
     0
176
     1
290
     0
176
     1
290
     0
176
     1
 90
       50
176
     1
 40
0.0
176
     1
 40
1.0
176
     1
 90
        0
176
     1
 62
    18
420
        0
176
     1
 90
       50
176
     1
 90
        3
176
     1
 62
     5
420
      255
176
     1
290
     0
176
     1
 90
       50
176
     1
 90
       50
176
     1
 90
       50
176
     1
290
     0
176
     1
 90
       50
176
     1
 62
   256
176
     0
 40
1.0
176
     0
 90
        2
176
     1
  1
strokes_ogs.tif
176
     1
290
     0
176
     1
 40
1.0
176
     1
 40
1.0
176
     1
  0
VISUALSTYLE
  5
2C
102
{ACAD_REACTORS
330
29
102
}
330
29
100
AcDbVisualStyle
  2
Gouraud
 70
     2
177
     3
291
     1
 70
    58
 90
        2
176
     1
 90
        2
176
     1
 90
        1
176
     1
 90
        2
176
     1
 40
0.6
176
     1
 40
30.0
176
     1
 62
     7
420
 16777215
176
     1
 90
        0
176
     1
 90
        0
176
     1
 62
     7
176
     1
 62
   257
176
     1
 90
        1
176
     1
 90
        1
176
     1
 40
1.0
176
     1
 90
        0
176
     1
 62
     7
176
     1
 40
1.0
176
     1
 90
        1
176
     1
 90
        6
176
     1
 90
        2
176
     1
 62
     7
176
     1
 90
        5
176
     1
 90
        0
176
     1
 90
        0
176
     1
290
     0
176
     1
 90
       13
176
     1
 40
0.0
176
     1
 90
        0
176
     1
290
     0
176
     1
290
     1
176
     1
290
     1
176
     1
290
     0
176
     1
290
     0
176
     1
290
     0
176
     1
290
     0
176
     1
290
     0
176
     1
290
     0
176
     1
 90
       50
176
     1
 40
0.0
176
     1
 40
1.0
176
     1
 90
        0
176
     1
 62
    18
420
        0
176
     1
 90
       50
176
     1
 90
        3
176
     1
 62
     5
420
      255
176
     1
290
     0
176
     1
 90
       50
176
     1
 90
       50
176
     1
 90
       50
176
     1
290
     0
176
     1
 90
       50
176
     1
 62
   256
176
     0
 40
1.0
176
     0
 90
        2
176
     1
  1
strokes_ogs.tif
176
     1
290
     0
176
     1
 40
1.0
176
     1
 40
1.0
176
     1
  0
VISUALSTYLE
  5
2D
102
{ACAD_REACTORS
330
29
102
}
330
29
100
AcDbVisualStyle
  2
GouraudWithEdges
 70
     3
177
     3
291
     1
 70
    58
 90
        2
176
     1
 90
        2
176
     1
 90
        1
176
     1
 90
        2
176
     1
 40
0.6
176
     1
 40
30.0
176
     1
 62
     7
420
 16777215
176
     1
 90
        1
176
     1
 90
        0
176
     1
 62
     7
176
     1
 62
   257
176
     1
 90
        1
176
     1
 90
        1
176
     1
 40
1.0
176
     1
 90
        0
176
     1
 62
   257
176
     1
 40
1.0
176
     1
 90
        1
176
     1
 90
        6
176
     1
 90
        2
176
     1
 62
     7
176
     1
 90
        5
176
     1
 90
        0
176
     1
 90
        0
176
     1
290
     0
176
     1
 90
       13
176
     1
 40
0.0
176
     1
 90
        0
176
     1
290
     0
176
     1
290
     1
176
     1
290
     1
176
     1
290
     0
176
     1
290
     0
176
     1
290
     0
176
     1
290
     0
176
     1
290
     0
176
     1
290
     0
176
     1
 90
       50
176
     1
 40
0.0
176
     1
 40
1.0
176
     1
 90
        0
176
     1
 62
    18
420
        0
176
     1
 90
       50
176
     1
 90
        3
176
     1
 62
     5
420
      255
176
     1
290
     0
176
     1
 90
       50
176
     1
 90
       50
176
     1
 90
       50
176
     1
290
     0
176
     1
 90
       50
176
     1
 62
   256
176
     0
 40
1.0
176
     0
 90
        2
176
     1
  1
strokes_ogs.tif
176
     1
290
     0
176
     1
 40
1.0
176
     1
 40
1.0
176
     1
  0
VISUALSTYLE
  5
31
102
{ACAD_REACTORS
330
29
102
}
330
29
100
AcDbVisualStyle
  2
Hidden
 70
     6
177
     3
291
     0
 70
    58
 90
        1
176
     1
 90
        2
176
     1
 90
        2
176
     1
 90
        0
176
     1
 40
0.6
176
     1
 40
30.0
176
     1
 62
     7
420
 16777215
176
     1
 90
        2
176
     1
 90
        2
176
     1
 62
     7
176
     1
 62
   257
176
     1
 90
        2
176
     1
 90
        1
176
     1
 40
40.0
176
     1
 90
        0
176
     1
 62
   257
176
     1
 40
1.0
176
     1
 90
        1
176
     1
 90
        6
176
     1
 90
        2
176
     1
 62
     7
176
     1
 90
        3
176
     1
 90
        0
176
     1
 90
        0
176
     1
290
     0
176
     1
 90
        1
176
     1
 40
0.0
176
     1
 90
        0
176
     1
290
     0
176
     1
290
     1
176
     1
290
     1
176
     1
290
     0
176
     1
290
     0
176
     1
290
     0
176
     1
290
     0
176
     1
290
     0
176
     1
290
     0
176
     1
 90
       50
176
     1
 40
0.0
176
     1
 40
1.0
176
     1
 90
        0
176
     1
 62
    18
420
        0
176
     1
 90
       50
176
     1
 90
        3
176
     1
 62
     5
420
      255
176
     1
290
     0
176
     1
 90
       50
176
     1
 90
       50
176
     1
 90
       50
176
     1
290
     0
176
     1
 90
       50
176
     1
 62
   256
176
     0
 40
1.0
176
     0
 90
        2
176
     1
  1
strokes_ogs.tif
176
     1
290
     0
176
     1
 40
1.0
176
     1
 40
1.0
176
     1
  0
VISUALSTYLE
  5
3F
102
{ACAD_REACTORS
330
29
102
}
330
29
100
AcDbVisualStyle
  2
JitterOff
 70
    20
177
     3
291
     1
 70
    58
 90
        2
176
     0
 90
        2
176
     0
 90
        0
176
     0
 90
        0
176
     0
 40
0.6
176
     0
 40
30.0
176
     0
 62
     7
420
 16777215
176
     0
 90
        1
176
     0
 90
        4
176
     0
 62
     7
176
     0
 62
   257
176
     0
 90
        1
176
     0
 90
        1
176
     0
 40
1.0
176
     0
 90
       10
176
     2
 62
     7
176
     0
 40
1.0
176
     0
 90
        1
176
     0
 90
        6
176
     0
 90
        2
176
     0
 62
     7
176
     0
 90
        5
176
     0
 90
        0
176
     0
 90
        0
176
     0
290
     0
176
     0
 90
        1
176
     0
 40
0.0
176
     0
 90
        0
176
     0
290
     0
176
     0
290
     1
176
     0
290
     1
176
     0
290
     0
176
     0
290
     0
176
     0
290
     0
176
     0
290
     0
176
     0
290
     0
176
     0
290
     0
176
     0
 90
       50
176
     0
 40
0.0
176
     0
 40
1.0
176
     0
 90
        0
176
     0
 62
    18
420
        0
176
     0
 90
       50
176
     0
 90
        3
176
     0
 62
     5
420
      255
176
     0
290
     0
176
     0
 90
       50
176
     0
 90
       50
176
     0
 90
       50
176
     0
290
     0
176
     0
 90
       50
176
     0
 62
   256
176
     0
 40
1.0
176
     0
 90
        2
176
     0
  1
strokes_ogs.tif
176
     0
290
     0
176
     0
 40
1.0
176
     0
 40
1.0
176
     0
  0
VISUALSTYLE
  5
37
102
{ACAD_REACTORS
330
29
102
}
330
29
100
AcDbVisualStyle
  2
Linepattern
 70
    14
177
     3
291
     1
 70
    58
 90
        2
176
     1
 90
        2
176
     1
 90
        0
176
     1
 90
        0
176
     1
 40
0.6
176
     1
 40
30.0
176
     1
 62
     7
420
 16777215
176
     1
 90
        1
176
     1
 90
        4
176
     1
 62
     7
176
     1
 62
   257
176
     1
 90
        7
176
     1
 90
        7
176
     1
 40
1.0
176
     1
 90
        8
176
     1
 62
     7
176
     1
 40
1.0
176
     1
 90
        1
176
     1
 90
        6
176
     1
 90
        2
176
     1
 62
     7
176
     1
 90
        5
176
     1
 90
        0
176
     1
 90
        0
176
     1
290
     0
176
     1
 90
        1
176
     1
 40
0.0
176
     1
 90
        0
176
     1
290
     0
176
     1
290
     1
176
     1
290
     1
176
     1
290
     0
176
     1
290
     0
176
     1
290
     0
176
     1
290
     0
176
     1
290
     0
176
     1
290
     0
176
     1
 90
       50
176
     1
 40
0.0
176
     1
 40
1.0
176
     1
 90
        0
176
     1
 62
    18
420
        0
176
     1
 90
       50
176
     1
 90
        3
176
     1
 62
     5
420
      255
176
     1
290
     0
176
     1
 90
       50
176
     1
 90
       50
176
     1
 90
       50
176
     1
290
     0
176
     1
 90
       50
176
     1
 62
   256
176
     0
 40
1.0
176
     0
 90
        2
176
     1
  1
strokes_ogs.tif
176
     1
290
     0
176
     1
 40
1.0
176
     1
 40
1.0
176
     1
  0
VISUALSTYLE
  5
40
102
{ACAD_REACTORS
330
29
102
}
330
29
100
AcDbVisualStyle
  2
OverhangOff
 70
    21
177
     3
291
     1
 70
    58
 90
        2
176
     0
 90
        2
176
     0
 90
        0
176
     0
 90
        0
176
     0
 40
0.6
176
     0
 40
30.0
176
     0
 62
     7
420
 16777215
176
     0
 90
        1
176
     0
 90
        4
176
     0
 62
     7
176
     0
 62
   257
176
     0
 90
        1
176
     0
 90
        1
176
     0
 40
1.0
176
     0
 90
        9
176
     2
 62
     7
176
     0
 40
1.0
176
     0
 90
        1
176
     0
 90
        6
176
     0
 90
        2
176
     0
 62
     7
176
     0
 90
        5
176
     0
 90
        0
176
     0
 90
        0
176
     0
290
     0
176
     0
 90
        1
176
     0
 40
0.0
176
     0
 90
        0
176
     0
290
     0
176
     0
290
     1
176
     0
290
     1
176
     0
290
     0
176
     0
290
     0
176
     0
290
     0
176
     0
290
     0
176
     0
290
     0
176
     0
290
     0
176
     0
 90
       50
176
     0
 40
0.0
176
     0
 40
1.0
176
     0
 90
        0
176
     0
 62
    18
420
        0
176
     0
 90
       50
176
     0
 90
        3
176
     0
 62
     5
420
      255
176
     0
290
     0
176
     0
 90
       50
176
     0
 90
       50
176
     0
 90
       50
176
     0
290
     0
176
     0
 90
       50
176
     0
 62
   256
176
     0
 40
1.0
176
     0
 90
        2
176
     0
  1
strokes_ogs.tif
176
     0
290
     0
176
     0
 40
1.0
176
     0
 40
1.0
176
     0
  0
VISUALSTYLE
  5
33
102
{ACAD_REACTORS
330
29
102
}
330
29
100
AcDbVisualStyle
  2
Realistic
 70
     8
177
     3
291
     0
 70
    58
 90
        2
176
     1
 90
        3
176
     1
 90
        0
176
     1
 90
        2
176
     1
 40
0.6
176
     1
 40
30.0
176
     1
 62
     7
420
 16777215
176
     1
 90
        0
176
     1
 90
        0
176
     1
 62
     7
176
     1
 62
   257
176
     1
 90
        1
176
     1
 90
        1
176
     1
 40
1.0
176
     1
 90
        8
176
     1
 62
   257
176
     1
 40
1.0
176
     1
 90
        1
176
     1
 90
        6
176
     1
 90
        2
176
     1
 62
     7
176
     1
 90
        3
176
     1
 90
        0
176
     1
 90
        0
176
     1
290
     0
176
     1
 90
       13
176
     1
 40
0.0
176
     1
 90
        0
176
     1
290
     0
176
     1
290
     1
176
     1
290
     1
176
     1
290
     0
176
     1
290
     0
176
     1
290
     0
176
     1
290
     0
176
     1
290
     0
176
     1
290
     0
176
     1
 90
       50
176
     1
 40
0.0
176
     1
 40
1.0
176
     1
 90
        0
176
     1
 62
    18
420
        0
176
     1
 90
       50
176
     1
 90
        3
176
     1
 62
     5
420
      255
176
     1
290
     0
176
     1
 90
       50
176
     1
 90
       50
176
     1
 90
       50
176
     1
290
     0
176
     1
 90
       50
176
     1
 62
   256
176
     0
 40
1.0
176
     0
 90
        2
176
     1
  1
strokes_ogs.tif
176
     1
290
     0
176
     1
 40
1.0
176
     1
 40
1.0
176
     1
  0
VISUALSTYLE
  5
3E
102
{ACAD_REACTORS
330
29
102
}
330
29
100
AcDbVisualStyle
  2
Shaded
 70
    27
177
     3
291
     0
 70
    58
 90
        2
176
     1
 90
        2
176
     1
 90
        1
176
     1
 90
        2
176
     1
 40
0.6
176
     1
 40
30.0
176
     1
 62
     7
420
 16777215
176
     1
 90
        0
176
     1
 90
        4
176
     1
 62
     7
176
     1
 62
   257
176
     1
 90
        1
176
     1
 90
        1
176
     1
 40
1.0
176
     1
 90
        8
176
     1
 62
   257
176
     1
 40
1.0
176
     1
 90
        1
176
     1
 90
        6
176
     1
 90
        2
176
     1
 62
     8
420
  7895160
176
     1
 90
        3
176
     1
 90
        0
176
     1
 90
        0
176
     1
290
     0
176
     1
 90
        5
176
     1
 40
0.0
176
     1
 90
        0
176
     1
290
     0
176
     1
290
     1
176
     1
290
     1
176
     1
290
     0
176
     1
290
     0
176
     1
290
     0
176
     1
290
     0
176
     1
290
     0
176
     1
290
     0
176
     1
 90
       50
176
     1
 40
0.0
176
     1
 40
1.0
176
     1
 90
        0
176
     1
 62
    18
420
        0
176
     1
 90
       50
176
     1
 90
        3
176
     1
 62
     5
420
      255
176
     1
290
     0
176
     1
 90
       50
176
     1
 90
       50
176
     1
 90
       50
176
     1
290
     0
176
     1
 90
       50
176
     1
 62
   256
176
     0
 40
1.0
176
     0
 90
        2
176
     1
  1
strokes_ogs.tif
176
     1
290
     0
176
     1
 40
1.0
176
     1
 40
1.0
176
     1
  0
VISUALSTYLE
  5
3D
102
{ACAD_REACTORS
330
29
102
}
330
29
100
AcDbVisualStyle
  2
Shaded with edges
 70
    26
177
     3
291
     0
 70
    58
 90
        2
176
     1
 90
        2
176
     1
 90
        1
176
     1
 90
        2
176
     1
 40
0.6
176
     1
 40
30.0
176
     1
 62
     7
420
 16777215
176
     1
 90
        1
176
     1
 90
        2
176
     1
 62
     7
176
     1
 62
   257
176
     1
 90
        2
176
     1
 90
        1
176
     1
 40
1.0
176
     1
 90
        8
176
     1
 62
   257
176
     1
 40
1.0
176
     1
 90
        1
176
     1
 90
        6
176
     1
 90
        2
176
     1
 62
     7
176
     1
 90
        3
176
     1
 90
        0
176
     1
 90
        0
176
     1
290
     0
176
     1
 90
        5
176
     1
 40
0.0
176
     1
 90
        0
176
     1
290
     0
176
     1
290
     1
176
     1
290
     1
176
     1
290
     0
176
     1
290
     0
176
     1
290
     0
176
     1
290
     0
176
     1
290
     0
176
     1
290
     0
176
     1
 90
       50
176
     1
 40
0.0
176
     1
 40
1.0
176
     1
 90
        0
176
     1
 62
    18
420
        0
176
     1
 90
       50
176
     1
 90
        3
176
     1
 62
     5
420
      255
176
     1
290
     0
176
     1
 90
       50
176
     1
 90
       50
176
     1
 90
       50
176
     1
290
     0
176
     1
 90
       50
176
     1
 62
   256
176
     0
 40
1.0
176
     0
 90
        2
176
     1
  1
strokes_ogs.tif
176
     1
290
     0
176
     1
 40
1.0
176
     1
 40
1.0
176
     1
  0
VISUALSTYLE
  5
3A
102
{ACAD_REACTORS
330
29
102
}
330
29
100
AcDbVisualStyle
  2
Shades of Gray
 70
    23
177
     3
291
     0
 70
    58
 90
        2
176
     1
 90
        2
176
     1
 90
        3
176
     1
 90
        0
176
     1
 40
0.6
176
     1
 40
30.0
176
     1
 62
     7
420
 16777215
176
     1
 90
        2
176
     1
 90
        2
176
     1
 62
     7
176
     1
 62
     7
176
     1
 90
        1
176
     1
 90
        1
176
     1
 40
40.0
176
     1
 90
        8
176
     1
 62
     7
176
     1
 40
1.0
176
     1
 90
        1
176
     1
 90
        6
176
     1
 90
        2
176
     1
 62
     7
176
     1
 90
        3
176
     1
 90
        0
176
     1
 90
        0
176
     1
290
     0
176
     1
 90
        1
176
     1
 40
0.0
176
     1
 90
        0
176
     1
290
     0
176
     1
290
     1
176
     1
290
     1
176
     1
290
     0
176
     1
290
     0
176
     1
290
     0
176
     1
290
     0
176
     1
290
     0
176
     1
290
     0
176
     1
 90
       50
176
     1
 40
0.0
176
     1
 40
1.0
176
     1
 90
        0
176
     1
 62
    18
420
        0
176
     1
 90
       50
176
     1
 90
        3
176
     1
 62
     5
420
      255
176
     1
290
     0
176
     1
 90
       50
176
     1
 90
       50
176
     1
 90
       50
176
     1
290
     0
176
     1
 90
       50
176
     1
 62
   256
176
     0
 40
1.0
176
     0
 90
        2
176
     1
  1
strokes_ogs.tif
176
     1
290
     0
176
     1
 40
1.0
176
     1
 40
1.0
176
     1
  0
VISUALSTYLE
  5
3B
102
{ACAD_REACTORS
330
29
102
}
330
29
100
AcDbVisualStyle
  2
Sketchy
 70
    24
177
     3
291
     0
 70
    58
 90
        1
176
     1
 90
        2
176
     1
 90
        2
176
     1
 90
        0
176
     1
 40
0.6
176
     1
 40
30.0
176
     1
 62
     7
420
 16777215
176
     1
 90
        2
176
     1
 90
        2
176
     1
 62
     7
176
     1
 62
     7
176
     1
 90
        1
176
     1
 90
        1
176
     1
 40
40.0
176
     1
 90
       11
176
     1
 62
     7
176
     1
 40
1.0
176
     1
 90
        1
176
     1
 90
        6
176
     1
 90
        2
176
     1
 62
     7
176
     1
 90
        6
176
     1
 90
        0
176
     1
 90
        0
176
     1
290
     0
176
     1
 90
        1
176
     1
 40
0.0
176
     1
 90
        0
176
     1
290
     0
176
     1
290
     1
176
     1
290
     1
176
     1
290
     0
176
     1
290
     0
176
     1
290
     0
176
     1
290
     0
176
     1
290
     0
176
     1
290
     0
176
     1
 90
       50
176
     1
 40
0.0
176
     1
 40
1.0
176
     1
 90
        0
176
     1
 62
    18
420
        0
176
     1
 90
       50
176
     1
 90
        3
176
     1
 62
     5
420
      255
176
     1
290
     0
176
     1
 90
       50
176
     1
 90
       50
176
     1
 90
       50
176
     1
290
     0
176
     1
 90
       50
176
     1
 62
   256
176
     0
 40
1.0
176
     0
 90
        2
176
     1
  1
strokes_ogs.tif
176
     1
290
     0
176
     1
 40
1.0
176
     1
 40
1.0
176
     1
  0
VISUALSTYLE
  5
36
102
{ACAD_REACTORS
330
29
102
}
330
29
100
AcDbVisualStyle
  2
Thicken
 70
    13
177
     3
291
     1
 70
    58
 90
        2
176
     1
 90
        2
176
     1
 90
        0
176
     1
 90
        0
176
     1
 40
0.6
176
     1
 40
30.0
176
     1
 62
     7
420
 16777215
176
     1
 90
        1
176
     1
 90
        4
176
     1
 62
     7
176
     1
 62
   257
176
     1
 90
        1
176
     1
 90
        1
176
     1
 40
1.0
176
     1
 90
       12
176
     1
 62
     7
176
     1
 40
1.0
176
     1
 90
        1
176
     1
 90
        6
176
     1
 90
        2
176
     1
 62
     7
176
     1
 90
        5
176
     1
 90
        0
176
     1
 90
        0
176
     1
290
     0
176
     1
 90
        1
176
     1
 40
0.0
176
     1
 90
        0
176
     1
290
     0
176
     1
290
     1
176
     1
290
     1
176
     1
290
     0
176
     1
290
     0
176
     1
290
     0
176
     1
290
     0
176
     1
290
     0
176
     1
290
     0
176
     1
 90
       50
176
     1
 40
0.0
176
     1
 40
1.0
176
     1
 90
        0
176
     1
 62
    18
420
        0
176
     1
 90
       50
176
     1
 90
        3
176
     1
 62
     5
420
      255
176
     1
290
     0
176
     1
 90
       50
176
     1
 90
       50
176
     1
 90
       50
176
     1
290
     0
176
     1
 90
       50
176
     1
 62
   256
176
     0
 40
1.0
176
     0
 90
        2
176
     1
  1
strokes_ogs.tif
176
     1
290
     0
176
     1
 40
1.0
176
     1
 40
1.0
176
     1
  0
VISUALSTYLE
  5
30
102
{ACAD_REACTORS
330
29
102
}
330
29
100
AcDbVisualStyle
  2
Wireframe
 70
     5
177
     3
291
     0
 70
    58
 90
        0
176
     1
 90
        2
176
     1
 90
        0
176
     1
 90
        0
176
     1
 40
0.6
176
     1
 40
30.0
176
     1
 62
     7
420
 16777215
176
     1
 90
        1
176
     1
 90
        4
176
     1
 62
     7
176
     1
 62
   257
176
     1
 90
        1
176
     1
 90
        1
176
     1
 40
1.0
176
     1
 90
        0
176
     1
 62
   257
176
     1
 40
1.0
176
     1
 90
        1
176
     1
 90
        6
176
     1
 90
        2
176
     1
 62
     7
176
     1
 90
        3
176
     1
 90
        0
176
     1
 90
        0
176
     1
290
     0
176
     1
 90
        1
176
     1
 40
0.0
176
     1
 90
        0
176
     1
290
     0
176
     1
290
     1
176
     1
290
     1
176
     1
290
     0
176
     1
290
     0
176
     1
290
     0
176
     1
290
     0
176
     1
290
     0
176
     1
290
     0
176
     1
 90
       50
176
     1
 40
0.0
176
     1
 40
1.0
176
     1
 90
        0
176
     1
 62
    18
420
        0
176
     1
 90
       50
176
     1
 90
        3
176
     1
 62
     5
420
      255
176
     1
290
     0
176
     1
 90
       50
176
     1
 90
       50
176
     1
 90
       50
176
     1
290
     0
176
     1
 90
       50
176
     1
 62
   256
176
     0
 40
1.0
176
     0
 90
        2
176
     1
  1
strokes_ogs.tif
176
     1
290
     0
176
     1
 40
1.0
176
     1
 40
1.0
176
     1
  0
VISUALSTYLE
  5
3C
102
{ACAD_REACTORS
330
29
102
}
330
29
100
AcDbVisualStyle
  2
X-Ray
 70
    25
177
     3
291
     0
 70
    58
 90
        2
176
     1
 90
        2
176
     1
 90
        1
176
     1
 90
        1
176
     1
 40
0.5
176
     1
 40
30.0
176
     1
 62
     7
420
 16777215
176
     1
 90
        1
176
     1
 90
        0
176
     1
 62
     7
176
     1
 62
   257
176
     1
 90
        1
176
     1
 90
        1
176
     1
 40
1.0
176
     1
 90
        8
176
     1
 62
     7
176
     1
 40
1.0
176
     1
 90
        1
176
     1
 90
        6
176
     1
 90
        2
176
     1
 62
     7
176
     1
 90
        3
176
     1
 90
        0
176
     1
 90
        0
176
     1
290
     0
176
     1
 90
       13
176
     1
 40
0.0
176
     1
 90
        0
176
     1
290
     0
176
     1
290
     1
176
     1
290
     1
176
     1
290
     0
176
     1
290
     0
176
     1
290
     0
176
     1
290
     0
176
     1
290
     0
176
     1
290
     0
176
     1
 90
       50
176
     1
 40
0.0
176
     1
 40
1.0
176
     1
 90
        0
176
     1
 62
    18
420
        0
176
     1
 90
       50
176
     1
 90
        3
176
     1
 62
     5
420
      255
176
     1
290
     0
176
     1
 90
       50
176
     1
 90
       50
176
     1
 90
       50
176
     1
290
     0
176
     1
 90
       50
176
     1
 62
   256
176
     0
 40
1.0
176
     0
 90
        2
176
     1
  1
strokes_ogs.tif
176
     1
290
     0
176
     1
 40
1.0
176
     1
 40
1.0
176
     1
  0
DICTIONARYVAR
  5
3C3
102
{ACAD_REACTORS
330
3BE
102
}
330
3BE
100
DictionaryVariables
280
     0
  1
1:1
  0
DICTIONARYVAR
  5
3C0
102
{ACAD_REACTORS
330
3BE
102
}
330
3BE
100
DictionaryVariables
280
     0
  1
STANDARD
  0
DICTIONARYVAR
  5
3BF
102
{ACAD_REACTORS
330
3BE
102
}
330
3BE
100
DictionaryVariables
280
     0
  1
STANDARD
  0
DICTIONARYVAR
  5
3C1
102
{ACAD_REACTORS
330
3BE
102
}
330
3BE
100
DictionaryVariables
280
     0
  1
Imperial24
  0
DICTIONARYVAR
  5
3C2
102
{ACAD_REACTORS
330
3BE
102
}
330
3BE
100
DictionaryVariables
280
     0
  1
Imperial24
  0
DICTIONARY
  5
1A
330
19
100
AcDbDictionary
280
     1
281
     1
  3
BUMPTILE
360
1C
  3
DIFFUSETILE
360
1B
  3
OPACITYTILE
360
1F
  3
REFLECTIONTILE
360
1E
  3
REFRACTIONTILE
360
20
  3
SPECULARTILE
360
1D
  0
DICTIONARY
  5
12
330
11
100
AcDbDictionary
280
     1
281
     1
  3
BUMPTILE
360
14
  3
DIFFUSETILE
360
13
  3
OPACITYTILE
360
17
  3
REFLECTIONTILE
360
16
  3
REFRACTIONTILE
360
18
  3
SPECULARTILE
360
15
  0
DICTIONARY
  5
22
330
21
100
AcDbDictionary
280
     1
281
     1
  3
BUMPTILE
360
24
  3
DIFFUSETILE
360
23
  3
OPACITYTILE
360
27
  3
REFLECTIONTILE
360
26
  3
REFRACTIONTILE
360
28
  3
SPECULARTILE
360
25
  0
DICTIONARY
  5
3C4
330
65
100
AcDbDictionary
280
     1
281
     1
  3
ACAD_ROUNDTRIP_2008_TABLESTYLE_CELLSTYLEMAP
360
3C5
  0
XRECORD
  5
1C
102
{ACAD_REACTORS
330
1A
102
}
330
1A
100
AcDbXrecord
280
     1
270
     1
271
     1
  0
XRECORD
  5
1B
102
{ACAD_REACTORS
330
1A
102
}
330
1A
100
AcDbXrecord
280
     1
270
     1
271
     1
  0
XRECORD
  5
1F
102
{ACAD_REACTORS
330
1A
102
}
330
1A
100
AcDbXrecord
280
     1
270
     1
271
     1
  0
XRECORD
  5
1E
102
{ACAD_REACTORS
330
1A
102
}
330
1A
100
AcDbXrecord
280
     1
270
     1
271
     1
  0
XRECORD
  5
20
102
{ACAD_REACTORS
330
1A
102
}
330
1A
100
AcDbXrecord
280
     1
270
     1
271
     1
  0
XRECORD
  5
1D
102
{ACAD_REACTORS
330
1A
102
}
330
1A
100
AcDbXrecord
280
     1
270
     1
271
     1
  0
XRECORD
  5
14
102
{ACAD_REACTORS
330
12
102
}
330
12
100
AcDbXrecord
280
     1
270
     1
271
     1
  0
XRECORD
  5
13
102
{ACAD_REACTORS
330
12
102
}
330
12
100
AcDbXrecord
280
     1
270
     1
271
     1
  0
XRECORD
  5
17
102
{ACAD_REACTORS
330
12
102
}
330
12
100
AcDbXrecord
280
     1
270
     1
271
     1
  0
XRECORD
  5
16
102
{ACAD_REACTORS
330
12
102
}
330
12
100
AcDbXrecord
280
     1
270
     1
271
     1
  0
XRECORD
  5
18
102
{ACAD_REACTORS
330
12
102
}
330
12
100
AcDbXrecord
280
     1
270
     1
271
     1
  0
XRECORD
  5
15
102
{ACAD_REACTORS
330
12
102
}
330
12
100
AcDbXrecord
280
     1
270
     1
271
     1
  0
XRECORD
  5
24
102
{ACAD_REACTORS
330
22
102
}
330
22
100
AcDbXrecord
280
     1
270
     1
271
     1
  0
XRECORD
  5
23
102
{ACAD_REACTORS
330
22
102
}
330
22
100
AcDbXrecord
280
     1
270
     1
271
     1
  0
XRECORD
  5
27
102
{ACAD_REACTORS
330
22
102
}
330
22
100
AcDbXrecord
280
     1
270
     1
271
     1
  0
XRECORD
  5
26
102
{ACAD_REACTORS
330
22
102
}
330
22
100
AcDbXrecord
280
     1
270
     1
271
     1
  0
XRECORD
  5
28
102
{ACAD_REACTORS
330
22
102
}
330
22
100
AcDbXrecord
280
     1
270
     1
271
     1
  0
XRECORD
  5
25
102
{ACAD_REACTORS
330
22
102
}
330
22
100
AcDbXrecord
280
     1
270
     1
271
     1
  0
CELLSTYLEMAP
  5
3C5
102
{ACAD_REACTORS
330
3C4
102
}
330
3C4
100
AcDbCellStyleMap
 90
        3
300
CELLSTYLE
  1
TABLEFORMAT_BEGIN
 90
        5
170
     1
 91
        0
 92
    32768
 62
   257
 93
        1
300
CONTENTFORMAT
  1
CONTENTFORMAT_BEGIN
 90
        0
 91
        0
 92
      512
 93
        0
300

 40
0.0
140
1.0
 94
        5
 62
     0
340
55
144
0.25
309
CONTENTFORMAT_END
171
     0
 94
        0
309
TABLEFORMAT_END
  1
CELLSTYLE_BEGIN
 90
        1
 91
        1
300
_TITLE
309
CELLSTYLE_END
300
CELLSTYLE
  1
TABLEFORMAT_BEGIN
 90
        5
170
     1
 91
        0
 92
        0
 62
   257
 93
        1
300
CONTENTFORMAT
  1
CONTENTFORMAT_BEGIN
 90
        0
 91
        0
 92
      512
 93
        0
300

 40
0.0
140
1.0
 94
        5
 62
     0
340
55
144
0.18
309
CONTENTFORMAT_END
171
     0
 94
        0
309
TABLEFORMAT_END
  1
CELLSTYLE_BEGIN
 90
        2
 91
        1
300
_HEADER
309
CELLSTYLE_END
300
CELLSTYLE
  1
TABLEFORMAT_BEGIN
 90
        5
170
     1
 91
        0
 92
        0
 62
   257
 93
        1
300
CONTENTFORMAT
  1
CONTENTFORMAT_BEGIN
 90
        0
 91
        0
 92
      512
 93
        0
300

 40
0.0
140
1.0
 94
        2
 62
     0
340
55
144
0.18
309
CONTENTFORMAT_END
171
     0
 94
        0
309
TABLEFORMAT_END
  1
CELLSTYLE_BEGIN
 90
        3
 91
        2
300
_DATA
309
CELLSTYLE_END
  0
ENDSEC
  0
EOF
