  0
SECTION
  2
HEADER
  9
$ACADVER
  1
AC1009
  9
$INSBASE
 10
0
 20
0
 30
0
  9
$EXTMIN
 10
0
 20
0
  9
$EXTMAX
 10
1485
 20
1050
  9
$LIMMIN
 10
0
 20
0
  9
$LIMMAX
 10
1485
 20
1050
  9
$LTSCALE
 40
5
  0
ENDSEC
  0
SECTION
  2
TABLES
  0
TABLE
  2
LTYPE
 70
     9
  0
LTYPE
  2
CONTINUOUS
 70
    64
  3
実線
 72
    65
 73
     0
 40
0.0
  0
LTYPE
  2
DASHED1
 70
    64
  3
--  --  --  --  --  --  --  --  
 72
    65
 73
     2
 40
2.5
 49
1.25
 49
-1.25
  0
LTYPE
  2
DASHED2
 70
    64
  3
----    ----    ----    ----    
 72
    65
 73
     2
 40
5.0
 49
2.5
 49
-2.5
  0
LTYPE
  2
DASHED3
 70
    64
  3
------  ------  ------  ------  
 72
    65
 73
     2
 40
5.0
 49
3.75
 49
-1.25
  0
LTYPE
  2
CENTER1
 70
    64
  3
----- - ----- - ----- - ----- - 
 72
    65
 73
     4
 40
10.0
 49
6.25
 49
-1.25
 49
1.25
 49
-1.25
  0
LTYPE
  2
CENTER2
 70
    64
  3
----------  --  ----------  --  
 72
    65
 73
     4
 40
20.0
 49
12.5
 49
-2.5
 49
2.5
 49
-2.5
  0
LTYPE
  2
PHANTOM1
 70
    64
  3
--- - - --- - - --- - - --- - - 
 72
    65
 73
     6
 40
10.0
 49
3.25
 49
-1.25
 49
1.25
 49
-1.25
 49
1.25
 49
-1.25
  0
LTYPE
  2
PHANTOM2
 70
    64
  3
--------  -  -  --------  -  -  
 72
    65
 73
     6
 40
20.0
 49
10.0
 49
-2.5
 49
1.25
 49
-2.5
 49
1.25
 49
-2.5
  0
LTYPE
  2
DOT
 70
    64
  3
-   -   -   -   -   -   -   -   
 72
    65
 73
     2
 40
2.5
 49
0.625
 49
-1.875
  0
LTYPE
  2
DUMMY
 70
    64
  3
ダミー
 72
    65
 73
     0
 40
0.0
  0
LTYPE
  2
RAND1
 70
    64
  3
ランダム線1
 72
    65
 73
     4
 40
10.0
 49
1.0
 49
-2.0
 49
3.0
 49
-4.0
  0
LTYPE
  2
RAND2
 70
    64
  3
ランダム線2
 72
    65
 73
     4
 40
14.0
 49
2.0
 49
-3.0
 49
4.0
 49
-5.0
  0
LTYPE
  2
RAND3
 70
    64
  3
ランダム線3
 72
    65
 73
     4
 40
18.0
 49
3.0
 49
-4.0
 49
5.0
 49
-6.0
  0
LTYPE
  2
RAND4
 70
    64
  3
ランダム線4
 72
    65
 73
     4
 40
22.0
 49
4.0
 49
-5.0
 49
6.0
 49
-7.0
  0
LTYPE
  2
RAND5
 70
    64
  3
ランダム線5
 72
    65
 73
     4
 40
26.0
 49
5.0
 49
-6.0
 49
7.0
 49
-8.0
  0
LTYPE
  2
LONG1
 70
    64
  3
----------  --  ----------  --  
 72
    65
 73
     4
 40
40.0
 49
32.5
 49
-2.5
 49
2.5
 49
-2.5
  0
LTYPE
  2
LONG2
 70
    64
  3
--------  -  -  --------  -  -  
 72
    65
 73
     6
 40
40.0
 49
30.0
 49
-2.5
 49
1.25
 49
-2.5
 49
1.25
 49
-2.5
  0
LTYPE
  2
LONG3
 70
    64
  3
+++++++++++++++..+++++++++++++++
 72
    65
 73
     2
 40
40.0
 49
37.5
 49
-2.5
  0
LTYPE
  2
LONG4
 70
    64
  3
+++++++++++++++..+++++++++++++++
 72
    65
 73
     2
 40
80.0
 49
75.0
 49
-5.0
  0
LTYPE
  2
LONG5
 70
    64
  3
----------  --  ----------  --  
 72
    65
 73
     4
 40
60.0
 49
37.5
 49
-7.5
 49
7.5
 49
-7.5
  0
LTYPE
  2
dashed
 70
   64
  3
-------   -------------   ------
 72
   65
 73
    2
 40
7.5
 49
6
 49
-1.5
  0
LTYPE
  2
dashed_spaced
 70
   64
  3
----        --------        ----
 72
   65
 73
    2
 40
12
 49
6
 49
-6
  0
LTYPE
  2
long_dashed_dotted
 70
   64
  3
------------- --- --------------
 72
   65
 73
    4
 40
15.25
 49
12
 49
-1.5
 49
0.25
 49
-1.5
  0
LTYPE
  2
long_dashed_double-dotted
 70
   64
  3
----------- --- --- ------------
 72
   65
 73
    6
 40
17
 49
12
 49
-1.5
 49
0.25
 49
-1.5
 49
0.25
 49
-1.5
  0
LTYPE
  2
long_dashed_triplicate-dotted
 70
   64
  3
--------- --- --- --- ----------
 72
   65
 73
    8
 40
18.75
 49
12
 49
-1.5
 49
0.25
 49
-1.5
 49
0.25
 49
-1.5
 49
0.25
 49
-1.5
  0
LTYPE
  2
dotted
 70
   64
  3
   -       -       -       -    
 72
   65
 73
    2
 40
1.75
 49
0.25
 49
-1.5
  0
LTYPE
  2
chain
 70
   64
  3
-------------- -- --------------
 72
   65
 73
    4
 40
18.5
 49
12
 49
-1.5
 49
3.5
 49
-1.5
  0
LTYPE
  2
chain_double_dash
 70
   64
  3
------------ -- -- -------------
 72
   65
 73
    6
 40
23.5
 49
12
 49
-1.5
 49
3.5
 49
-1.5
 49
3.5
 49
-1.5
  0
LTYPE
  2
dashed_dotted
 70
   64
  3
-----------     -     ----------
 72
   65
 73
    4
 40
9.25
 49
6
 49
-1.5
 49
0.25
 49
-1.5
  0
LTYPE
  2
double-dashed_dotted
 70
   64
  3
------   -----------   -   -----
 72
   65
 73
    6
 40
16.75
 49
6
 49
-1.5
 49
6
 49
-1.5
 49
0.25
 49
-1.5
  0
LTYPE
  2
dashed_double-dotted
 70
   64
  3
---------    -    -    ---------
 72
   65
 73
    6
 40
11
 49
6
 49
-1.5
 49
0.25
 49
-1.5
 49
0.25
 49
-1.5
  0
LTYPE
  2
double-dashed_double-dotted
 70
   64
  3
-----   ---------   -   -   ----
 72
   65
 73
    8
 40
18.5
 49
6
 49
-1.5
 49
6
 49
-1.5
 49
0.25
 49
-1.5
 49
0.25
 49
-1.5
  0
LTYPE
  2
dashed_triplicate-dotted
 70
   64
  3
-------    -    -    -    ------
 72
   65
 73
    8
 40
12.75
 49
6
 49
-1.5
 49
0.25
 49
-1.5
 49
0.25
 49
-1.5
 49
0.25
 49
-1.5
  0
LTYPE
  2
double-dashed_triplicate-dotted
 70
   64
  3
-----  ---------  -  -  -  -----
 72
   65
 73
   10
 40
20.25
 49
6
 49
-1.5
 49
6
 49
-1.5
 49
0.25
 49
-1.5
 49
0.25
 49
-1.5
 49
0.25
 49
-1.5
  0
LTYPE
  2
undefined
 70
   64
  3
--------------------------------
 72
   65
 73
    0
 40
0
  0
LTYPE
  2
_
 70
   64
  3
                                
 72
   65
 73
    0
 40
0
  0
LTYPE
  2
__18
 70
   64
  3
                                
 72
   65
 73
    0
 40
0
  0
LTYPE
  2
__19
 70
   64
  3
                                
 72
   65
 73
    0
 40
0
  0
LTYPE
  2
__20
 70
   64
  3
                                
 72
   65
 73
    0
 40
0
  0
LTYPE
  2
__21
 70
   64
  3
                                
 72
   65
 73
    0
 40
0
  0
LTYPE
  2
__22
 70
   64
  3
                                
 72
   65
 73
    0
 40
0
  0
LTYPE
  2
__23
 70
   64
  3
                                
 72
   65
 73
    0
 40
0
  0
LTYPE
  2
__24
 70
   64
  3
                                
 72
   65
 73
    0
 40
0
  0
LTYPE
  2
__25
 70
   64
  3
                                
 72
   65
 73
    0
 40
0
  0
LTYPE
  2
__26
 70
   64
  3
                                
 72
   65
 73
    0
 40
0
  0
LTYPE
  2
__27
 70
   64
  3
                                
 72
   65
 73
    0
 40
0
  0
LTYPE
  2
__28
 70
   64
  3
                                
 72
   65
 73
    0
 40
0
  0
LTYPE
  2
__29
 70
   64
  3
                                
 72
   65
 73
    0
 40
0
  0
LTYPE
  2
__30
 70
   64
  3
                                
 72
   65
 73
    0
 40
0
  0
LTYPE
  2
__31
 70
   64
  3
                                
 72
   65
 73
    0
 40
0
  0
LTYPE
  2
__32
 70
   64
  3
                                
 72
   65
 73
    0
 40
0
  0
ENDTAB
  0
TABLE
  2
STYLE
  5
3
100
AcDbSymbolTable
 70
     1
  0
STYLE
  5
10
100
AcDbSymbolTableRecord
100
AcDbTextStyleTableRecord
  2
STANDARD
 70
     0
 40
0.0
 41
1.0
 50
0.0
 71
     0
 42
0.2
  3
txt
  4
bigfont.shx
  0
STYLE
  5
26
100
AcDbSymbolTableRecord
100
AcDbTextStyleTableRecord
  2
TATEGAKI
 70
    68
 40
0.0
 41
1.0
 50
0.0
 71
     0
 42
1.0
  3
txt
  4
bigfont.shx
  0
ENDTAB
  0
TABLE
  2
LAYER
 70
    2
  0
LAYER
  2
_0-0_
 70
   64
 62
    7
  6
CONTINUOUS
  0
LAYER
  2
ADD_LINE
 70
   64
 62
    7
  6
CONTINUOUS
  0
ENDTAB
  0
ENDSEC
  0
SECTION
  2
BLOCKS
  0
ENDSEC
  0
SECTION
  2
ENTITIES
  0
LINE
  8
_0-0_
  6
DASHED1
 62
    4
 10
712.99999999999977
 20
668.81577409578551
 11
712.99999999999977
 21
670.31577409578562
  0
LINE
  8
_0-0_
  6
CONTINUOUS
 62
    4
 10
790.68782700987355
 20
671.74169908164026
 11
963.28768530543868
 21
709.13376814899436
  0
LINE
  8
_0-0_
  6
CENTER1
 62
    4
 10
742.5
 20
925.48394273017095
 11
742.5
 21
525
  0
ARC
  8
_0-0_
  6
CONTINUOUS
 62
    7
 10
692.5
 20
700.15044939971573
 40
4
 50
95.000000000000014
 51
180
  0
LINE
  8
_0-0_
  6
CONTINUOUS
 62
    7
 10
703.5
 20
708.793428744744
 11
703.5
 21
708.81577409578551
  0
LINE
  8
_0-0_
  6
CONTINUOUS
 62
    7
 10
699.84862297099061
 20
704.80864995237709
 11
692.15137702900938
 21
704.13522819208287
  0
ARC
  8
_0-0_
  6
CONTINUOUS
 62
    7
 10
699.49999999999988
 20
708.793428744744
 40
4
 50
275.00000000000011
 51
0
  0
LINE
  8
_0-0_
  6
CONTINUOUS
 62
    7
 10
688.5
 20
700.15044939971573
 11
688.5
 21
698.81577409578551
  0
LINE
  8
_0-0_
  6
CONTINUOUS
 62
    7
 10
688.5
 20
698.81577409578551
 11
720
 21
698.81577409578551
  0
LINE
  8
_0-0_
  6
CONTINUOUS
 62
    4
 10
719.29599936141642
 20
698.81577409578585
 11
719.99999999999943
 21
699.51977473436897
  0
LINE
  8
_0-0_
  6
CONTINUOUS
 62
    4
 10
717.88178579903978
 20
698.81577409578426
 11
720.00000000000113
 21
700.93398829674572
  0
LINE
  8
_0-0_
  6
CONTINUOUS
 62
    4
 10
716.46757223666554
 20
698.8157740957854
 11
720
 21
702.34820185911974
  0
LINE
  8
_0-0_
  6
CONTINUOUS
 62
    4
 10
715.05335867429153
 20
698.81577409578642
 11
719.99999999999886
 21
703.76241542149386
  0
LINE
  8
_0-0_
  6
CONTINUOUS
 62
    4
 10
713.6391451119249
 20
698.81577409578585
 11
720
 21
705.17662898386083
  0
LINE
  8
_0-0_
  6
CONTINUOUS
 62
    4
 10
712.22493154955054
 20
698.81577409578665
 11
719.99999999999886
 21
706.59084254623508
  0
LINE
  8
_0-0_
  6
CONTINUOUS
 62
    4
 10
710.81071798717402
 20
698.81577409578517
 11
720.00000000000056
 21
708.00505610861182
  0
LINE
  8
_0-0_
  6
CONTINUOUS
 62
    4
 10
709.39650442479944
 20
698.81577409578596
 11
719.39650442479944
 21
708.81577409578585
  0
LINE
  8
_0-0_
  6
CONTINUOUS
 62
    4
 10
707.98229086243281
 20
698.81577409578517
 11
717.98229086243259
 21
708.81577409578494
  0
LINE
  8
_0-0_
  6
CONTINUOUS
 62
    4
 10
706.5680773000588
 20
698.81577409578608
 11
716.56807730005823
 21
708.81577409578562
  0
LINE
  8
_0-0_
  6
CONTINUOUS
 62
    4
 10
705.15386373768194
 20
698.81577409578471
 11
715.15386373768228
 21
708.81577409578494
  0
LINE
  8
_0-0_
  6
CONTINUOUS
 62
    4
 10
703.73965017530792
 20
698.81577409578562
 11
713.73965017530849
 21
708.8157740957863
  0
LINE
  8
_0-0_
  6
CONTINUOUS
 62
    4
 10
702.32543661293391
 20
698.81577409578676
 11
712.32543661293425
 21
708.81577409578721
  0
LINE
  8
_0-0_
  6
CONTINUOUS
 62
    4
 10
700.91122305056671
 20
698.81577409578596
 11
710.91122305056592
 21
708.81577409578494
  0
LINE
  8
_0-0_
  6
CONTINUOUS
 62
    4
 10
699.4970094881927
 20
698.81577409578699
 11
709.4970094881919
 21
708.81577409578608
  0
LINE
  8
_0-0_
  6
CONTINUOUS
 62
    4
 10
698.08279592581607
 20
698.8157740957854
 11
708.08279592581698
 21
708.8157740957863
  0
LINE
  8
_0-0_
  6
CONTINUOUS
 62
    4
 10
696.66858236344182
 20
698.8157740957863
 11
706.66858236344296
 21
708.81577409578756
  0
LINE
  8
_0-0_
  6
CONTINUOUS
 62
    4
 10
695.25436880107486
 20
698.8157740957854
 11
705.25436880107372
 21
708.81577409578426
  0
LINE
  8
_0-0_
  6
CONTINUOUS
 62
    4
 10
693.84015523870084
 20
698.81577409578665
 11
699.83153619620225
 21
704.80715505328771
  0
LINE
  8
_0-0_
  6
CONTINUOUS
 62
    4
 10
703.48623344290217
 20
708.46185229998798
 11
703.84015523869948
 21
708.8157740957854
  0
LINE
  8
_0-0_
  6
CONTINUOUS
 62
    4
 10
692.4259416763241
 20
698.81577409578494
 11
698.2817323681852
 21
704.67156478764604
  0
LINE
  8
_0-0_
  6
CONTINUOUS
 62
    4
 10
691.01172811395008
 20
698.81577409578596
 11
696.73192854016974
 21
704.53597452200585
  0
LINE
  8
_0-0_
  6
CONTINUOUS
 62
    4
 10
689.59751455157345
 20
698.81577409578449
 11
695.18212471215406
 21
704.40038425636521
  0
LINE
  8
_0-0_
  6
CONTINUOUS
 62
    4
 10
688.49999999999909
 20
699.13247310657652
 11
693.63232088415031
 21
704.26479399072775
  0
LINE
  8
_0-0_
  6
CONTINUOUS
 62
    4
 10
688.5219166274885
 20
700.56860329644086
 11
692.08184610327748
 21
704.12853277222961
  0
LINE
  8
_0-0_
  6
CONTINUOUS
 62
    3
 10
710
 20
698.81577409578551
 11
386.7127721609421
 21
698.81577409578551
  0
LINE
  8
_0-0_
  6
CONTINUOUS
 62
    3
 10
1098.2872278390577
 20
698.81577409578551
 11
775
 21
698.81577409578551
  0
LINE
  8
_0-0_
  6
CONTINUOUS
 62
    4
 10
775.00000000000022
 20
685.2233101780871
 11
788.59246391769772
 21
698.81577409578471
  0
LINE
  8
_0-0_
  6
CONTINUOUS
 62
    4
 10
390.56298018211691
 20
682.62395220094026
 11
406.7548020769621
 21
698.81577409578551
  0
LINE
  8
_0-0_
  6
CONTINUOUS
 62
    4
 10
782.41010838274883
 20
703.71577621352219
 11
963.28768530543868
 21
709.13376814899436
  0
LINE
  8
_0-0_
  6
DASHED1
 62
    4
 10
712.99999999999977
 20
707.31577409578551
 11
716
 21
707.31577409578551
  0
LINE
  8
_0-0_
  6
DASHED1
 62
    4
 10
712.99999999999977
 20
708.81577409578551
 11
712.99999999999977
 21
707.31577409578551
  0
LINE
  8
_0-0_
  6
DASHED1
 62
    4
 10
716
 20
708.81577409578551
 11
716
 21
707.31577409578551
  0
SOLID
  8
_0-0_
  6
CONTINUOUS
 62
    4
 10
712.99999999999977
 20
708.81577409578551
 11
712.99999999999977
 21
707.31577409578551
 12
716
 22
708.81577409578551
 13
716
 23
707.31577409578551
  0
LINE
  8
_0-0_
  6
CONTINUOUS
 62
    7
 10
770.13795006481905
 20
698.81577409578551
 11
714.86204993518163
 21
698.81577409578551
  0
ARC
  8
_0-0_
  6
CONTINUOUS
 62
    7
 10
714.86204993518163
 20
697.81577409578562
 40
1
 50
90
 51
129.80557109226512
  0
LINE
  8
_0-0_
  6
CONTINUOUS
 62
    7
 10
711.85981560033587
 20
696.61562042939851
 11
714.22186553551705
 21
698.58399537538286
  0
ARC
  8
_0-0_
  6
CONTINUOUS
 62
    7
 10
712.50000000000022
 20
695.84739914980116
 40
1
 50
129.80557109226521
 51
180
  0
LINE
  8
_0-0_
  6
CONTINUOUS
 62
    7
 10
711.50000000000034
 20
695.84739914980116
 11
711.50000000000034
 21
693.31577409578574
  0
LINE
  8
_0-0_
  6
CONTINUOUS
 62
    7
 10
711.50000000000034
 20
693.31577409578574
 11
773.50000000000022
 21
693.31577409578574
  0
LINE
  8
_0-0_
  6
CONTINUOUS
 62
    7
 10
773.50000000000022
 20
695.84739914980116
 11
773.50000000000022
 21
693.31577409578574
  0
ARC
  8
_0-0_
  6
CONTINUOUS
 62
    7
 10
772.50000000000022
 20
695.84739914980116
 40
1
 50
0
 51
50.194428907734796
  0
LINE
  8
_0-0_
  6
CONTINUOUS
 62
    7
 10
773.1401843996648
 20
696.61562042939851
 11
770.7781344644834
 21
698.58399537538286
  0
LINE
  8
_0-0_
  6
CONTINUOUS
 62
    7
 10
712.50000000000022
 20
690.31577409578562
 11
772.50000000000022
 21
690.31577409578562
  0
LINE
  8
_0-0_
  6
CONTINUOUS
 62
    7
 10
719.75000000000022
 20
690.31577409578562
 11
719.75000000000022
 21
684.31577409578562
  0
LINE
  8
_0-0_
  6
CONTINUOUS
 62
    7
 10
712.50000000000022
 20
693.31577409578574
 11
712.50000000000022
 21
690.31577409578562
  0
LINE
  8
_0-0_
  6
CONTINUOUS
 62
    7
 10
765.25000000000034
 20
690.31577409578562
 11
765.25000000000034
 21
684.31577409578562
  0
LINE
  8
_0-0_
  6
CONTINUOUS
 62
    7
 10
719.75000000000022
 20
684.31577409578562
 11
765.25000000000034
 21
684.31577409578562
  0
LINE
  8
_0-0_
  6
CONTINUOUS
 62
    7
 10
772.50000000000022
 20
693.31577409578574
 11
772.50000000000022
 21
690.31577409578562
  0
TEXT
  8
_0-0_
 62
    4
 10
966.09191845775342
 20
721.45536129389756
 40
12.5
 41
1
 50
0
  1
スチロールパッキン
  0
TEXT
  8
_0-0_
 62
    4
 10
967.87214002006885
 20
703.92568967504666
 40
12.5
 41
1
 50
0
  1
マウンティングディスク
  0
LINE
  8
_0-0_
  6
DASHED3
 62
    4
 10
720
 20
708.81577409578551
 11
720
 21
698.81577409578551
  0
LINE
  8
_0-0_
  6
CONTINUOUS
 62
    4
 10
754.23909526422903
 20
740.1175913426415
 11
794.71244169111719
 21
791.54781055912906
  0
LINE
  8
_0-0_
  6
CONTINUOUS
 62
    4
 10
705.25
 20
700.31577409578562
 11
702.75
 21
700.31577409578562
  0
LINE
  8
_0-0_
  6
CONTINUOUS
 62
    4
 10
702.75
 20
698.81577409578551
 11
702.75
 21
700.31577409578562
  0
LINE
  8
_0-0_
  6
CONTINUOUS
 62
    4
 10
705.25
 20
698.81577409578551
 11
705.25
 21
700.31577409578562
  0
SOLID
  8
_0-0_
  6
CONTINUOUS
 62
    4
 10
702.75
 20
698.81577409578551
 11
702.75
 21
700.31577409578562
 12
705.25
 22
698.81577409578551
 13
705.25
 23
700.31577409578562
  0
LINE
  8
_0-0_
  6
CONTINUOUS
 62
    4
 10
770.69896456222352
 20
709.13694206127547
 11
967.21461441339727
 21
586.30258771485705
  0
TEXT
  8
_0-0_
 62
    4
 10
970.09283456835817
 20
575.73525748241547
 40
12.5
 41
1
 50
0
  1
Оリング（乳白）
  0
LINE
  8
_0-0_
  6
CONTINUOUS
 62
    4
 10
717.61634658414186
 20
692.8463274581901
 11
471.52993330950664
 21
559.07508862584916
  0
TEXT
  8
_0-0_
 62
    4
 10
305.66404925351201
 20
550.46773143087295
 40
12.5
 41
1
 50
0
  1
樹脂パッキン付座付きナット
  0
LINE
  8
_0-0_
  6
CONTINUOUS
 62
    4
 10
703.95303916867931
 20
699.72516215455311
 11
465.97147817918198
 21
599.7463814615985
  0
TEXT
  8
_0-0_
 62
    4
 10
378.53114987146852
 20
593.29490605075125
 40
12.5
 41
1
 50
0
  1
Оリング（黒）
  0
LINE
  8
_0-0_
  6
CONTINUOUS
 62
    7
 10
638.33727355001224
 20
506.81660755896655
 11
638.33727355001224
 21
489.31660755896655
  0
LINE
  8
_0-0_
  6
CONTINUOUS
 62
    7
 10
638.33727355001224
 20
489.31660755896655
 11
830.83727355001258
 21
489.31660755896655
  0
LINE
  8
_0-0_
  6
CONTINUOUS
 62
    7
 10
830.83727355001258
 20
489.31660755896655
 11
830.83727355001258
 21
506.81660755896655
  0
LINE
  8
_0-0_
  6
CONTINUOUS
 62
    7
 10
638.33727355001224
 20
506.81660755896655
 11
830.83727355001258
 21
506.81660755896655
  0
LINE
  8
_0-0_
  6
CONTINUOUS
 62
    3
 10
710
 20
698.81577409578551
 11
710
 21
673.81577409578551
  0
LINE
  8
_0-0_
  6
CONTINUOUS
 62
    3
 10
775
 20
698.81577409578551
 11
775
 21
673.81577409578551
  0
LINE
  8
_0-0_
  6
CONTINUOUS
 62
    4
 10
777.7345995414322
 20
673.81577409578551
 11
802.73459954143049
 21
698.8157740957838
  0
LINE
  8
_0-0_
  6
CONTINUOUS
 62
    4
 10
1046.43517639232
 20
673.81577409578551
 11
1071.4351763923182
 21
698.81577409578369
  0
LINE
  8
_0-0_
  6
CONTINUOUS
 62
    4
 10
1032.2930407685867
 20
673.81577409578551
 11
1057.293040768586
 21
698.81577409578483
  0
LINE
  8
_0-0_
  6
CONTINUOUS
 62
    4
 10
1018.1509051448534
 20
673.81577409578551
 11
1043.1509051448517
 21
698.81577409578403
  0
LINE
  8
_0-0_
  6
CONTINUOUS
 62
    4
 10
1004.0087695211198
 20
673.81577409578551
 11
1029.0087695211195
 21
698.81577409578517
  0
LINE
  8
_0-0_
  6
CONTINUOUS
 62
    4
 10
989.86663389739555
 20
673.81577409578551
 11
1014.8666338973959
 21
698.81577409578562
  0
LINE
  8
_0-0_
  6
CONTINUOUS
 62
    4
 10
1074.7194476397773
 20
673.81577409578551
 11
1095.6288656277308
 21
694.7251920837391
  0
LINE
  8
_0-0_
  6
CONTINUOUS
 62
    4
 10
1060.577312016044
 20
673.81577409578551
 11
1085.5773120160458
 21
698.8157740957871
  0
LINE
  8
_0-0_
  6
CONTINUOUS
 62
    4
 10
975.72449827366256
 20
673.81577409578551
 11
1000.7244982736619
 21
698.81577409578517
  0
LINE
  8
_0-0_
  6
CONTINUOUS
 62
    4
 10
961.58236264992865
 20
673.81577409578551
 11
986.58236264992956
 21
698.8157740957863
  0
LINE
  8
_0-0_
  6
CONTINUOUS
 62
    4
 10
947.44022702619588
 20
673.81577409578551
 11
972.44022702619759
 21
698.81577409578744
  0
LINE
  8
_0-0_
  6
CONTINUOUS
 62
    4
 10
933.2980914024713
 20
673.81577409578551
 11
958.29809140247016
 21
698.81577409578437
  0
LINE
  8
_0-0_
  6
CONTINUOUS
 62
    4
 10
919.15595577873796
 20
673.81577409578551
 11
944.15595577873773
 21
698.8157740957854
  0
LINE
  8
_0-0_
  6
CONTINUOUS
 62
    4
 10
905.01382015500462
 20
673.81577409578551
 11
930.01382015500439
 21
698.81577409578517
  0
LINE
  8
_0-0_
  6
CONTINUOUS
 62
    4
 10
890.87168453127583
 20
673.81577409578551
 11
915.87168453127731
 21
698.81577409578676
  0
LINE
  8
_0-0_
  6
CONTINUOUS
 62
    4
 10
876.72954890754704
 20
673.81577409578551
 11
901.72954890754704
 21
698.8157740957854
  0
LINE
  8
_0-0_
  6
CONTINUOUS
 62
    4
 10
862.58741328381404
 20
673.81577409578551
 11
887.5874132838137
 21
698.8157740957854
  0
LINE
  8
_0-0_
  6
CONTINUOUS
 62
    4
 10
848.4452776600807
 20
673.81577409578551
 11
873.44527766008184
 21
698.81577409578676
  0
LINE
  8
_0-0_
  6
CONTINUOUS
 62
    4
 10
834.30314203635612
 20
673.81577409578551
 11
859.30314203635384
 21
698.81577409578324
  0
LINE
  8
_0-0_
  6
CONTINUOUS
 62
    4
 10
820.16100641262278
 20
673.81577409578551
 11
845.16100641262198
 21
698.81577409578437
  0
LINE
  8
_0-0_
  6
CONTINUOUS
 62
    4
 10
806.01887078888944
 20
673.81577409578551
 11
831.01887078888921
 21
698.81577409578528
  0
LINE
  8
_0-0_
  6
CONTINUOUS
 62
    4
 10
791.8767351651561
 20
673.81577409578551
 11
816.87673516515701
 21
698.81577409578642
  0
LINE
  8
_0-0_
  6
CONTINUOUS
 62
    4
 10
395.89693770069544
 20
673.81577409578551
 11
420.8969377006943
 21
698.81577409578426
  0
LINE
  8
_0-0_
  6
CONTINUOUS
 62
    4
 10
707.02392142277426
 20
673.81577409578551
 11
709.99999999999886
 21
676.79185267301022
  0
LINE
  8
_0-0_
  6
CONTINUOUS
 62
    4
 10
692.88178579904126
 20
673.81577409578551
 11
710.0000000000017
 21
690.93398829674595
  0
LINE
  8
_0-0_
  6
CONTINUOUS
 62
    4
 10
678.73965017530758
 20
673.81577409578551
 11
703.73965017530758
 21
698.81577409578551
  0
LINE
  8
_0-0_
  6
CONTINUOUS
 62
    4
 10
664.59751455158334
 20
673.81577409578551
 11
689.59751455158254
 21
698.81577409578483
  0
LINE
  8
_0-0_
  6
CONTINUOUS
 62
    4
 10
650.45537892785
 20
673.81577409578551
 11
675.45537892785034
 21
698.81577409578596
  0
LINE
  8
_0-0_
  6
CONTINUOUS
 62
    4
 10
636.31324330411666
 20
673.81577409578551
 11
661.31324330411587
 21
698.81577409578471
  0
LINE
  8
_0-0_
  6
CONTINUOUS
 62
    4
 10
622.17110768038332
 20
673.81577409578551
 11
647.17110768038367
 21
698.81577409578596
  0
LINE
  8
_0-0_
  6
CONTINUOUS
 62
    4
 10
608.02897205665908
 20
673.81577409578551
 11
633.02897205665863
 21
698.81577409578494
  0
LINE
  8
_0-0_
  6
CONTINUOUS
 62
    4
 10
593.88683643292608
 20
673.81577409578551
 11
618.88683643292665
 21
698.8157740957863
  0
LINE
  8
_0-0_
  6
CONTINUOUS
 62
    4
 10
579.74470080919218
 20
673.81577409578551
 11
604.74470080919218
 21
698.8157740957854
  0
LINE
  8
_0-0_
  6
CONTINUOUS
 62
    4
 10
565.60256518546816
 20
673.81577409578551
 11
590.6025651854668
 21
698.81577409578403
  0
LINE
  8
_0-0_
  6
CONTINUOUS
 62
    4
 10
551.46042956173482
 20
673.81577409578551
 11
576.46042956173459
 21
698.81577409578528
  0
LINE
  8
_0-0_
  6
CONTINUOUS
 62
    4
 10
537.31829393800148
 20
673.81577409578551
 11
562.31829393800239
 21
698.8157740957863
  0
LINE
  8
_0-0_
  6
CONTINUOUS
 62
    4
 10
523.17615831426815
 20
673.81577409578551
 11
548.17615831426849
 21
698.81577409578596
  0
LINE
  8
_0-0_
  6
CONTINUOUS
 62
    4
 10
509.03402269054396
 20
673.81577409578551
 11
534.03402269054254
 21
698.81577409578414
  0
LINE
  8
_0-0_
  6
CONTINUOUS
 62
    4
 10
494.89188706681062
 20
673.81577409578551
 11
519.89188706681034
 21
698.81577409578517
  0
LINE
  8
_0-0_
  6
CONTINUOUS
 62
    4
 10
480.74975144307728
 20
673.81577409578551
 11
505.74975144307813
 21
698.81577409578642
  0
LINE
  8
_0-0_
  6
CONTINUOUS
 62
    4
 10
466.60761581934394
 20
673.81577409578551
 11
491.60761581934508
 21
698.81577409578665
  0
LINE
  8
_0-0_
  6
CONTINUOUS
 62
    4
 10
452.4654801956197
 20
673.81577409578551
 11
477.46548019561828
 21
698.81577409578414
  0
LINE
  8
_0-0_
  6
CONTINUOUS
 62
    4
 10
438.32334457188636
 20
673.81577409578551
 11
463.32334457188608
 21
698.81577409578528
  0
LINE
  8
_0-0_
  6
CONTINUOUS
 62
    4
 10
424.18120894815302
 20
673.81577409578551
 11
449.18120894815388
 21
698.81577409578653
  0
LINE
  8
_0-0_
  6
CONTINUOUS
 62
    4
 10
410.03907332441968
 20
673.81577409578551
 11
435.03907332442139
 21
698.81577409578721
  0
LINE
  8
_0-0_
  6
CONTINUOUS
 62
    4
 10
389.05128820247853
 20
695.25439584503533
 11
392.6126664532299
 21
698.81577409578665
  0
LINE
  8
_0-0_
  6
CONTINUOUS
 62
    4
 10
386.7127721609421
 20
698.81577409578551
 11
387.43501731898732
 21
697.75652084903231
  0
LINE
  8
_0-0_
  6
CONTINUOUS
 62
    4
 10
387.43501731898732
 20
697.75652084903231
 11
388.64282463859098
 21
695.9302221477335
  0
LINE
  8
_0-0_
  6
CONTINUOUS
 62
    4
 10
388.64282463859098
 20
695.9302221477335
 11
389.74662375572819
 21
694.1039234464348
  0
LINE
  8
_0-0_
  6
CONTINUOUS
 62
    4
 10
389.74662375572819
 20
694.1039234464348
 11
390.68058669415449
 21
692.27762474513622
  0
LINE
  8
_0-0_
  6
CONTINUOUS
 62
    4
 10
390.68058669415449
 20
692.27762474513622
 11
391.37888547762514
 21
690.45132604383752
  0
LINE
  8
_0-0_
  6
CONTINUOUS
 62
    4
 10
391.37888547762514
 20
690.45132604383752
 11
391.77569212989567
 21
688.62502734253882
  0
LINE
  8
_0-0_
  6
CONTINUOUS
 62
    4
 10
391.77569212989567
 20
688.62502734253882
 11
391.84175664800136
 21
687.56577409578551
  0
LINE
  8
_0-0_
  6
CONTINUOUS
 62
    4
 10
391.84175664800136
 20
687.56577409578551
 11
391.77569212989567
 21
686.50652084903231
  0
LINE
  8
_0-0_
  6
CONTINUOUS
 62
    4
 10
391.77569212989567
 20
686.50652084903231
 11
391.37888547762514
 21
684.6802221477335
  0
LINE
  8
_0-0_
  6
CONTINUOUS
 62
    4
 10
391.37888547762514
 20
684.6802221477335
 11
390.68058669415449
 21
682.8539234464348
  0
LINE
  8
_0-0_
  6
CONTINUOUS
 62
    4
 10
390.68058669415449
 20
682.8539234464348
 11
389.74662375572819
 21
681.02762474513622
  0
LINE
  8
_0-0_
  6
CONTINUOUS
 62
    4
 10
389.74662375572819
 20
681.02762474513622
 11
388.64282463859069
 21
679.20132604383752
  0
LINE
  8
_0-0_
  6
CONTINUOUS
 62
    4
 10
388.64282463859069
 20
679.20132604383752
 11
387.43501731898732
 21
677.37502734253882
  0
LINE
  8
_0-0_
  6
CONTINUOUS
 62
    4
 10
387.43501731898732
 20
677.37502734253882
 11
385.00816289904264
 21
673.81577409578551
  0
LINE
  8
_0-0_
  6
CONTINUOUS
 62
    4
 10
1098.2872278390577
 20
698.81577409578551
 11
1097.5649826810126
 21
697.75652084903231
  0
LINE
  8
_0-0_
  6
CONTINUOUS
 62
    4
 10
1097.5649826810126
 20
697.75652084903231
 11
1096.3571753614089
 21
695.9302221477335
  0
LINE
  8
_0-0_
  6
CONTINUOUS
 62
    4
 10
1096.3571753614089
 20
695.9302221477335
 11
1095.2533762442717
 21
694.1039234464348
  0
LINE
  8
_0-0_
  6
CONTINUOUS
 62
    4
 10
1095.2533762442717
 20
694.1039234464348
 11
1094.3194133058455
 21
692.27762474513622
  0
LINE
  8
_0-0_
  6
CONTINUOUS
 62
    4
 10
1094.3194133058455
 20
692.27762474513622
 11
1093.6211145223749
 21
690.45132604383752
  0
LINE
  8
_0-0_
  6
CONTINUOUS
 62
    4
 10
1093.6211145223749
 20
690.45132604383752
 11
1093.2243078701044
 21
688.62502734253882
  0
LINE
  8
_0-0_
  6
CONTINUOUS
 62
    4
 10
1093.2243078701044
 20
688.62502734253882
 11
1093.1582433519986
 21
687.56577409578551
  0
LINE
  8
_0-0_
  6
CONTINUOUS
 62
    4
 10
1093.1582433519986
 20
687.56577409578551
 11
1093.2243078701044
 21
686.50652084903231
  0
LINE
  8
_0-0_
  6
CONTINUOUS
 62
    4
 10
1093.2243078701044
 20
686.50652084903231
 11
1093.6211145223749
 21
684.6802221477335
  0
LINE
  8
_0-0_
  6
CONTINUOUS
 62
    4
 10
1093.6211145223749
 20
684.6802221477335
 11
1094.3194133058455
 21
682.8539234464348
  0
LINE
  8
_0-0_
  6
CONTINUOUS
 62
    4
 10
1094.3194133058455
 20
682.8539234464348
 11
1095.2533762442717
 21
681.02762474513622
  0
LINE
  8
_0-0_
  6
CONTINUOUS
 62
    4
 10
1095.2533762442717
 20
681.02762474513622
 11
1096.3571753614091
 21
679.20132604383752
  0
LINE
  8
_0-0_
  6
CONTINUOUS
 62
    4
 10
1096.3571753614091
 20
679.20132604383752
 11
1097.5649826810126
 21
677.37502734253882
  0
LINE
  8
_0-0_
  6
CONTINUOUS
 62
    4
 10
1097.5649826810126
 20
677.37502734253882
 11
1099.0094729971031
 21
675.25652084903231
  0
LINE
  8
_0-0_
  6
CONTINUOUS
 62
    4
 10
1088.8615832635107
 20
673.81577409578551
 11
1095.5623007193853
 21
680.51649155165989
  0
LINE
  8
_0-0_
  6
CONTINUOUS
 62
    3
 10
710
 20
673.81577409578551
 11
385.00816289904264
 21
673.81577409578551
  0
LINE
  8
_0-0_
  6
CONTINUOUS
 62
    3
 10
1099.9622987714567
 20
673.81577409578551
 11
775
 21
673.81577409578551
  0
LINE
  8
_0-0_
  6
CONTINUOUS
 62
    4
 10
1099.0094729971031
 20
675.25652084903231
 11
1099.9622987714567
 21
673.81577409578551
  0
TEXT
  8
_0-0_
 62
    4
 10
798.10179789787525
 20
790.92069064469239
 40
12.5
 41
1
 50
0
  1
JORGER製 排水金具70mm
  0
LINE
  8
_0-0_
  6
CONTINUOUS
 62
    7
 10
783.50000000000022
 20
668.81577409578551
 11
766.00000000000022
 21
668.81577409578551
  0
LINE
  8
_0-0_
  6
CONTINUOUS
 62
    7
 10
702.00000000000022
 20
670.3157740957854
 11
694.24838395461506
 21
670.3157740957854
  0
ARC
  8
_0-0_
  6
CONTINUOUS
 62
    7
 10
694.24838395461506
 20
675.3157740957854
 40
5
 50
244.93081024931797
 51
270
  0
LINE
  8
_0-0_
  6
CONTINUOUS
 62
    7
 10
688.50000000000022
 20
673.52702134519461
 11
688.50000000000022
 21
673.81577409578551
  0
ARC
  8
_0-0_
  6
CONTINUOUS
 62
    7
 10
697.63808315945482
 20
682.56214831333113
 40
13
 50
226.28698228974323
 51
244.93081024931791
  0
ARC
  8
_0-0_
  6
CONTINUOUS
 62
    7
 10
689
 20
673.52702134519461
 40
0.5
 50
180
 51
226.28698228974266
  0
ARC
  8
_0-0_
  6
CONTINUOUS
 62
    7
 10
702.00000000000022
 20
668.81577409578551
 40
1.5000000000000002
 50
0
 51
90
  0
LINE
  8
_0-0_
  6
CONTINUOUS
 62
    7
 10
785
 20
670.3157740957854
 11
792.75161604538482
 21
670.3157740957854
  0
ARC
  8
_0-0_
  6
CONTINUOUS
 62
    7
 10
792.75161604538482
 20
675.3157740957854
 40
5
 50
270
 51
295.06918975068202
  0
LINE
  8
_0-0_
  6
CONTINUOUS
 62
    7
 10
798.50000000000022
 20
673.52702134519461
 11
798.50000000000022
 21
673.81577409578551
  0
ARC
  8
_0-0_
  6
CONTINUOUS
 62
    7
 10
789.36191684054563
 20
682.56214831333113
 40
13
 50
295.06918975068208
 51
313.71301771025673
  0
ARC
  8
_0-0_
  6
CONTINUOUS
 62
    7
 10
798.00000000000011
 20
673.52702134519461
 40
0.5
 50
313.7130177102573
 51
0
  0
ARC
  8
_0-0_
  6
CONTINUOUS
 62
    7
 10
785
 20
668.81577409578551
 40
1.5000000000000002
 50
90
 51
180
  0
LINE
  8
_0-0_
  6
CONTINUOUS
 62
    7
 10
703.50000000000022
 20
668.81577409578551
 11
719
 21
668.81577409578551
  0
LINE
  8
_0-0_
  6
CONTINUOUS
 62
    7
 10
688.50000000000022
 20
673.81577409578551
 11
719
 21
673.81577409578551
  0
LINE
  8
_0-0_
  6
CONTINUOUS
 62
    7
 10
766.00000000000022
 20
673.81577409578551
 11
798.50000000000022
 21
673.81577409578551
  0
LINE
  8
_0-0_
  6
CONTINUOUS
 62
    4
 10
796.90621316023316
 20
671.97519440577093
 11
798.5000000000025
 21
673.56898124554027
  0
LINE
  8
_0-0_
  6
CONTINUOUS
 62
    4
 10
793.98780514298607
 20
670.47099995089888
 11
797.33257928787224
 21
673.81577409578494
  0
LINE
  8
_0-0_
  6
CONTINUOUS
 62
    4
 10
792.418365725498
 20
670.31577409578608
 11
795.91836572549823
 21
673.8157740957863
  0
LINE
  8
_0-0_
  6
CONTINUOUS
 62
    4
 10
791.00415216313081
 20
670.31577409578505
 11
794.50415216313388
 21
673.81577409578778
  0
LINE
  8
_0-0_
  6
CONTINUOUS
 62
    4
 10
789.58993860075679
 20
670.31577409578608
 11
793.08993860075759
 21
673.81577409578665
  0
LINE
  8
_0-0_
  6
CONTINUOUS
 62
    4
 10
788.17572503838277
 20
670.31577409578733
 11
791.67572503838073
 21
673.81577409578517
  0
LINE
  8
_0-0_
  6
CONTINUOUS
 62
    4
 10
786.76151147600853
 20
670.31577409578812
 11
790.26151147600614
 21
673.81577409578562
  0
LINE
  8
_0-0_
  6
CONTINUOUS
 62
    4
 10
785.34729791363906
 20
670.31577409578471
 11
788.84729791364179
 21
673.81577409578744
  0
LINE
  8
_0-0_
  6
CONTINUOUS
 62
    4
 10
782.43308435126493
 20
668.81577409578596
 11
787.4330843512655
 21
673.81577409578642
  0
LINE
  8
_0-0_
  6
CONTINUOUS
 62
    4
 10
781.01887078889092
 20
668.81577409578676
 11
786.01887078888898
 21
673.81577409578483
  0
LINE
  8
_0-0_
  6
CONTINUOUS
 62
    4
 10
779.60465722651633
 20
668.81577409578744
 11
784.60465722651383
 21
673.81577409578494
  0
LINE
  8
_0-0_
  6
CONTINUOUS
 62
    4
 10
773.94780297702368
 20
668.8157740957863
 11
778.94780297702141
 21
673.81577409578426
  0
LINE
  8
_0-0_
  6
CONTINUOUS
 62
    4
 10
772.53358941464853
 20
668.8157740957863
 11
777.53358941464739
 21
673.8157740957854
  0
LINE
  8
_0-0_
  6
CONTINUOUS
 62
    4
 10
766.87673516515678
 20
668.81577409578608
 11
771.87673516515565
 21
673.81577409578483
  0
LINE
  8
_0-0_
  6
CONTINUOUS
 62
    4
 10
766.00000000000045
 20
669.35325249299592
 11
770.46252160279095
 21
673.81577409578642
  0
LINE
  8
_0-0_
  6
CONTINUOUS
 62
    4
 10
765.99999999999909
 20
670.76746605536959
 11
769.04830804041694
 21
673.81577409578721
  0
LINE
  8
_0-0_
  6
CONTINUOUS
 62
    4
 10
765.99999999999931
 20
672.18167961774508
 11
767.63409447804008
 21
673.81577409578562
  0
LINE
  8
_0-0_
  6
CONTINUOUS
 62
    4
 10
766.00000000000136
 20
673.59589318012217
 11
766.21988091566322
 21
673.81577409578426
  0
LINE
  8
_0-0_
  6
CONTINUOUS
 62
    4
 10
718.79347404447344
 20
668.8157740957854
 11
719.00000000000034
 21
669.02230005131195
  0
LINE
  8
_0-0_
  6
CONTINUOUS
 62
    4
 10
717.37926048209942
 20
668.81577409578653
 11
718.99999999999954
 21
670.43651361368642
  0
LINE
  8
_0-0_
  6
CONTINUOUS
 62
    4
 10
710.30819267023389
 20
668.81577409578721
 11
715.30819267023184
 21
673.81577409578551
  0
LINE
  8
_0-0_
  6
CONTINUOUS
 62
    4
 10
708.89397910786101
 20
668.81577409578528
 11
713.89397910786044
 21
673.81577409578471
  0
LINE
  8
_0-0_
  6
CONTINUOUS
 62
    4
 10
707.4797655454904
 20
668.81577409578517
 11
712.47976554549154
 21
673.8157740957863
  0
LINE
  8
_0-0_
  6
CONTINUOUS
 62
    4
 10
706.06555198311582
 20
668.81577409578596
 11
711.06555198311468
 21
673.81577409578483
  0
LINE
  8
_0-0_
  6
CONTINUOUS
 62
    4
 10
704.65133842074214
 20
668.81577409578721
 11
709.65133842073953
 21
673.81577409578483
  0
LINE
  8
_0-0_
  6
CONTINUOUS
 62
    4
 10
703.48017749474593
 20
669.05882673216615
 11
708.23712485836551
 21
673.81577409578596
  0
LINE
  8
_0-0_
  6
CONTINUOUS
 62
    4
 10
702.96841349849557
 20
669.96127629828208
 11
706.8229112959998
 21
673.81577409578608
  0
LINE
  8
_0-0_
  6
CONTINUOUS
 62
    4
 10
699.08027060887718
 20
670.31577409578903
 11
702.58027060887366
 21
673.8157740957854
  0
LINE
  8
_0-0_
  6
CONTINUOUS
 62
    4
 10
697.66605704650771
 20
670.3157740957854
 11
701.16605704650851
 21
673.8157740957863
  0
LINE
  8
_0-0_
  6
CONTINUOUS
 62
    4
 10
696.25184348413336
 20
670.3157740957863
 11
699.75184348413426
 21
673.81577409578721
  0
LINE
  8
_0-0_
  6
CONTINUOUS
 62
    4
 10
694.83762992175911
 20
670.31577409578744
 11
698.33762992175729
 21
673.81577409578551
  0
LINE
  8
_0-0_
  6
CONTINUOUS
 62
    4
 10
693.48243277418532
 20
670.37479051058869
 11
696.92341635938134
 21
673.81577409578483
  0
LINE
  8
_0-0_
  6
CONTINUOUS
 62
    4
 10
692.37387865652408
 20
670.6804499553026
 11
695.50920279700676
 21
673.81577409578528
  0
LINE
  8
_0-0_
  6
CONTINUOUS
 62
    4
 10
691.42317814635703
 20
671.14396300750161
 11
694.09498923464275
 21
673.81577409578721
  0
LINE
  8
_0-0_
  6
CONTINUOUS
 62
    4
 10
690.53757659541702
 20
671.67257501893675
 11
692.68077567226612
 21
673.81577409578562
  0
LINE
  8
_0-0_
  6
CONTINUOUS
 62
    4
 10
689.71013711762793
 20
672.25934910352282
 11
691.26656210988926
 21
673.81577409578414
  0
LINE
  8
_0-0_
  6
CONTINUOUS
 62
    4
 10
688.9385721965516
 20
672.90199774482152
 11
689.85234854751524
 21
673.8157740957854
  0
LINE
  8
_0-0_
  6
DASHED1
 62
    4
 10
712.99999999999977
 20
670.31577409578562
 11
716
 21
670.31577409578562
  0
LINE
  8
_0-0_
  6
DASHED1
 62
    4
 10
716
 20
668.81577409578551
 11
716
 21
670.31577409578562
  0
LINE
  8
_0-0_
  6
DASHED1
 62
    4
 10
772.00000000000045
 20
668.81577409578551
 11
772.00000000000045
 21
670.31577409578562
  0
LINE
  8
_0-0_
  6
DASHED1
 62
    4
 10
772.00000000000045
 20
670.31577409578562
 11
769.00000000000034
 21
670.31577409578562
  0
LINE
  8
_0-0_
  6
DASHED1
 62
    4
 10
769.00000000000034
 20
668.81577409578551
 11
769.00000000000034
 21
670.31577409578562
  0
LINE
  8
_0-0_
  6
DASHED3
 62
    4
 10
719
 20
668.81577409578551
 11
719
 21
673.81577409578551
  0
LINE
  8
_0-0_
  6
DASHED3
 62
    4
 10
766.00000000000022
 20
668.81577409578551
 11
766.00000000000022
 21
673.81577409578551
  0
LINE
  8
_0-0_
  6
DASHED3
 62
    4
 10
719
 20
673.81577409578551
 11
722.94110373999217
 21
673.81577409578551
  0
LINE
  8
_0-0_
  6
DASHED3
 62
    4
 10
763.06623044378682
 20
673.81577409578551
 11
766.00000000000022
 21
673.81577409578551
  0
LINE
  8
_0-0_
  6
CONTINUOUS
 62
    4
 10
705.25
 20
672.31577409578551
 11
702.75
 21
672.31577409578551
  0
LINE
  8
_0-0_
  6
CONTINUOUS
 62
    4
 10
702.75
 20
673.81577409578551
 11
702.75
 21
672.31577409578551
  0
LINE
  8
_0-0_
  6
CONTINUOUS
 62
    4
 10
705.25
 20
673.81577409578551
 11
705.25
 21
672.31577409578551
  0
LINE
  8
_0-0_
  6
CONTINUOUS
 62
    4
 10
779.75
 20
672.31577409578551
 11
782.25
 21
672.31577409578551
  0
LINE
  8
_0-0_
  6
CONTINUOUS
 62
    4
 10
782.25
 20
673.81577409578551
 11
782.25
 21
672.31577409578551
  0
LINE
  8
_0-0_
  6
CONTINUOUS
 62
    4
 10
779.75
 20
673.81577409578551
 11
779.75
 21
672.31577409578551
  0
TEXT
  8
_0-0_
 62
    7
 10
915.94025367894289
 20
651.96882936739268
 40
17.5
 41
1
 50
0
  1
天板開口寸法：65～67
  0
LINE
  8
_0-0_
  6
CONTINUOUS
 62
    4
 10
751.81774357639369
 20
614.64960387000542
 11
973.31084311484141
 21
549.07379705533912
  0
LINE
  8
_0-0_
  6
CONTINUOUS
 62
    4
 10
471.52993330950664
 20
559.07508862584916
 11
718.82428183867227
 21
661.41248411784408
  0
LINE
  8
_0-0_
  6
CONTINUOUS
 62
    7
 10
672.35295318690702
 20
724.06419933953873
 11
675.14214051525812
 21
723.96375363460163
  0
LINE
  8
_0-0_
  6
CONTINUOUS
 62
    7
 10
687.0121082917692
 20
722.80532124050239
 11
684.8235687941792
 21
723.09253603553179
  0
LINE
  8
_0-0_
  6
CONTINUOUS
 62
    4
 10
456.59044371455706
 20
842.27823128392617
 11
469.67652346044786
 21
822.17588397610188
  0
ARC
  8
_0-0_
  6
CONTINUOUS
 62
    4
 10
447.64133896357691
 20
837.81577409578562
 40
10
 50
26.503067075548219
 51
90.000000000000056
  0
LINE
  8
_0-0_
  6
CONTINUOUS
 62
    7
 10
408.50000000000022
 20
834.81577409578574
 11
408.55917159763293
 21
836.73885101886253
  0
LINE
  8
_0-0_
  6
CONTINUOUS
 62
    7
 10
408.55917159763293
 20
836.73885101886253
 11
408.73668639053278
 21
838.50808178809347
  0
LINE
  8
_0-0_
  6
CONTINUOUS
 62
    7
 10
408.73668639053278
 20
838.50808178809347
 11
409.03254437869804
 21
840.12346640347811
  0
LINE
  8
_0-0_
  6
CONTINUOUS
 62
    7
 10
409.44674556212987
 20
841.58500486501634
 11
409.97928994082826
 21
842.89269717270872
  0
LINE
  8
_0-0_
  6
CONTINUOUS
 62
    7
 10
409.97928994082826
 20
842.89269717270872
 11
410.63017751479264
 21
844.04654332655479
  0
LINE
  8
_0-0_
  6
CONTINUOUS
 62
    7
 10
410.63017751479264
 20
844.04654332655479
 11
411.39940828402359
 21
845.04654332655502
  0
LINE
  8
_0-0_
  6
CONTINUOUS
 62
    7
 10
411.39940828402359
 20
845.04654332655502
 11
412.28698224852053
 21
845.89269717270894
  0
LINE
  8
_0-0_
  6
CONTINUOUS
 62
    7
 10
412.28698224852053
 20
845.89269717270894
 11
413.29289940828402
 21
846.58500486501634
  0
LINE
  8
_0-0_
  6
CONTINUOUS
 62
    7
 10
413.29289940828402
 20
846.58500486501634
 11
414.41715976331352
 21
847.123466403478
  0
LINE
  8
_0-0_
  6
CONTINUOUS
 62
    7
 10
414.41715976331352
 20
847.123466403478
 11
415.65976331360957
 21
847.50808178809347
  0
LINE
  8
_0-0_
  6
CONTINUOUS
 62
    7
 10
415.65976331360957
 20
847.50808178809347
 11
417.02071005917161
 21
847.73885101886264
  0
LINE
  8
_0-0_
  6
CONTINUOUS
 62
    7
 10
417.02071005917161
 20
847.73885101886264
 11
418.50000000000022
 21
847.81577409578574
  0
LINE
  8
_0-0_
  6
CONTINUOUS
 62
    7
 10
1076.4999999999997
 20
834.81577409578574
 11
1076.440828402367
 21
836.73885101886253
  0
LINE
  8
_0-0_
  6
CONTINUOUS
 62
    7
 10
1076.440828402367
 20
836.73885101886253
 11
1076.2633136094673
 21
838.50808178809347
  0
LINE
  8
_0-0_
  6
CONTINUOUS
 62
    7
 10
1076.2633136094673
 20
838.50808178809347
 11
1075.9674556213019
 21
840.12346640347811
  0
LINE
  8
_0-0_
  6
CONTINUOUS
 62
    7
 10
1075.9674556213019
 20
840.12346640347811
 11
1075.5532544378702
 21
841.58500486501634
  0
LINE
  8
_0-0_
  6
CONTINUOUS
 62
    7
 10
1075.5532544378702
 20
841.58500486501634
 11
1075.0207100591717
 21
842.89269717270872
  0
LINE
  8
_0-0_
  6
CONTINUOUS
 62
    7
 10
1075.0207100591717
 20
842.89269717270872
 11
1074.3698224852073
 21
844.04654332655479
  0
LINE
  8
_0-0_
  6
CONTINUOUS
 62
    7
 10
1074.3698224852073
 20
844.04654332655479
 11
1073.6005917159764
 21
845.04654332655502
  0
LINE
  8
_0-0_
  6
CONTINUOUS
 62
    7
 10
1073.6005917159764
 20
845.04654332655502
 11
1072.7130177514795
 21
845.89269717270894
  0
LINE
  8
_0-0_
  6
CONTINUOUS
 62
    7
 10
1072.7130177514795
 20
845.89269717270894
 11
1071.7071005917159
 21
846.58500486501634
  0
LINE
  8
_0-0_
  6
CONTINUOUS
 62
    7
 10
1071.7071005917159
 20
846.58500486501634
 11
1070.5828402366864
 21
847.123466403478
  0
LINE
  8
_0-0_
  6
CONTINUOUS
 62
    7
 10
1070.5828402366864
 20
847.123466403478
 11
1069.3402366863904
 21
847.50808178809347
  0
LINE
  8
_0-0_
  6
CONTINUOUS
 62
    7
 10
1069.3402366863904
 20
847.50808178809347
 11
1067.9792899408284
 21
847.73885101886264
  0
LINE
  8
_0-0_
  6
CONTINUOUS
 62
    7
 10
1067.9792899408284
 20
847.73885101886264
 11
1066.4999999999997
 21
847.81577409578574
  0
LINE
  8
_0-0_
  6
CONTINUOUS
 62
    4
 10
924.39980408790461
 20
742.12372576607788
 11
921.85555939980361
 21
741.37139673812737
  0
LINE
  8
_0-0_
  6
CONTINUOUS
 62
    4
 10
921.85555939980849
 20
741.37139673812885
 11
919.17749332189657
 21
740.64753191848421
  0
LINE
  8
_0-0_
  6
CONTINUOUS
 62
    4
 10
919.17749332190078
 20
740.64753191848524
 11
914.44733797821504
 21
739.5180270791709
  0
LINE
  8
_0-0_
  6
CONTINUOUS
 62
    4
 10
914.44733797821811
 20
739.51802707917158
 11
909.74357791537215
 21
738.55009090560315
  0
LINE
  8
_0-0_
  6
CONTINUOUS
 62
    4
 10
909.74357791537329
 20
738.55009090560338
 11
891.90900351167215
 21
735.93662255666924
  0
LINE
  8
_0-0_
  6
CONTINUOUS
 62
    4
 10
891.90900351167238
 20
735.93662255666924
 11
883.95666391453664
 21
735.04614089561118
  0
LINE
  8
_0-0_
  6
CONTINUOUS
 62
    4
 10
883.95666391453664
 20
735.04614089561118
 11
875.93092241609497
 21
734.28865685330765
  0
LINE
  8
_0-0_
  6
CONTINUOUS
 62
    4
 10
875.93092241609497
 20
734.28865685330765
 11
868.04372307116466
 21
733.66954627719587
  0
LINE
  8
_0-0_
  6
CONTINUOUS
 62
    4
 10
868.043723071165
 20
733.66954627719587
 11
864.89360003458557
 21
733.6721012573422
  0
LINE
  8
_0-0_
  6
CONTINUOUS
 62
    4
 10
864.89360003458591
 20
733.6721012573422
 11
861.60970462104705
 21
733.69263744463319
  0
LINE
  8
_0-0_
  6
CONTINUOUS
 62
    4
 10
861.60970462104751
 20
733.69263744463341
 11
858.36692541867193
 21
733.7282326758127
  0
LINE
  8
_0-0_
  6
CONTINUOUS
 62
    4
 10
858.36692541867273
 20
733.72823267581247
 11
855.15852451241948
 21
733.77604933841791
  0
LINE
  8
_0-0_
  6
CONTINUOUS
 62
    4
 10
855.1585245124229
 20
733.77604933841791
 11
851.97889713454856
 21
733.83320017494622
  0
LINE
  8
_0-0_
  6
CONTINUOUS
 62
    4
 10
851.9788971345506
 20
733.83320017494611
 11
848.82352891969026
 21
733.89676333738361
  0
LINE
  8
_0-0_
  6
CONTINUOUS
 62
    4
 10
848.82352891969048
 20
733.89676333738384
 11
845.68895037125093
 21
733.96379853681401
  0
LINE
  8
_0-0_
  6
CONTINUOUS
 62
    4
 10
845.68895037125116
 20
733.96379853681401
 11
842.57268956291773
 21
734.03136424397314
  0
LINE
  8
_0-0_
  6
CONTINUOUS
 62
    4
 10
842.57268956292648
 20
734.03136424397303
 11
839.47322398102187
 21
734.09653578739823
  0
LINE
  8
_0-0_
  6
CONTINUOUS
 62
    4
 10
642.42731043707351
 20
734.03136424397303
 11
639.31104962874906
 21
733.96379853681401
  0
LINE
  8
_0-0_
  6
CONTINUOUS
 62
    4
 10
639.31104962874906
 20
733.96379853681401
 11
636.17647108030973
 21
733.89676333738361
  0
LINE
  8
_0-0_
  6
CONTINUOUS
 62
    4
 10
636.17647108030973
 20
733.89676333738361
 11
633.02110286544939
 21
733.83320017494611
  0
LINE
  8
_0-0_
  6
CONTINUOUS
 62
    4
 10
633.02110286544939
 20
733.83320017494611
 11
629.84147548758051
 21
733.77604933841791
  0
LINE
  8
_0-0_
  6
CONTINUOUS
 62
    4
 10
629.84147548758051
 20
733.77604933841791
 11
626.63307458132726
 21
733.72823267581247
  0
LINE
  8
_0-0_
  6
CONTINUOUS
 62
    4
 10
626.63307458132726
 20
733.72823267581247
 11
623.39029537895294
 21
733.69263744463319
  0
LINE
  8
_0-0_
  6
CONTINUOUS
 62
    4
 10
623.39029537895294
 20
733.69263744463319
 11
620.10639996541442
 21
733.6721012573422
  0
LINE
  8
_0-0_
  6
CONTINUOUS
 62
    4
 10
620.10639996541442
 20
733.6721012573422
 11
616.95627692883533
 21
733.66954627719587
  0
LINE
  8
_0-0_
  6
CONTINUOUS
 62
    4
 10
616.95627692883533
 20
733.66954627719587
 11
609.06907758390502
 21
734.28865685330765
  0
LINE
  8
_0-0_
  6
CONTINUOUS
 62
    4
 10
609.06907758390502
 20
734.28865685330765
 11
601.04333608546335
 21
735.04614089561118
  0
LINE
  8
_0-0_
  6
CONTINUOUS
 62
    4
 10
601.04333608546335
 20
735.04614089561118
 11
593.09099648832784
 21
735.93662255666924
  0
LINE
  8
_0-0_
  6
CONTINUOUS
 62
    4
 10
593.09099648832784
 20
735.93662255666924
 11
575.25642208462784
 21
738.55009090560315
  0
LINE
  8
_0-0_
  6
CONTINUOUS
 62
    4
 10
575.25642208462784
 20
738.55009090560315
 11
570.55266202178495
 21
739.5180270791709
  0
LINE
  8
_0-0_
  6
CONTINUOUS
 62
    4
 10
570.55266202178495
 20
739.5180270791709
 11
565.82250667809921
 21
740.64753191848524
  0
LINE
  8
_0-0_
  6
CONTINUOUS
 62
    4
 10
565.82250667809921
 20
740.64753191848524
 11
563.1444406001915
 21
741.37139673812885
  0
LINE
  8
_0-0_
  6
CONTINUOUS
 62
    4
 10
563.1444406001915
 20
741.37139673812885
 11
560.60019591209743
 21
742.12372576607731
  0
LINE
  8
_0-0_
  6
CONTINUOUS
 62
    4
 10
560.60019591209743
 20
742.12372576607731
 11
556.18639281144226
 21
743.57466120544461
  0
LINE
  8
_0-0_
  6
CONTINUOUS
 62
    4
 10
556.18639281144226
 20
743.57466120544461
 11
551.8211679542569
 21
745.18071192938032
  0
LINE
  8
_0-0_
  6
CONTINUOUS
 62
    4
 10
551.8211679542569
 20
745.18071192938032
 11
547.48137338072012
 21
746.93339795888266
  0
LINE
  8
_0-0_
  6
CONTINUOUS
 62
    4
 10
547.48137338072012
 20
746.93339795888266
 11
543.16422876042088
 21
748.8173147299326
  0
LINE
  8
_0-0_
  6
CONTINUOUS
 62
    4
 10
543.16422876042088
 20
748.8173147299326
 11
538.85815516381569
 21
750.8209210278942
  0
LINE
  8
_0-0_
  6
CONTINUOUS
 62
    4
 10
538.85815516381569
 20
750.8209210278942
 11
536.38924030989733
 21
752.01984914779711
  0
LINE
  8
_0-0_
  6
CONTINUOUS
 62
    4
 10
536.38924030989733
 20
752.01984914779711
 11
533.19130317236044
 21
753.62392507848971
  0
LINE
  8
_0-0_
  6
CONTINUOUS
 62
    7
 10
782.5
 20
719.75193485567035
 11
782.5
 21
709.81577409578551
  0
LINE
  8
_0-0_
  6
CONTINUOUS
 62
    7
 10
472.19602442034386
 20
797.8591999783224
 11
476.80003806073216
 21
791.71679767071896
  0
LINE
  8
_0-0_
  6
CONTINUOUS
 62
    7
 10
476.80003806073216
 20
791.71679767071896
 11
481.7007598316519
 21
785.94516882853508
  0
LINE
  8
_0-0_
  6
CONTINUOUS
 62
    7
 10
481.7007598316519
 20
785.94516882853508
 11
483.48571044838195
 21
783.71334915693114
  0
LINE
  8
_0-0_
  6
CONTINUOUS
 62
    7
 10
483.48571044838195
 20
783.71334915693114
 11
486.57924359150968
 21
779.882843562488
  0
LINE
  8
_0-0_
  6
CONTINUOUS
 62
    7
 10
486.57924359150968
 20
779.882843562488
 11
489.71731028963745
 21
776.10083618081785
  0
LINE
  8
_0-0_
  6
CONTINUOUS
 62
    7
 10
489.71731028963745
 20
776.10083618081785
 11
492.92809633706923
 21
772.39802208329547
  0
LINE
  8
_0-0_
  6
CONTINUOUS
 62
    7
 10
492.92809633706923
 20
772.39802208329547
 11
496.2397875281087
 21
768.80509634129668
  0
LINE
  8
_0-0_
  6
CONTINUOUS
 62
    7
 10
496.2397875281087
 20
768.80509634129668
 11
499.68056965706011
 21
765.35275402619618
  0
LINE
  8
_0-0_
  6
CONTINUOUS
 62
    7
 10
499.68056965706011
 20
765.35275402619618
 11
501.74647942822019
 21
763.42690626390833
  0
LINE
  8
_0-0_
  6
CONTINUOUS
 62
    7
 10
501.74647942822019
 20
763.42690626390833
 11
504.47520405695172
 21
761.05119877466404
  0
LINE
  8
_0-0_
  6
CONTINUOUS
 62
    7
 10
504.47520405695172
 20
761.05119877466404
 11
509.38358224966549
 21
757.1846436422594
  0
LINE
  8
_0-0_
  6
CONTINUOUS
 62
    7
 10
509.38358224966549
 20
757.1846436422594
 11
514.51758764198393
 21
753.58513240618049
  0
LINE
  8
_0-0_
  6
CONTINUOUS
 62
    7
 10
514.51758764198393
 20
753.58513240618049
 11
519.83978268712712
 21
750.22539455605533
  0
LINE
  8
_0-0_
  6
CONTINUOUS
 62
    7
 10
519.83978268712712
 20
750.22539455605533
 11
525.31272983831536
 21
747.07815958151184
  0
LINE
  8
_0-0_
  6
CONTINUOUS
 62
    7
 10
525.31272983831536
 20
747.07815958151184
 11
530.89899154876889
 21
744.1161569721778
  0
LINE
  8
_0-0_
  6
CONTINUOUS
 62
    7
 10
530.89899154876889
 20
744.1161569721778
 11
534.17619173170328
 21
742.47232292935007
  0
LINE
  8
_0-0_
  6
CONTINUOUS
 62
    7
 10
534.17619173170328
 20
742.47232292935007
 11
536.7112739048573
 21
741.24126334103129
  0
LINE
  8
_0-0_
  6
CONTINUOUS
 62
    7
 10
536.7112739048573
 20
741.24126334103129
 11
541.1093738977604
 21
739.19483736916845
  0
LINE
  8
_0-0_
  6
CONTINUOUS
 62
    7
 10
541.1093738977604
 20
739.19483736916845
 11
545.54491761230565
 21
737.25925356841582
  0
LINE
  8
_0-0_
  6
CONTINUOUS
 62
    7
 10
545.54491761230565
 20
737.25925356841582
 11
550.02130787483849
 21
735.45140148168741
  0
LINE
  8
_0-0_
  6
CONTINUOUS
 62
    7
 10
550.02130787483849
 20
735.45140148168741
 11
554.54194751170371
 21
733.7881706518965
  0
LINE
  8
_0-0_
  6
CONTINUOUS
 62
    7
 10
554.54194751170371
 20
733.7881706518965
 11
559.11023934924651
 21
732.28645062195698
  0
LINE
  8
_0-0_
  6
CONTINUOUS
 62
    7
 10
559.11023934924651
 20
732.28645062195698
 11
561.78302374389886
 21
731.49611261124823
  0
LINE
  8
_0-0_
  6
CONTINUOUS
 62
    7
 10
561.78302374389886
 20
731.49611261124823
 11
564.58926557547988
 21
730.73760267228499
  0
LINE
  8
_0-0_
  6
CONTINUOUS
 62
    7
 10
564.58926557547988
 20
730.73760267228499
 11
569.46785806866728
 21
729.57265280706462
  0
LINE
  8
_0-0_
  6
CONTINUOUS
 62
    7
 10
569.46785806866728
 20
729.57265280706462
 11
574.38933958020868
 21
728.55991407912722
  0
LINE
  8
_0-0_
  6
CONTINUOUS
 62
    7
 10
574.38933958020868
 20
728.55991407912722
 11
592.45012949599868
 21
725.91329623822889
  0
LINE
  8
_0-0_
  6
CONTINUOUS
 62
    7
 10
592.45012949599868
 20
725.91329623822889
 11
600.53018209368758
 21
725.0085136178767
  0
LINE
  8
_0-0_
  6
CONTINUOUS
 62
    7
 10
600.53018209368758
 20
725.0085136178767
 11
608.63850299723992
 21
724.24323558150956
  0
LINE
  8
_0-0_
  6
CONTINUOUS
 62
    7
 10
608.63850299723992
 20
724.24323558150956
 11
616.76236384511582
 21
723.60554811479016
  0
LINE
  8
_0-0_
  6
CONTINUOUS
 62
    7
 10
616.76236384511582
 20
723.60554811479016
 11
620.12406148705849
 21
723.60827469741354
  0
LINE
  8
_0-0_
  6
CONTINUOUS
 62
    7
 10
620.12406148705849
 20
723.60827469741354
 11
623.4333695918508
 21
723.6289698056571
  0
LINE
  8
_0-0_
  6
CONTINUOUS
 62
    7
 10
623.4333695918508
 20
723.6289698056571
 11
626.69776990977538
 21
723.66480236678046
  0
LINE
  8
_0-0_
  6
CONTINUOUS
 62
    7
 10
626.69776990977538
 20
723.66480236678046
 11
629.92365840778859
 21
723.71287965712508
  0
LINE
  8
_0-0_
  6
CONTINUOUS
 62
    7
 10
629.92365840778859
 20
723.71287965712508
 11
633.11638180310524
 21
723.77026588235241
  0
LINE
  8
_0-0_
  6
CONTINUOUS
 62
    7
 10
633.11638180310524
 20
723.77026588235241
 11
636.28027409677486
 21
723.83400075768338
  0
LINE
  8
_0-0_
  6
CONTINUOUS
 62
    7
 10
636.28027409677486
 20
723.83400075768338
 11
639.4186931072619
 21
723.9011180881356
  0
LINE
  8
_0-0_
  6
CONTINUOUS
 62
    7
 10
639.4186931072619
 20
723.9011180881356
 11
642.53405700402652
 21
723.96866434876312
  0
LINE
  8
_0-0_
  6
CONTINUOUS
 62
    7
 10
824.23168882620166
 20
724.22383069382476
 11
821.2812604452074
 21
724.21664690027216
  0
LINE
  8
_0-0_
  6
CONTINUOUS
 62
    7
 10
827.21148648611369
 20
724.21268424396373
 11
824.23168882620132
 21
724.22383069382465
  0
LINE
  8
_0-0_
  6
CONTINUOUS
 62
    7
 10
830.21751699160836
 20
724.1855521387074
 11
827.21148648611347
 21
724.21268424396362
  0
LINE
  8
_0-0_
  6
CONTINUOUS
 62
    7
 10
833.24732782329556
 20
724.14492169777872
 11
830.21751699160802
 21
724.18555213870729
  0
LINE
  8
_0-0_
  6
CONTINUOUS
 62
    7
 10
836.29918690931026
 20
724.09340439236848
 11
833.24732782329533
 21
724.14492169777861
  0
LINE
  8
_0-0_
  6
CONTINUOUS
 62
    7
 10
839.37211915889429
 20
724.03371726489353
 11
836.29918690930992
 21
724.09340439236825
  0
LINE
  8
_0-0_
  6
CONTINUOUS
 62
    7
 10
842.46594299597381
 20
723.96866434876312
 11
839.37211915889406
 21
724.03371726489342
  0
LINE
  8
_0-0_
  6
CONTINUOUS
 62
    7
 10
845.58130689273843
 20
723.9011180881356
 11
842.46594299597381
 21
723.96866434876312
  0
LINE
  8
_0-0_
  6
CONTINUOUS
 62
    7
 10
848.71972590322548
 20
723.83400075768349
 11
845.58130689273843
 21
723.9011180881356
  0
LINE
  8
_0-0_
  6
CONTINUOUS
 62
    7
 10
851.88361819689498
 20
723.77026588235253
 11
848.71972590322548
 21
723.83400075768349
  0
LINE
  8
_0-0_
  6
CONTINUOUS
 62
    7
 10
855.07634159221174
 20
723.71287965712508
 11
851.88361819689498
 21
723.77026588235253
  0
LINE
  8
_0-0_
  6
CONTINUOUS
 62
    7
 10
858.30223009022483
 20
723.66480236678057
 11
855.07634159221174
 21
723.71287965712508
  0
LINE
  8
_0-0_
  6
CONTINUOUS
 62
    7
 10
861.56663040814942
 20
723.62896980565722
 11
858.30223009022483
 21
723.66480236678057
  0
LINE
  8
_0-0_
  6
CONTINUOUS
 62
    7
 10
864.87593851294172
 20
723.60827469741354
 11
861.56663040814942
 21
723.62896980565722
  0
LINE
  8
_0-0_
  6
CONTINUOUS
 62
    7
 10
868.23763615488451
 20
723.60554811479016
 11
864.8759385129415
 21
723.60827469741354
  0
LINE
  8
_0-0_
  6
CONTINUOUS
 62
    7
 10
876.36149700276041
 20
724.24323558150956
 11
868.23763615488417
 21
723.60554811479016
  0
LINE
  8
_0-0_
  6
CONTINUOUS
 62
    7
 10
884.46981790631241
 20
725.0085136178767
 11
876.36149700276007
 21
724.24323558150956
  0
LINE
  8
_0-0_
  6
CONTINUOUS
 62
    7
 10
892.54987050400188
 20
725.91329623822889
 11
884.46981790631241
 21
725.0085136178767
  0
LINE
  8
_0-0_
  6
CONTINUOUS
 62
    7
 10
910.61066041979131
 20
728.55991407912733
 11
892.54987050400131
 21
725.91329623822889
  0
LINE
  8
_0-0_
  6
CONTINUOUS
 62
    7
 10
915.53214193133328
 20
729.57265280706462
 11
910.61066041979131
 21
728.55991407912722
  0
LINE
  8
_0-0_
  6
CONTINUOUS
 62
    7
 10
920.41073442452045
 20
730.7376026722851
 11
915.53214193133271
 21
729.57265280706462
  0
LINE
  8
_0-0_
  6
CONTINUOUS
 62
    7
 10
923.2169762561017
 20
731.49611261124834
 11
920.41073442452011
 21
730.73760267228499
  0
LINE
  8
_0-0_
  6
CONTINUOUS
 62
    7
 10
925.88976065075371
 20
732.28645062195698
 11
923.21697625610113
 21
731.49611261124823
  0
LINE
  8
_0-0_
  6
CONTINUOUS
 62
    7
 10
930.45805248829651
 20
733.78817065189662
 11
925.88976065075348
 21
732.28645062195698
  0
LINE
  8
_0-0_
  6
CONTINUOUS
 62
    7
 10
934.9786921251615
 20
735.45140148168752
 11
930.45805248829628
 21
733.7881706518965
  0
LINE
  8
_0-0_
  6
CONTINUOUS
 62
    7
 10
939.45508238769491
 20
737.25925356841594
 11
934.9786921251615
 21
735.45140148168741
  0
LINE
  8
_0-0_
  6
CONTINUOUS
 62
    7
 10
943.89062610224016
 20
739.19483736916856
 11
939.45508238769434
 21
737.25925356841582
  0
LINE
  8
_0-0_
  6
CONTINUOUS
 62
    7
 10
948.28872609514291
 20
741.24126334103141
 11
943.89062610223959
 21
739.19483736916845
  0
LINE
  8
_0-0_
  6
CONTINUOUS
 62
    7
 10
950.82380826829705
 20
742.47232292935007
 11
948.28872609514269
 21
741.24126334103129
  0
LINE
  8
_0-0_
  6
CONTINUOUS
 62
    7
 10
954.10100845123167
 20
744.11615697217803
 11
950.82380826829671
 21
742.47232292935007
  0
LINE
  8
_0-0_
  6
CONTINUOUS
 62
    7
 10
959.68727016168486
 20
747.07815958151184
 11
954.1010084512311
 21
744.1161569721778
  0
LINE
  8
_0-0_
  6
CONTINUOUS
 62
    7
 10
965.1602173128731
 20
750.22539455605556
 11
959.68727016168486
 21
747.07815958151184
  0
LINE
  8
_0-0_
  6
CONTINUOUS
 62
    7
 10
970.4824123580164
 20
753.58513240618071
 11
965.1602173128731
 21
750.22539455605533
  0
LINE
  8
_0-0_
  6
CONTINUOUS
 62
    7
 10
975.61641775033479
 20
757.18464364225951
 11
970.4824123580164
 21
753.58513240618049
  0
LINE
  8
_0-0_
  6
CONTINUOUS
 62
    7
 10
980.52479594304884
 20
761.05119877466404
 11
975.61641775033479
 21
757.1846436422594
  0
LINE
  8
_0-0_
  6
CONTINUOUS
 62
    7
 10
983.25352057178008
 20
763.42690626390844
 11
980.52479594304827
 21
761.05119877466404
  0
LINE
  8
_0-0_
  6
CONTINUOUS
 62
    7
 10
985.31943034293988
 20
765.35275402619629
 11
983.25352057178008
 21
763.42690626390833
  0
LINE
  8
_0-0_
  6
CONTINUOUS
 62
    7
 10
988.76021247189157
 20
768.80509634129668
 11
985.31943034293988
 21
765.35275402619618
  0
LINE
  8
_0-0_
  6
CONTINUOUS
 62
    7
 10
992.07190366293104
 20
772.3980220832957
 11
988.76021247189157
 21
768.80509634129668
  0
LINE
  8
_0-0_
  6
CONTINUOUS
 62
    7
 10
995.28268971036311
 20
776.10083618081785
 11
992.07190366293104
 21
772.39802208329547
  0
LINE
  8
_0-0_
  6
CONTINUOUS
 62
    7
 10
998.42075640849031
 20
779.88284356248811
 11
995.28268971036254
 21
776.10083618081785
  0
LINE
  8
_0-0_
  6
CONTINUOUS
 62
    7
 10
1001.5142895516186
 20
783.71334915693125
 11
998.42075640849031
 21
779.882843562488
  0
LINE
  8
_0-0_
  6
CONTINUOUS
 62
    7
 10
1003.299240168348
 20
785.94516882853531
 11
1001.514289551618
 21
783.71334915693114
  0
LINE
  8
_0-0_
  6
CONTINUOUS
 62
    7
 10
1008.1999619392678
 20
791.71679767071896
 11
1003.299240168348
 21
785.94516882853508
  0
LINE
  8
_0-0_
  6
CONTINUOUS
 62
    7
 10
1012.8039755796561
 20
797.85919997832252
 11
1008.1999619392678
 21
791.71679767071896
  0
LINE
  8
_0-0_
  6
CONTINUOUS
 62
    7
 10
1017.1066997541998
 20
804.39917668486953
 11
1012.8039755796561
 21
797.8591999783224
  0
LINE
  8
_0-0_
  6
CONTINUOUS
 62
    7
 10
1021.1079189322214
 20
811.36694686625514
 11
1017.1066997541993
 21
804.39917668486953
  0
LINE
  8
_0-0_
  6
CONTINUOUS
 62
    7
 10
1024.8126320684827
 20
818.79645588582445
 11
1021.1079189322214
 21
811.36694686625514
  0
LINE
  8
_0-0_
  6
CONTINUOUS
 62
    7
 10
1025.1598904171573
 20
819.60172854503764
 11
1024.8126320684821
 21
818.79645588582445
  0
LINE
  8
_0-0_
  6
CONTINUOUS
 62
    7
 10
1035.6068916463584
 20
829.1337884125096
 11
1035.6068916463584
 21
829.1337884125096
  0
LINE
  8
_0-0_
  6
CONTINUOUS
 62
    7
 10
1035.6068916463584
 20
829.1337884125096
 11
1034.2795770426059
 21
828.60739797452515
  0
LINE
  8
_0-0_
  6
CONTINUOUS
 62
    7
 10
1034.2795770426059
 20
828.60739797452515
 11
1032.8992488502508
 21
827.88054359440184
  0
LINE
  8
_0-0_
  6
CONTINUOUS
 62
    7
 10
1032.8992488502508
 20
827.88054359440184
 11
1031.5078476429382
 21
826.97531037467376
  0
LINE
  8
_0-0_
  6
CONTINUOUS
 62
    7
 10
1031.5078476429382
 20
826.97531037467376
 11
1030.1476504422691
 21
825.91920336865223
  0
LINE
  8
_0-0_
  6
CONTINUOUS
 62
    7
 10
1030.1476504422691
 20
825.91920336865223
 11
1028.859986151893
 21
824.74431185329922
  0
LINE
  8
_0-0_
  6
CONTINUOUS
 62
    7
 10
1028.859986151893
 20
824.74431185329922
 11
1027.6839797996833
 21
823.48633431278494
  0
LINE
  8
_0-0_
  6
CONTINUOUS
 62
    7
 10
1027.6839797996833
 20
823.48633431278494
 11
1026.655363743564
 21
822.18349375811067
  0
LINE
  8
_0-0_
  6
CONTINUOUS
 62
    7
 10
1026.655363743564
 20
822.18349375811067
 11
1025.8053919618955
 21
820.8753763402608
  0
LINE
  8
_0-0_
  6
CONTINUOUS
 62
    7
 10
1025.8053919618955
 20
820.8753763402608
 11
1025.1598904171573
 21
819.60172854503764
  0
LINE
  8
_0-0_
  6
CONTINUOUS
 62
    7
 10
467.89330024580067
 20
804.39917668486953
 11
472.19602442034386
 21
797.8591999783224
  0
LINE
  8
_0-0_
  6
CONTINUOUS
 62
    7
 10
463.89208106777857
 20
811.36694686625514
 11
467.89330024580067
 21
804.39917668486953
  0
LINE
  8
_0-0_
  6
CONTINUOUS
 62
    7
 10
460.18736793151788
 20
818.79645588582445
 11
463.89208106777857
 21
811.36694686625514
  0
LINE
  8
_0-0_
  6
CONTINUOUS
 62
    7
 10
459.84010958284272
 20
819.60172854503764
 11
460.18736793151788
 21
818.79645588582445
  0
LINE
  8
_0-0_
  6
CONTINUOUS
 62
    7
 10
459.84010958284272
 20
819.60172854503764
 11
459.84010958284272
 21
819.60172854503764
  0
LINE
  8
_0-0_
  6
CONTINUOUS
 62
    7
 10
459.84010958284272
 20
819.60172854503764
 11
459.19460803810449
 21
820.8753763402608
  0
LINE
  8
_0-0_
  6
CONTINUOUS
 62
    7
 10
459.19460803810449
 20
820.8753763402608
 11
458.34463625643604
 21
822.18349375811067
  0
LINE
  8
_0-0_
  6
CONTINUOUS
 62
    7
 10
458.34463625643604
 20
822.18349375811067
 11
457.31602020031675
 21
823.48633431278494
  0
LINE
  8
_0-0_
  6
CONTINUOUS
 62
    7
 10
457.31602020031675
 20
823.48633431278494
 11
456.14001384810711
 21
824.74431185329922
  0
LINE
  8
_0-0_
  6
CONTINUOUS
 62
    7
 10
456.14001384810711
 20
824.74431185329922
 11
454.85234955773097
 21
825.91920336865223
  0
LINE
  8
_0-0_
  6
CONTINUOUS
 62
    7
 10
454.85234955773097
 20
825.91920336865223
 11
453.49215235706191
 21
826.97531037467376
  0
LINE
  8
_0-0_
  6
CONTINUOUS
 62
    7
 10
453.49215235706191
 20
826.97531037467376
 11
452.10075114974921
 21
827.88054359440184
  0
LINE
  8
_0-0_
  6
CONTINUOUS
 62
    7
 10
452.10075114974921
 20
827.88054359440184
 11
450.72042295739407
 21
828.60739797452515
  0
LINE
  8
_0-0_
  6
CONTINUOUS
 62
    7
 10
450.72042295739407
 20
828.60739797452515
 11
449.39310835364153
 21
829.1337884125096
  0
LINE
  8
_0-0_
  6
CONTINUOUS
 62
    7
 10
449.39310835364153
 20
829.13378841250971
 11
431.9917066610543
 21
834.81577409578574
  0
LINE
  8
_0-0_
  6
CONTINUOUS
 62
    7
 10
1035.6068916463584
 20
829.13378841250971
 11
1053.0082933389464
 21
834.81577409578574
  0
LINE
  8
_0-0_
  6
CONTINUOUS
 62
    7
 10
1024.6884135960851
 20
834.81577409578574
 11
1076.4999999999997
 21
834.81577409578574
  0
LINE
  8
_0-0_
  6
CONTINUOUS
 62
    7
 10
447.64133896357691
 20
847.81577409578574
 11
418.50000000000022
 21
847.81577409578574
  0
LINE
  8
_0-0_
  6
CONTINUOUS
 62
    7
 10
1037.3586610364232
 20
847.81577409578574
 11
1067.9792899408284
 21
847.81577409578574
  0
LINE
  8
_0-0_
  6
CONTINUOUS
 62
    7
 10
408.50000000000022
 20
834.81577409578574
 11
460.31158640391481
 21
834.81577409578574
  0
LINE
  8
_0-0_
  6
CONTINUOUS
 62
    4
 10
515.35262424932739
 20
765.21261265144528
 11
510.85627015568604
 21
768.75459746094634
  0
LINE
  8
_0-0_
  6
CONTINUOUS
 62
    4
 10
510.85627015568604
 20
768.75459746094634
 11
508.44097068772384
 21
770.85742783612886
  0
LINE
  8
_0-0_
  6
CONTINUOUS
 62
    4
 10
508.44097068772384
 20
770.85742783612886
 11
506.63375705285375
 21
772.54211822448814
  0
LINE
  8
_0-0_
  6
CONTINUOUS
 62
    4
 10
506.63375705285375
 20
772.54211822448814
 11
503.46048816013592
 21
775.72604852432959
  0
LINE
  8
_0-0_
  6
CONTINUOUS
 62
    4
 10
503.46048816013592
 20
775.72604852432959
 11
500.38390131278958
 21
779.06390445462761
  0
LINE
  8
_0-0_
  6
CONTINUOUS
 62
    4
 10
500.38390131278958
 20
779.06390445462761
 11
497.34371385000912
 21
782.56997705803189
  0
LINE
  8
_0-0_
  6
CONTINUOUS
 62
    4
 10
497.34371385000912
 20
782.56997705803189
 11
494.31736215282057
 21
786.21734518603432
  0
LINE
  8
_0-0_
  6
CONTINUOUS
 62
    4
 10
494.31736215282057
 20
786.21734518603432
 11
491.28040272576384
 21
789.97779950710105
  0
LINE
  8
_0-0_
  6
CONTINUOUS
 62
    4
 10
491.28040272576384
 20
789.97779950710105
 11
489.41857780008433
 21
792.30573925807675
  0
LINE
  8
_0-0_
  6
CONTINUOUS
 62
    4
 10
489.41857780008433
 20
792.30573925807675
 11
484.61950369928558
 21
797.95765662671965
  0
LINE
  8
_0-0_
  6
CONTINUOUS
 62
    4
 10
484.61950369928558
 20
797.95765662671965
 11
480.38163552061064
 21
803.61156934575672
  0
LINE
  8
_0-0_
  6
CONTINUOUS
 62
    4
 10
480.38163552061064
 20
803.61156934575672
 11
476.414129284625
 21
809.64202756567783
  0
LINE
  8
_0-0_
  6
CONTINUOUS
 62
    4
 10
476.414129284625
 20
809.64202756567783
 11
472.71017015796729
 21
816.09214559409167
  0
LINE
  8
_0-0_
  6
CONTINUOUS
 62
    4
 10
469.67652346044815
 20
822.17588397610188
 11
472.71017015796729
 21
816.09214559409167
  0
ARC
  8
_0-0_
  6
CONTINUOUS
 62
    4
 10
533.05058339247261
 20
765.01730065119272
 40
10
 50
234.9652534125812
 51
242.06613066702462
  0
LINE
  8
_0-0_
  6
CONTINUOUS
 62
    4
 10
528.36606185180073
 20
756.18241197419297
 11
533.19130317236044
 21
753.62392507848971
  0
LINE
  8
_0-0_
  6
CONTINUOUS
 62
    4
 10
527.3098523990518
 20
756.82926012484119
 11
515.35262424932739
 21
765.21261265144528
  0
LINE
  8
_0-0_
  6
CONTINUOUS
 62
    4
 10
1028.4095562854429
 20
842.27823128392617
 11
1015.323476539552
 21
822.17588397610188
  0
ARC
  8
_0-0_
  6
CONTINUOUS
 62
    4
 10
1037.3586610364232
 20
837.81577409578562
 40
10
 50
89.999999999999943
 51
153.49693292445178
  0
LINE
  8
_0-0_
  6
CONTINUOUS
 62
    4
 10
946.1418448361843
 20
750.8209210278942
 11
948.610759690103
 21
752.01984914779711
  0
LINE
  8
_0-0_
  6
CONTINUOUS
 62
    4
 10
948.61075969010266
 20
752.01984914779711
 11
951.80869682763955
 21
753.62392507848971
  0
LINE
  8
_0-0_
  6
CONTINUOUS
 62
    4
 10
969.6473757506726
 20
765.21261265144528
 11
974.14372984431395
 21
768.75459746094634
  0
LINE
  8
_0-0_
  6
CONTINUOUS
 62
    4
 10
974.14372984431395
 20
768.75459746094634
 11
976.55902931227615
 21
770.85742783612886
  0
LINE
  8
_0-0_
  6
CONTINUOUS
 62
    4
 10
976.55902931227615
 20
770.85742783612886
 11
978.36624294714624
 21
772.54211822448814
  0
LINE
  8
_0-0_
  6
CONTINUOUS
 62
    4
 10
978.36624294714624
 20
772.54211822448814
 11
981.53951183986407
 21
775.72604852432959
  0
LINE
  8
_0-0_
  6
CONTINUOUS
 62
    4
 10
981.53951183986407
 20
775.72604852432959
 11
984.61609868721075
 21
779.06390445462761
  0
LINE
  8
_0-0_
  6
CONTINUOUS
 62
    4
 10
984.61609868721041
 20
779.06390445462761
 11
987.65628614999116
 21
782.56997705803189
  0
LINE
  8
_0-0_
  6
CONTINUOUS
 62
    4
 10
987.65628614999081
 20
782.56997705803189
 11
990.68263784717942
 21
786.21734518603432
  0
LINE
  8
_0-0_
  6
CONTINUOUS
 62
    4
 10
990.68263784717942
 20
786.21734518603432
 11
993.71959727423643
 21
789.97779950710105
  0
LINE
  8
_0-0_
  6
CONTINUOUS
 62
    4
 10
993.71959727423609
 20
789.97779950710105
 11
995.581422199916
 21
792.30573925807675
  0
LINE
  8
_0-0_
  6
CONTINUOUS
 62
    4
 10
995.58142219991566
 20
792.30573925807675
 11
1000.3804963007146
 21
797.95765662671965
  0
LINE
  8
_0-0_
  6
CONTINUOUS
 62
    4
 10
1000.3804963007144
 20
797.95765662671965
 11
1004.6183644793893
 21
803.61156934575672
  0
LINE
  8
_0-0_
  6
CONTINUOUS
 62
    4
 10
1004.6183644793893
 20
803.61156934575672
 11
1008.5858707153752
 21
809.64202756567783
  0
LINE
  8
_0-0_
  6
CONTINUOUS
 62
    4
 10
1008.5858707153749
 20
809.64202756567783
 11
1012.2898298420329
 21
816.09214559409167
  0
LINE
  8
_0-0_
  6
CONTINUOUS
 62
    4
 10
1015.323476539552
 20
822.17588397610188
 11
1012.2898298420327
 21
816.09214559409167
  0
ARC
  8
_0-0_
  6
CONTINUOUS
 62
    4
 10
951.9494166075276
 20
765.01730065119272
 40
10
 50
297.93386933297534
 51
305.03474658741879
  0
LINE
  8
_0-0_
  6
CONTINUOUS
 62
    4
 10
956.63393814819926
 20
756.18241197419297
 11
951.80869682763955
 21
753.62392507848971
  0
LINE
  8
_0-0_
  6
CONTINUOUS
 62
    4
 10
957.69014760094819
 20
756.82926012484119
 11
969.6473757506726
 21
765.21261265144528
  0
LINE
  8
_0-0_
  6
CONTINUOUS
 62
    4
 10
924.39980408790256
 20
742.12372576607731
 11
928.81360718855773
 21
743.57466120544461
  0
LINE
  8
_0-0_
  6
CONTINUOUS
 62
    4
 10
928.81360718855773
 20
743.57466120544461
 11
933.17883204574309
 21
745.18071192938032
  0
LINE
  8
_0-0_
  6
CONTINUOUS
 62
    4
 10
933.17883204574309
 20
745.18071192938032
 11
937.51862661927987
 21
746.93339795888266
  0
LINE
  8
_0-0_
  6
CONTINUOUS
 62
    4
 10
937.51862661927987
 20
746.93339795888266
 11
941.83577123957911
 21
748.8173147299326
  0
LINE
  8
_0-0_
  6
CONTINUOUS
 62
    4
 10
941.83577123957911
 20
748.8173147299326
 11
946.1418448361843
 21
750.8209210278942
  0
LINE
  8
_0-0_
  6
DASHED2
 62
    4
 10
460.31158640391481
 20
834.81577409578574
 11
1024.6884135960851
 21
834.81577409578574
  0
LINE
  8
_0-0_
  6
DASHED2
 62
    4
 10
447.64133896357691
 20
847.81577409578574
 11
1037.3586610364232
 21
847.81577409578574
  0
LINE
  8
_0-0_
  6
CONTINUOUS
 62
    4
 10
654.7263963841633
 20
734.24908880968337
 11
651.67695383915793
 21
734.20819510308785
  0
LINE
  8
_0-0_
  6
CONTINUOUS
 62
    4
 10
651.67695383915793
 20
734.20819510308785
 11
648.6100677640959
 21
734.15642413262867
  0
LINE
  8
_0-0_
  6
CONTINUOUS
 62
    4
 10
648.6100677640959
 20
734.15642413262867
 11
645.52677601897812
 21
734.09653578739823
  0
LINE
  8
_0-0_
  6
CONTINUOUS
 62
    4
 10
645.52677601897812
 20
734.09653578739823
 11
642.42731043707351
 21
734.03136424397303
  0
LINE
  8
_0-0_
  6
CONTINUOUS
 62
    7
 10
642.53405700402652
 20
723.96866434876312
 11
645.62788084110593
 21
724.03371726489342
  0
LINE
  8
_0-0_
  6
CONTINUOUS
 62
    7
 10
645.62788084110593
 20
724.03371726489342
 11
648.70081309069007
 21
724.09340439236825
  0
LINE
  8
_0-0_
  6
CONTINUOUS
 62
    7
 10
648.70081309069007
 20
724.09340439236825
 11
651.75267217670466
 21
724.14492169777861
  0
LINE
  8
_0-0_
  6
CONTINUOUS
 62
    7
 10
651.75267217670466
 20
724.14492169777861
 11
654.78248300839197
 21
724.18555213870729
  0
LINE
  8
_0-0_
  6
CONTINUOUS
 62
    7
 10
654.78248300839197
 20
724.18555213870729
 11
657.78851351388652
 21
724.21268424396362
  0
LINE
  8
_0-0_
  6
CONTINUOUS
 62
    7
 10
657.78851351388652
 20
724.21268424396362
 11
660.76831117379867
 21
724.22383069382465
  0
LINE
  8
_0-0_
  6
CONTINUOUS
 62
    7
 10
660.76831117379867
 20
724.22383069382465
 11
663.71873955479259
 21
724.21664690027216
  0
LINE
  8
_0-0_
  6
CONTINUOUS
 62
    7
 10
663.71873955479259
 20
724.21664690027216
 11
666.63601484316814
 21
724.18894958723183
  0
LINE
  8
_0-0_
  6
CONTINUOUS
 62
    7
 10
666.63601484316814
 20
724.18894958723183
 11
669.51574237843715
 21
724.13873537081099
  0
LINE
  8
_0-0_
  6
CONTINUOUS
 62
    7
 10
669.51574237843715
 20
724.13873537081099
 11
672.35295318690702
 21
724.06419933953873
  0
LINE
  8
_0-0_
  6
CONTINUOUS
 62
    7
 10
702.5
 20
719.75193485567024
 11
701.57390232646002
 21
719.97192436748321
  0
LINE
  8
_0-0_
  6
CONTINUOUS
 62
    7
 10
701.57390232646002
 20
719.97192436748321
 11
699.97672264877701
 21
720.34870583926192
  0
LINE
  8
_0-0_
  6
CONTINUOUS
 62
    7
 10
699.97672264877701
 20
720.34870583926192
 11
698.37826644084373
 21
720.71851289446317
  0
LINE
  8
_0-0_
  6
CONTINUOUS
 62
    7
 10
698.37826644084373
 20
720.71851289446317
 11
696.77772577212203
 21
721.07693134537964
  0
LINE
  8
_0-0_
  6
CONTINUOUS
 62
    7
 10
696.77772577212203
 20
721.07693134537964
 11
695.1742927120739
 21
721.41954700430449
  0
LINE
  8
_0-0_
  6
CONTINUOUS
 62
    7
 10
695.1742927120739
 20
721.41954700430449
 11
693.56715933016118
 21
721.74194568353004
  0
LINE
  8
_0-0_
  6
CONTINUOUS
 62
    7
 10
693.56715933016118
 20
721.74194568353004
 11
692.63300811452893
 21
721.91793407788838
  0
LINE
  8
_0-0_
  6
CONTINUOUS
 62
    7
 10
692.63300811452893
 20
721.91793407788838
 11
691.37358480965758
 21
722.14075871005672
  0
LINE
  8
_0-0_
  6
CONTINUOUS
 62
    7
 10
691.37358480965758
 20
722.14075871005672
 11
689.19601205444246
 21
722.49090782312441
  0
LINE
  8
_0-0_
  6
CONTINUOUS
 62
    7
 10
689.19601205444246
 20
722.49090782312441
 11
687.0121082917692
 21
722.80532124050239
  0
LINE
  8
_0-0_
  6
CONTINUOUS
 62
    7
 10
684.8235687941792
 20
723.09253603553179
 11
682.63208883421475
 21
723.36108928155351
  0
LINE
  8
_0-0_
  6
CONTINUOUS
 62
    7
 10
682.63208883421475
 20
723.36108928155351
 11
680.439363684417
 21
723.61951805190869
  0
LINE
  8
_0-0_
  6
CONTINUOUS
 62
    7
 10
675.14214051525812
 20
723.96375363460163
 11
679.05845369292762
 21
723.78089642203599
  0
LINE
  8
_0-0_
  6
CONTINUOUS
 62
    7
 10
680.439363684417
 20
723.61951805190869
 11
679.05845369292762
 21
723.78089642203599
  0
LINE
  8
_0-0_
  6
CONTINUOUS
 62
    4
 10
660.76504658324643
 20
734.28769270364455
 11
657.75659786321489
 21
734.27643907952483
  0
LINE
  8
_0-0_
  6
CONTINUOUS
 62
    4
 10
657.75659786321489
 20
734.27643907952483
 11
654.7263963841633
 21
734.24908880968337
  0
LINE
  8
_0-0_
  6
CONTINUOUS
 62
    4
 10
710.06383924011515
 20
719.75193485567024
 11
709.53465356918229
 21
720.29084177844583
  0
LINE
  8
_0-0_
  6
CONTINUOUS
 62
    7
 10
812.64704681309297
 20
724.06419933953873
 11
809.85785948474187
 21
723.96375363460163
  0
LINE
  8
_0-0_
  6
CONTINUOUS
 62
    7
 10
797.98789170823079
 20
722.80532124050239
 11
800.17643120582079
 21
723.09253603553179
  0
LINE
  8
_0-0_
  6
CONTINUOUS
 62
    7
 10
821.2812604452074
 20
724.21664690027216
 11
818.36398515683185
 21
724.18894958723183
  0
LINE
  8
_0-0_
  6
CONTINUOUS
 62
    7
 10
818.36398515683185
 20
724.18894958723183
 11
815.48425762156284
 21
724.13873537081099
  0
LINE
  8
_0-0_
  6
CONTINUOUS
 62
    7
 10
815.48425762156284
 20
724.13873537081099
 11
812.64704681309297
 21
724.06419933953873
  0
LINE
  8
_0-0_
  6
CONTINUOUS
 62
    7
 10
782.5
 20
719.75193485567024
 11
783.42609767353997
 21
719.97192436748321
  0
LINE
  8
_0-0_
  6
CONTINUOUS
 62
    7
 10
783.42609767353997
 20
719.97192436748321
 11
785.02327735122298
 21
720.34870583926192
  0
LINE
  8
_0-0_
  6
CONTINUOUS
 62
    7
 10
785.02327735122298
 20
720.34870583926192
 11
786.62173355915626
 21
720.71851289446317
  0
LINE
  8
_0-0_
  6
CONTINUOUS
 62
    7
 10
786.62173355915626
 20
720.71851289446317
 11
788.22227422787796
 21
721.07693134537964
  0
LINE
  8
_0-0_
  6
CONTINUOUS
 62
    7
 10
788.22227422787796
 20
721.07693134537964
 11
789.82570728792609
 21
721.41954700430449
  0
LINE
  8
_0-0_
  6
CONTINUOUS
 62
    7
 10
789.82570728792609
 20
721.41954700430449
 11
791.43284066983881
 21
721.74194568353004
  0
LINE
  8
_0-0_
  6
CONTINUOUS
 62
    7
 10
791.43284066983881
 20
721.74194568353004
 11
792.36699188547106
 21
721.91793407788838
  0
LINE
  8
_0-0_
  6
CONTINUOUS
 62
    7
 10
792.36699188547106
 20
721.91793407788838
 11
793.62641519034241
 21
722.14075871005672
  0
LINE
  8
_0-0_
  6
CONTINUOUS
 62
    7
 10
793.62641519034241
 20
722.14075871005672
 11
795.80398794555753
 21
722.49090782312441
  0
LINE
  8
_0-0_
  6
CONTINUOUS
 62
    7
 10
795.80398794555753
 20
722.49090782312441
 11
797.98789170823079
 21
722.80532124050239
  0
LINE
  8
_0-0_
  6
CONTINUOUS
 62
    7
 10
800.17643120582079
 20
723.09253603553179
 11
802.36791116578524
 21
723.36108928155351
  0
LINE
  8
_0-0_
  6
CONTINUOUS
 62
    7
 10
802.36791116578524
 20
723.36108928155351
 11
804.56063631558299
 21
723.61951805190869
  0
LINE
  8
_0-0_
  6
CONTINUOUS
 62
    7
 10
809.85785948474187
 20
723.96375363460163
 11
805.94154630707237
 21
723.78089642203599
  0
LINE
  8
_0-0_
  6
CONTINUOUS
 62
    7
 10
804.56063631558299
 20
723.61951805190869
 11
805.94154630707237
 21
723.78089642203599
  0
LINE
  8
_0-0_
  6
CONTINUOUS
 62
    4
 10
824.23495341675356
 20
734.28769270364455
 11
827.2434021367851
 21
734.27643907952483
  0
LINE
  8
_0-0_
  6
CONTINUOUS
 62
    4
 10
774.93616075988484
 20
719.75193485567024
 11
775.4653464308177
 21
720.29084177844583
  0
LINE
  8
_0-0_
  6
CONTINUOUS
 62
    4
 10
830.27360361583669
 20
734.24908880968337
 11
833.32304616084206
 21
734.20819510308785
  0
LINE
  8
_0-0_
  6
CONTINUOUS
 62
    4
 10
833.32304616084206
 20
734.20819510308785
 11
836.38993223590409
 21
734.15642413262867
  0
LINE
  8
_0-0_
  6
CONTINUOUS
 62
    4
 10
836.38993223590409
 20
734.15642413262867
 11
839.47322398102187
 21
734.09653578739823
  0
LINE
  8
_0-0_
  6
CONTINUOUS
 62
    4
 10
827.2434021367851
 20
734.27643907952483
 11
830.27360361583669
 21
734.24908880968337
  0
LINE
  8
_0-0_
  6
CONTINUOUS
 62
    4
 10
820.29916613011801
 20
734.27810972799397
 11
824.23495341675356
 21
734.28769270364455
  0
LINE
  8
_0-0_
  6
CONTINUOUS
 62
    4
 10
710.06383924011515
 20
719.75193485567024
 11
709.04340534594723
 21
720.6857704470533
  0
LINE
  8
_0-0_
  6
CONTINUOUS
 62
    4
 10
709.04340534594723
 20
720.6857704470533
 11
707.27456145157589
 21
722.27886491491335
  0
LINE
  8
_0-0_
  6
CONTINUOUS
 62
    4
 10
707.27456145157589
 20
722.27886491491335
 11
705.47939780352749
 21
723.8248291144572
  0
LINE
  8
_0-0_
  6
CONTINUOUS
 62
    4
 10
705.47939780352749
 20
723.8248291144572
 11
703.64125632985496
 21
725.29383376194027
  0
LINE
  8
_0-0_
  6
CONTINUOUS
 62
    4
 10
703.64125632985496
 20
725.29383376194027
 11
701.74347895861103
 21
726.6560495736187
  0
LINE
  8
_0-0_
  6
CONTINUOUS
 62
    4
 10
701.74347895861103
 20
726.6560495736187
 11
699.76940761784817
 21
727.88164726574746
  0
LINE
  8
_0-0_
  6
CONTINUOUS
 62
    4
 10
699.76940761784817
 20
727.88164726574746
 11
698.58292419680537
 21
728.51814121588677
  0
LINE
  8
_0-0_
  6
CONTINUOUS
 62
    4
 10
698.58292419680537
 20
728.51814121588677
 11
697.67403690535411
 21
728.95467478668797
  0
LINE
  8
_0-0_
  6
CONTINUOUS
 62
    4
 10
697.67403690535411
 20
728.95467478668797
 11
696.0667849595577
 21
729.63206488749619
  0
LINE
  8
_0-0_
  6
CONTINUOUS
 62
    4
 10
696.0667849595577
 20
729.63206488749619
 11
694.41635869808601
 21
730.22308838114304
  0
LINE
  8
_0-0_
  6
CONTINUOUS
 62
    4
 10
694.41635869808601
 20
730.22308838114304
 11
692.73173248388707
 21
730.73808434199179
  0
LINE
  8
_0-0_
  6
CONTINUOUS
 62
    4
 10
692.73173248388707
 20
730.73808434199179
 11
691.02188067990766
 21
731.18739184440585
  0
LINE
  8
_0-0_
  6
CONTINUOUS
 62
    4
 10
691.02188067990766
 20
731.18739184440585
 11
689.29577764909618
 21
731.58134996274861
  0
LINE
  8
_0-0_
  6
CONTINUOUS
 62
    4
 10
689.29577764909618
 20
731.58134996274861
 11
688.29072794475905
 21
731.78855871653695
  0
LINE
  8
_0-0_
  6
CONTINUOUS
 62
    4
 10
688.29072794475905
 20
731.78855871653695
 11
686.32487669745182
 21
732.15562922537526
  0
LINE
  8
_0-0_
  6
CONTINUOUS
 62
    4
 10
686.32487669745182
 20
732.15562922537526
 11
682.9299016071443
 21
732.68516748365289
  0
LINE
  8
_0-0_
  6
CONTINUOUS
 62
    4
 10
682.9299016071443
 20
732.68516748365289
 11
679.52887937724881
 21
733.10546651419599
  0
LINE
  8
_0-0_
  6
CONTINUOUS
 62
    4
 10
679.52887937724881
 20
733.10546651419599
 11
676.1229862629608
 21
733.44161159734755
  0
LINE
  8
_0-0_
  6
CONTINUOUS
 62
    4
 10
676.1229862629608
 20
733.44161159734755
 11
672.7133985194755
 21
733.71868801344999
  0
LINE
  8
_0-0_
  6
CONTINUOUS
 62
    4
 10
672.7133985194755
 20
733.71868801344999
 11
669.30129240198789
 21
733.9617810428457
  0
LINE
  8
_0-0_
  6
CONTINUOUS
 62
    4
 10
669.30129240198789
 20
733.9617810428457
 11
667.32158044058962
 21
734.09708871699592
  0
LINE
  8
_0-0_
  6
CONTINUOUS
 62
    4
 10
667.32158044058962
 20
734.09708871699592
 11
664.81366869600833
 21
734.27031596627375
  0
LINE
  8
_0-0_
  6
CONTINUOUS
 62
    4
 10
664.81368700346001
 20
734.27783494972163
 11
660.76504658324643
 21
734.28769270364455
  0
LINE
  8
_0-0_
  6
CONTINUOUS
 62
    4
 10
774.93616075988484
 20
719.75193485567024
 11
775.95659465405276
 21
720.6857704470533
  0
LINE
  8
_0-0_
  6
CONTINUOUS
 62
    4
 10
775.95659465405276
 20
720.6857704470533
 11
777.7254385484241
 21
722.27886491491335
  0
LINE
  8
_0-0_
  6
CONTINUOUS
 62
    4
 10
777.7254385484241
 20
722.27886491491335
 11
779.5206021964725
 21
723.8248291144572
  0
LINE
  8
_0-0_
  6
CONTINUOUS
 62
    4
 10
779.5206021964725
 20
723.8248291144572
 11
781.35874367014503
 21
725.29383376194027
  0
LINE
  8
_0-0_
  6
CONTINUOUS
 62
    4
 10
781.35874367014503
 20
725.29383376194027
 11
783.25652104138896
 21
726.6560495736187
  0
LINE
  8
_0-0_
  6
CONTINUOUS
 62
    4
 10
783.25652104138896
 20
726.6560495736187
 11
785.23059238215182
 21
727.88164726574746
  0
LINE
  8
_0-0_
  6
CONTINUOUS
 62
    4
 10
785.23059238215182
 20
727.88164726574746
 11
786.41707580319462
 21
728.51814121588677
  0
LINE
  8
_0-0_
  6
CONTINUOUS
 62
    4
 10
786.41707580319462
 20
728.51814121588677
 11
787.32596309464588
 21
728.95467478668797
  0
LINE
  8
_0-0_
  6
CONTINUOUS
 62
    4
 10
787.32596309464588
 20
728.95467478668797
 11
788.93321504044229
 21
729.63206488749619
  0
LINE
  8
_0-0_
  6
CONTINUOUS
 62
    4
 10
788.93321504044229
 20
729.63206488749619
 11
790.58364130191398
 21
730.22308838114304
  0
LINE
  8
_0-0_
  6
CONTINUOUS
 62
    4
 10
790.58364130191398
 20
730.22308838114304
 11
792.26826751611292
 21
730.73808434199179
  0
LINE
  8
_0-0_
  6
CONTINUOUS
 62
    4
 10
792.26826751611292
 20
730.73808434199179
 11
793.97811932009233
 21
731.18739184440585
  0
LINE
  8
_0-0_
  6
CONTINUOUS
 62
    4
 10
793.97811932009233
 20
731.18739184440585
 11
795.70422235090381
 21
731.58134996274861
  0
LINE
  8
_0-0_
  6
CONTINUOUS
 62
    4
 10
795.70422235090381
 20
731.58134996274861
 11
796.70927205524094
 21
731.78855871653695
  0
LINE
  8
_0-0_
  6
CONTINUOUS
 62
    4
 10
796.70927205524094
 20
731.78855871653695
 11
798.67512330254817
 21
732.15562922537526
  0
LINE
  8
_0-0_
  6
CONTINUOUS
 62
    4
 10
798.67512330254817
 20
732.15562922537526
 11
802.07009839285569
 21
732.68516748365289
  0
LINE
  8
_0-0_
  6
CONTINUOUS
 62
    4
 10
802.07009839285569
 20
732.68516748365289
 11
805.47112062275118
 21
733.10546651419599
  0
LINE
  8
_0-0_
  6
CONTINUOUS
 62
    4
 10
805.47112062275118
 20
733.10546651419599
 11
808.87701373703919
 21
733.44161159734755
  0
LINE
  8
_0-0_
  6
CONTINUOUS
 62
    4
 10
808.87701373703919
 20
733.44161159734755
 11
812.28660148052449
 21
733.71868801344999
  0
LINE
  8
_0-0_
  6
CONTINUOUS
 62
    4
 10
812.28660148052449
 20
733.71868801344999
 11
815.6987075980121
 21
733.9617810428457
  0
LINE
  8
_0-0_
  6
CONTINUOUS
 62
    4
 10
815.6987075980121
 20
733.9617810428457
 11
817.67841955941037
 21
734.09708871699592
  0
LINE
  8
_0-0_
  6
CONTINUOUS
 62
    4
 10
817.67841955941037
 20
734.09708871699592
 11
820.29916613011948
 21
734.27810972799409
  0
LINE
  8
_0-0_
  6
CONTINUOUS
 62
    7
 10
735
 20
729.75193485567035
 11
735
 21
720.75193485567024
  0
LINE
  8
_0-0_
  6
CONTINUOUS
 62
    7
 10
750
 20
729.75193485567035
 11
750
 21
720.75193485567024
  0
LINE
  8
_0-0_
  6
CONTINUOUS
 62
    7
 10
721.74999999999977
 20
700.75193485567024
 11
763.24999999999988
 21
700.75193485567024
  0
LINE
  8
_0-0_
  6
CONTINUOUS
 62
    7
 10
723.24999999999988
 20
678.58894744120516
 11
721.74999999999977
 21
677.28391432115518
  0
LINE
  8
_0-0_
  6
CONTINUOUS
 62
    7
 10
721.74999999999977
 20
677.28391432115518
 11
723.24999999999988
 21
676.08731493604284
  0
LINE
  8
_0-0_
  6
CONTINUOUS
 62
    7
 10
723.24999999999988
 20
676.08731493604307
 11
721.74999999999977
 21
674.78228181599308
  0
LINE
  8
_0-0_
  6
CONTINUOUS
 62
    7
 10
721.74999999999977
 20
674.78228181599308
 11
723.24999999999988
 21
673.58568243088075
  0
LINE
  8
_0-0_
  6
CONTINUOUS
 62
    7
 10
723.24999999999988
 20
673.58568243088075
 11
721.74999999999977
 21
672.28064931083099
  0
LINE
  8
_0-0_
  6
CONTINUOUS
 62
    7
 10
721.74999999999977
 20
672.28064931083099
 11
723.24999999999988
 21
671.08404992571865
  0
LINE
  8
_0-0_
  6
CONTINUOUS
 62
    7
 10
723.24999999999988
 20
671.08404992571865
 11
721.74999999999977
 21
669.7790168056689
  0
LINE
  8
_0-0_
  6
CONTINUOUS
 62
    7
 10
763.24999999999988
 20
678.67548058618763
 11
761.74999999999977
 21
677.47888120107529
  0
LINE
  8
_0-0_
  6
CONTINUOUS
 62
    7
 10
761.74999999999977
 20
677.47888120107529
 11
763.24999999999988
 21
676.17384808102553
  0
LINE
  8
_0-0_
  6
CONTINUOUS
 62
    7
 10
763.24999999999988
 20
676.17384808102553
 11
761.74999999999977
 21
674.9772486959132
  0
LINE
  8
_0-0_
  6
CONTINUOUS
 62
    7
 10
761.74999999999977
 20
674.9772486959132
 11
763.24999999999988
 21
673.67221557586344
  0
LINE
  8
_0-0_
  6
CONTINUOUS
 62
    7
 10
763.24999999999988
 20
673.67221557586344
 11
761.74999999999977
 21
672.47561619075111
  0
LINE
  8
_0-0_
  6
CONTINUOUS
 62
    7
 10
761.74999999999977
 20
672.47561619075111
 11
763.24999999999988
 21
671.17058307070135
  0
LINE
  8
_0-0_
  6
CONTINUOUS
 62
    7
 10
763.24999999999988
 20
671.17058307070135
 11
761.74999999999977
 21
669.97398368558901
  0
LINE
  8
_0-0_
  6
CONTINUOUS
 62
    7
 10
706.5
 20
729.95193485567017
 11
706.5
 21
730.18267931417437
  0
ARC
  8
_0-0_
  6
CONTINUOUS
 62
    7
 10
706.69999999999981
 20
729.95193485567017
 40
0.2
 50
180
 51
270
  0
LINE
  8
_0-0_
  6
CONTINUOUS
 62
    7
 10
778.5
 20
729.95193485567017
 11
778.5
 21
730.18267931417437
  0
ARC
  8
_0-0_
  6
CONTINUOUS
 62
    7
 10
778.30000000000018
 20
729.95193485567017
 40
0.2
 50
270
 51
0
  0
LINE
  8
_0-0_
  6
CONTINUOUS
 62
    7
 10
706.69999999999981
 20
729.75193485567035
 11
778.30000000000018
 21
729.75193485567035
  0
ARC
  8
_0-0_
  6
CONTINUOUS
 62
    7
 10
707.5
 20
730.11291965812017
 40
1
 50
114.62431835216361
 51
180.00000000000039
  0
ARC
  8
_0-0_
  6
CONTINUOUS
 62
    7
 10
742.5
 20
653.75193485567012
 40
84.999999999999985
 50
65.375681647835918
 51
114.62431835216408
  0
ARC
  8
_0-0_
  6
CONTINUOUS
 62
    7
 10
777.5
 20
730.11291965812017
 40
1
 50
0.0000000000004071
 51
65.375681647835662
  0
ARC
  8
_0-0_
  6
CONTINUOUS
 62
    7
 10
710.50000000000011
 20
720.25193485567012
 40
0.5
 50
90
 51
270
  0
LINE
  8
_0-0_
  6
CONTINUOUS
 62
    7
 10
710.50000000000011
 20
719.75193485567035
 11
721.74999999999977
 21
716.75193485567024
  0
LINE
  8
_0-0_
  6
CONTINUOUS
 62
    7
 10
774.49999999999988
 20
719.75193485567035
 11
763.25000000000022
 21
716.75193485567024
  0
LINE
  8
_0-0_
  6
CONTINUOUS
 62
    7
 10
710.50000000000011
 20
720.75193485567024
 11
774.49999999999988
 21
720.75193485567024
  0
ARC
  8
_0-0_
  6
CONTINUOUS
 62
    7
 10
774.49999999999988
 20
720.25193485567012
 40
0.5
 50
270
 51
90
  0
LINE
  8
_0-0_
  6
CONTINUOUS
 62
    7
 10
710.50000000000011
 20
719.75193485567035
 11
774.49999999999988
 21
719.75193485567035
  0
LINE
  8
_0-0_
  6
CONTINUOUS
 62
    7
 10
721.74999999999977
 20
679.78554682631727
 11
723.24999999999988
 21
678.58894744120493
  0
LINE
  8
_0-0_
  6
CONTINUOUS
 62
    7
 10
761.74999999999977
 20
679.98051370623738
 11
763.24999999999988
 21
678.67548058618763
  0
LINE
  8
_0-0_
  6
CONTINUOUS
 62
    4
 10
702.5
 20
719.75193485567024
 11
710
 21
719.75193485567024
  0
LINE
  8
_0-0_
  6
CONTINUOUS
 62
    4
 10
775
 20
719.75193485567035
 11
782.5
 21
719.75193485567035
  0
LINE
  8
_0-0_
  6
DASHED2
 62
    4
 10
710.06383924011515
 20
719.75193485567024
 11
774.93616075988313
 21
719.75193485566865
  0
LINE
  8
_0-0_
  6
CONTINUOUS
 62
    7
 10
723.24999999999988
 20
683.59221245152934
 11
721.74999999999977
 21
682.28717933147936
  0
LINE
  8
_0-0_
  6
CONTINUOUS
 62
    7
 10
721.74999999999977
 20
682.28717933147936
 11
723.24999999999988
 21
681.09057994636725
  0
LINE
  8
_0-0_
  6
CONTINUOUS
 62
    7
 10
723.24999999999988
 20
681.09057994636725
 11
721.74999999999977
 21
679.78554682631727
  0
LINE
  8
_0-0_
  6
CONTINUOUS
 62
    7
 10
722.33888472162391
 20
684.31903910610981
 11
723.24999999999988
 21
683.59221245152934
  0
LINE
  8
_0-0_
  6
CONTINUOUS
 62
    7
 10
763.24999999999988
 20
683.67874559651181
 11
761.74999999999977
 21
682.48214621139948
  0
LINE
  8
_0-0_
  6
CONTINUOUS
 62
    7
 10
761.74999999999977
 20
682.48214621139948
 11
763.24999999999988
 21
681.17711309134972
  0
LINE
  8
_0-0_
  6
CONTINUOUS
 62
    7
 10
763.24999999999988
 20
681.17711309134972
 11
761.74999999999977
 21
679.98051370623738
  0
LINE
  8
_0-0_
  6
CONTINUOUS
 62
    7
 10
762.51404912669158
 20
684.31903910610981
 11
763.24999999999988
 21
683.67874559651181
  0
LINE
  8
_0-0_
  6
DASHED3
 62
    4
 10
724.24999999999977
 20
719.75193485567035
 11
724.24999999999977
 21
654.38361539447168
  0
LINE
  8
_0-0_
  6
DASHED3
 62
    4
 10
760.74999999999988
 20
719.75193485567035
 11
760.74999999999988
 21
654.38361539447168
  0
LINE
  8
_0-0_
  6
DASHED2
 62
    4
 10
726.5
 20
593.48311650993969
 11
727.25324675324691
 21
594.18719853618426
  0
LINE
  8
_0-0_
  6
DASHED2
 62
    4
 10
727.25324675324691
 20
594.18719853618426
 11
728.55194805194798
 21
595.36463173241543
  0
LINE
  8
_0-0_
  6
DASHED2
 62
    4
 10
728.55194805194798
 20
595.36463173241543
 11
729.8506493506494
 21
596.44067234037811
  0
LINE
  8
_0-0_
  6
DASHED2
 62
    4
 10
729.8506493506494
 20
596.44067234037811
 11
731.14935064935048
 21
597.3511478358514
  0
LINE
  8
_0-0_
  6
DASHED2
 62
    4
 10
731.14935064935048
 20
597.3511478358514
 11
732.44805194805189
 21
598.03188569461531
  0
LINE
  8
_0-0_
  6
DASHED2
 62
    4
 10
732.44805194805189
 20
598.03188569461531
 11
733.74675324675308
 21
598.4187133924488
  0
LINE
  8
_0-0_
  6
DASHED2
 62
    4
 10
733.74675324675308
 20
598.4187133924488
 11
734.49999999999988
 21
598.48311650993969
  0
LINE
  8
_0-0_
  6
DASHED2
 62
    4
 10
734.49999999999988
 20
598.48311650993969
 11
735.25324675324668
 21
598.4187133924488
  0
LINE
  8
_0-0_
  6
DASHED2
 62
    4
 10
735.25324675324668
 20
598.4187133924488
 11
736.5519480519481
 21
598.03188569461531
  0
LINE
  8
_0-0_
  6
DASHED2
 62
    4
 10
736.5519480519481
 20
598.03188569461531
 11
737.85064935064929
 21
597.3511478358514
  0
LINE
  8
_0-0_
  6
DASHED2
 62
    4
 10
737.85064935064929
 20
597.3511478358514
 11
739.1493506493507
 21
596.44067234037811
  0
LINE
  8
_0-0_
  6
DASHED2
 62
    4
 10
739.1493506493507
 20
596.44067234037811
 11
740.44805194805178
 21
595.36463173241543
  0
LINE
  8
_0-0_
  6
DASHED2
 62
    4
 10
740.44805194805178
 20
595.36463173241543
 11
741.7467532467532
 21
594.18719853618426
  0
LINE
  8
_0-0_
  6
DASHED2
 62
    4
 10
741.7467532467532
 20
594.18719853618426
 11
743.25324675324679
 21
592.77903448369511
  0
LINE
  8
_0-0_
  6
DASHED2
 62
    4
 10
743.25324675324679
 20
592.77903448369511
 11
744.55194805194821
 21
591.60160128746395
  0
LINE
  8
_0-0_
  6
DASHED2
 62
    4
 10
744.55194805194821
 20
591.60160128746395
 11
745.85064935064929
 21
590.52556067950138
  0
LINE
  8
_0-0_
  6
DASHED2
 62
    4
 10
745.85064935064929
 20
590.52556067950138
 11
747.1493506493507
 21
589.61508518402774
  0
LINE
  8
_0-0_
  6
DASHED2
 62
    4
 10
747.1493506493507
 20
589.61508518402774
 11
748.44805194805189
 21
588.93434732526407
  0
LINE
  8
_0-0_
  6
DASHED2
 62
    4
 10
748.44805194805189
 20
588.93434732526407
 11
749.74675324675331
 21
588.54751962743068
  0
LINE
  8
_0-0_
  6
DASHED2
 62
    4
 10
749.74675324675331
 20
588.54751962743068
 11
750.50000000000011
 21
588.48311650993969
  0
LINE
  8
_0-0_
  6
DASHED2
 62
    4
 10
750.50000000000011
 20
588.48311650993969
 11
751.25324675324691
 21
588.54751962743068
  0
LINE
  8
_0-0_
  6
DASHED2
 62
    4
 10
751.25324675324691
 20
588.54751962743068
 11
752.5519480519481
 21
588.93434732526418
  0
LINE
  8
_0-0_
  6
DASHED2
 62
    4
 10
752.5519480519481
 20
588.93434732526418
 11
753.85064935064951
 21
589.61508518402797
  0
LINE
  8
_0-0_
  6
DASHED2
 62
    4
 10
753.85064935064951
 20
589.61508518402797
 11
755.14935064935059
 21
590.52556067950149
  0
LINE
  8
_0-0_
  6
DASHED2
 62
    4
 10
755.14935064935059
 20
590.52556067950149
 11
756.44805194805201
 21
591.60160128746406
  0
LINE
  8
_0-0_
  6
DASHED2
 62
    4
 10
756.44805194805201
 20
591.60160128746406
 11
757.74675324675308
 21
592.77903448369511
  0
LINE
  8
_0-0_
  6
DASHED2
 62
    4
 10
757.74675324675308
 20
592.77903448369511
 11
758.5
 21
593.48311650993969
  0
LINE
  8
_0-0_
  6
DASHED2
 62
    4
 10
726.5
 20
650.75193485567024
 11
726.5
 21
593.48311650993969
  0
LINE
  8
_0-0_
  6
DASHED2
 62
    4
 10
758.5
 20
650.75193485567024
 11
758.5
 21
593.48311650993969
  0
TEXT
  8
_0-0_
 62
    7
 10
674.58727355001224
 20
493.06660755896655
 40
10
 41
1
 50
0
  1
VESSEL（置き型）取付方法
  0
LINE
  8
_0-0_
  6
CONTINUOUS
 62
    4
 10
1149.0144481461743
 20
673.81577409578551
 11
1149.0144481461743
 21
648.81577409578551
  0
LINE
  8
_0-0_
  6
CONTINUOUS
 62
    4
 10
1149.0144481461743
 20
698.81577409578551
 11
1149.0144481461743
 21
723.81577409578551
  0
LINE
  8
_0-0_
  6
CONTINUOUS
 62
    4
 10
1149.0144481461743
 20
673.81577409578551
 11
1149.0144481461743
 21
698.81577409578551
  0
LINE
  8
_0-0_
  6
CONTINUOUS
 62
    7
 10
1149.0144481461743
 20
673.81577409578551
 11
1150.955590984443
 21
666.57133039861741
  0
LINE
  8
_0-0_
  6
CONTINUOUS
 62
    7
 10
1149.0144481461743
 20
673.81577409578551
 11
1147.0733053079056
 21
666.57133039861741
  0
LINE
  8
_0-0_
  6
CONTINUOUS
 62
    7
 10
1149.0144481461743
 20
698.81577409578551
 11
1147.0733053079056
 21
706.06021779295349
  0
LINE
  8
_0-0_
  6
CONTINUOUS
 62
    7
 10
1149.0144481461743
 20
698.81577409578551
 11
1150.955590984443
 21
706.06021779295349
  0
LINE
  8
_0-0_
  6
CONTINUOUS
 62
    4
 10
1149.0144481461743
 20
673.81577409578551
 11
1117.4807463039742
 21
673.81577409578551
  0
LINE
  8
_0-0_
  6
CONTINUOUS
 62
    4
 10
1149.0144481461743
 20
698.81577409578551
 11
1117.4807463039742
 21
698.81577409578551
  0
TEXT
  8
_0-0_
 62
    7
 10
1146.5144481461743
 20
678.19077409578551
 40
15
 41
1
 50
90
  1
25
  0
LINE
  8
_0-0_
  6
CONTINUOUS
 62
    4
 10
700.4944841712512
 20
670.3157740957879
 11
702.75
 21
672.57128992453669
  0
LINE
  8
_0-0_
  6
CONTINUOUS
 62
    4
 10
701.90869773362555
 20
670.31577409578699
 11
703.90869773362408
 21
672.31577409578551
  0
LINE
  8
_0-0_
  6
CONTINUOUS
 62
    4
 10
705.25
 20
673.65707636216143
 11
705.40869773362317
 21
673.81577409578449
  0
LINE
  8
_0-0_
  6
CONTINUOUS
 62
    4
 10
711.7224062326079
 20
668.81577409578642
 11
712.99999999999977
 21
670.09336786317828
  0
LINE
  8
_0-0_
  6
CONTINUOUS
 62
    4
 10
713.22240623260711
 20
670.31577409578562
 11
716.7224062326062
 21
673.81577409578471
  0
LINE
  8
_0-0_
  6
CONTINUOUS
 62
    4
 10
714.63661979498215
 20
670.31577409578562
 11
718.13661979498306
 21
673.81577409578642
  0
LINE
  8
_0-0_
  6
CONTINUOUS
 62
    4
 10
716
 20
670.26494073842809
 11
719.00000000000068
 21
673.26494073842866
  0
LINE
  8
_0-0_
  6
CONTINUOUS
 62
    4
 10
716
 20
668.85072717606203
 11
718.99999999999886
 21
671.8507271760609
  0
LINE
  8
_0-0_
  6
CONTINUOUS
 62
    4
 10
768.2909487275333
 20
668.81577409578756
 11
769.00000000000034
 21
669.52482536825459
  0
LINE
  8
_0-0_
  6
CONTINUOUS
 62
    4
 10
769.79094872753137
 20
670.31577409578562
 11
773.29094872753159
 21
673.81577409578585
  0
LINE
  8
_0-0_
  6
CONTINUOUS
 62
    4
 10
771.20516228990652
 20
670.31577409578562
 11
774.70516228990845
 21
673.81577409578744
  0
LINE
  8
_0-0_
  6
CONTINUOUS
 62
    4
 10
772.00000000000045
 20
669.69639824350429
 11
776.11937585228304
 21
673.8157740957871
  0
LINE
  8
_0-0_
  6
CONTINUOUS
 62
    4
 10
775.36201653939906
 20
668.81577409578653
 11
779.75
 21
673.20375755638724
  0
LINE
  8
_0-0_
  6
CONTINUOUS
 62
    4
 10
776.77623010177342
 20
668.81577409578562
 11
780.27623010177308
 21
672.31577409578551
  0
LINE
  8
_0-0_
  6
CONTINUOUS
 62
    4
 10
778.19044366414232
 20
668.81577409578414
 11
781.69044366414379
 21
672.31577409578551
  0
LINE
  8
_0-0_
  6
CONTINUOUS
 62
    4
 10
782.25
 20
672.8753304316416
 11
783.19044366414459
 21
673.8157740957863
  0
LINE
  8
_0-0_
  6
CONTINUOUS
 62
    7
 10
719.75000000000022
 20
654.31577409578551
 11
765.25000000000034
 21
654.31577409578551
  0
LINE
  8
_0-0_
  6
CONTINUOUS
 62
    7
 10
770.13795006481905
 20
668.81577409578551
 11
714.86204993518163
 21
668.81577409578551
  0
ARC
  8
_0-0_
  6
CONTINUOUS
 62
    7
 10
714.86204993518163
 20
667.8157740957854
 40
1
 50
90
 51
129.80557109226512
  0
LINE
  8
_0-0_
  6
CONTINUOUS
 62
    7
 10
711.85981560033587
 20
666.6156204293984
 11
714.22186553551705
 21
668.58399537538286
  0
ARC
  8
_0-0_
  6
CONTINUOUS
 62
    7
 10
712.50000000000022
 20
665.84739914980104
 40
1
 50
129.80557109226521
 51
180
  0
LINE
  8
_0-0_
  6
CONTINUOUS
 62
    7
 10
711.50000000000034
 20
665.84739914980104
 11
711.50000000000034
 21
663.31577409578562
  0
LINE
  8
_0-0_
  6
CONTINUOUS
 62
    7
 10
711.50000000000034
 20
663.31577409578562
 11
773.50000000000022
 21
663.31577409578562
  0
LINE
  8
_0-0_
  6
CONTINUOUS
 62
    7
 10
773.50000000000022
 20
665.84739914980104
 11
773.50000000000022
 21
663.31577409578562
  0
ARC
  8
_0-0_
  6
CONTINUOUS
 62
    7
 10
772.50000000000022
 20
665.84739914980104
 40
1
 50
0
 51
50.194428907734796
  0
LINE
  8
_0-0_
  6
CONTINUOUS
 62
    7
 10
773.1401843996648
 20
666.6156204293984
 11
770.7781344644834
 21
668.58399537538286
  0
ARC
  8
_0-0_
  6
CONTINUOUS
 62
    7
 10
770.13795006481905
 20
667.8157740957854
 40
1
 50
50.194428907734874
 51
90.000000000000056
  0
LINE
  8
_0-0_
  6
CONTINUOUS
 62
    7
 10
712.50000000000022
 20
660.3157740957854
 11
772.50000000000022
 21
660.3157740957854
  0
LINE
  8
_0-0_
  6
CONTINUOUS
 62
    7
 10
719.75000000000022
 20
660.3157740957854
 11
719.75000000000022
 21
654.31577409578551
  0
LINE
  8
_0-0_
  6
CONTINUOUS
 62
    7
 10
712.50000000000022
 20
663.31577409578562
 11
712.50000000000022
 21
660.3157740957854
  0
LINE
  8
_0-0_
  6
CONTINUOUS
 62
    7
 10
765.25000000000034
 20
660.3157740957854
 11
765.25000000000034
 21
654.31577409578551
  0
LINE
  8
_0-0_
  6
CONTINUOUS
 62
    7
 10
772.50000000000022
 20
663.31577409578562
 11
772.50000000000022
 21
660.3157740957854
  0
LINE
  8
_0-0_
  6
CONTINUOUS
 62
    7
 10
724.24999999999977
 20
654.31577409578551
 11
724.24999999999977
 21
651.68409355698429
  0
LINE
  8
_0-0_
  6
CONTINUOUS
 62
    7
 10
760.74999999999988
 20
654.31577409578551
 11
760.74999999999988
 21
651.68409355698429
  0
LINE
  8
_0-0_
  6
CONTINUOUS
 62
    7
 10
722.46944593735065
 20
651.68409355698429
 11
762.5
 21
651.68409355698429
  0
LINE
  8
_0-0_
  6
CONTINUOUS
 62
    7
 10
762.5
 20
651.68409355698429
 11
762.5
 21
650.68409355698406
  0
LINE
  8
_0-0_
  6
CONTINUOUS
 62
    7
 10
762.5
 20
650.68409355698406
 11
722.46944593735065
 21
650.68409355698406
  0
LINE
  8
_0-0_
  6
CONTINUOUS
 62
    7
 10
722.46944593735065
 20
651.68409355698429
 11
722.46944593735065
 21
650.68409355698406
  0
LINE
  8
_0-0_
  6
CONTINUOUS
 62
    4
 10
714.55083335735594
 20
668.74793279709797
 11
714.57726655323938
 21
668.7743659929813
  0
LINE
  8
_0-0_
  6
CONTINUOUS
 62
    4
 10
769.70516228990732
 20
668.74793279710036
 11
769.77300358859247
 21
668.81577409578551
  0
LINE
  8
_0-0_
  6
CONTINUOUS
 62
    7
 10
721.74999999999977
 20
669.7790168056689
 11
722.95747518576501
 21
668.81577409578551
  0
LINE
  8
_0-0_
  6
CONTINUOUS
 62
    7
 10
761.74999999999977
 20
669.97398368558901
 11
763.08124160453405
 21
668.81577409578551
  0
LINE
  8
_0-0_
  6
CONTINUOUS
 62
    7
 10
712.00000000000045
 20
718.75193485566933
 11
773.00000000000045
 21
718.75193485566933
  0
LINE
  8
_0-0_
  6
CONTINUOUS
 62
    7
 10
712.00000000000045
 20
719.75193485566933
 11
712.00000000000045
 21
718.75193485566933
  0
LINE
  8
_0-0_
  6
CONTINUOUS
 62
    7
 10
712.00000000000045
 20
719.75193485566933
 11
773.00000000000045
 21
719.75193485566933
  0
LINE
  8
_0-0_
  6
CONTINUOUS
 62
    7
 10
773.00000000000045
 20
719.75193485566933
 11
773.00000000000045
 21
718.75193485566933
  0
LINE
  8
_0-0_
  6
CONTINUOUS
 62
    4
 10
713.0417641515396
 20
719.75193485566933
 11
714.04176415153926
 21
718.75193485566978
  0
LINE
  8
_0-0_
  6
CONTINUOUS
 62
    4
 10
772.43873377120962
 20
719.75193485566933
 11
773.00000000000159
 21
719.19066862687759
  0
LINE
  8
_0-0_
  6
CONTINUOUS
 62
    4
 10
717.28440483865597
 20
719.75193485566933
 11
718.28440483865711
 21
718.75193485566842
  0
LINE
  8
_0-0_
  6
CONTINUOUS
 62
    4
 10
721.52704552577256
 20
719.75193485566933
 11
722.52704552577461
 21
718.7519348556674
  0
LINE
  8
_0-0_
  6
CONTINUOUS
 62
    4
 10
725.76968621289779
 20
719.75193485566933
 11
726.76968621289711
 21
718.75193485567012
  0
LINE
  8
_0-0_
  6
CONTINUOUS
 62
    4
 10
730.01232690001415
 20
719.75193485566933
 11
731.01232690001495
 21
718.75193485566865
  0
LINE
  8
_0-0_
  6
CONTINUOUS
 62
    4
 10
734.25496758713074
 20
719.75193485566933
 11
735.25496758713188
 21
718.75193485566842
  0
LINE
  8
_0-0_
  6
CONTINUOUS
 62
    4
 10
738.4976082742562
 20
719.75193485566933
 11
739.49760827425507
 21
718.75193485567046
  0
LINE
  8
_0-0_
  6
CONTINUOUS
 62
    4
 10
742.74024896137257
 20
719.75193485566933
 11
743.74024896137279
 21
718.7519348556691
  0
LINE
  8
_0-0_
  6
CONTINUOUS
 62
    4
 10
746.9828896484887
 20
719.75193485566933
 11
747.98288964848893
 21
718.75193485566921
  0
LINE
  8
_0-0_
  6
CONTINUOUS
 62
    4
 10
751.22553033561416
 20
719.75193485566933
 11
752.22553033561302
 21
718.75193485567069
  0
LINE
  8
_0-0_
  6
CONTINUOUS
 62
    4
 10
755.46817102273075
 20
719.75193485566933
 11
756.46817102273075
 21
718.75193485566933
  0
LINE
  8
_0-0_
  6
CONTINUOUS
 62
    4
 10
759.71081170984689
 20
719.75193485566933
 11
760.71081170984621
 21
718.75193485567012
  0
LINE
  8
_0-0_
  6
CONTINUOUS
 62
    4
 10
763.95345239697257
 20
719.75193485566933
 11
764.95345239697087
 21
718.75193485567115
  0
LINE
  8
_0-0_
  6
CONTINUOUS
 62
    4
 10
768.19609308408871
 20
719.75193485566933
 11
769.19609308408837
 21
718.75193485566978
  0
LINE
  8
_0-0_
  6
DASHED2
 62
    4
 10
720
 20
719.75193485566933
 11
765
 21
719.75193485566944
  0
LINE
  8
_0-0_
  6
DASHED2
 62
    4
 10
721.74999999999977
 20
719.75193485566933
 11
721.74999999999977
 21
718.75193485566933
  0
LINE
  8
_0-0_
  6
DASHED3
 62
    4
 10
763.24999999999988
 20
719.75193485566944
 11
763.24999999999988
 21
718.75193485566933
  0
LINE
  8
_0-0_
  6
CONTINUOUS
 62
    7
 10
721.74999999999977
 20
716.75193485567024
 11
721.74999999999977
 21
698.81577409578551
  0
LINE
  8
_0-0_
  6
CONTINUOUS
 62
    7
 10
763.24999999999988
 20
716.75193485567024
 11
763.24999999999988
 21
698.81577409578551
  0
LINE
  8
_0-0_
  6
CONTINUOUS
 62
    4
 10
771.05033654862722
 20
719.23462360953465
 11
966.09191845775342
 21
727.70536129389756
  0
LINE
  8
_0-0_
  6
CONTINUOUS
 62
    7
 10
782.5
 20
719.75193485567024
 11
782.5
 21
709.81577409578551
  0
LINE
  8
_0-0_
  6
CONTINUOUS
 62
    7
 10
782.5
 20
719.75193485567024
 11
783.42609767353997
 21
719.97192436748321
  0
LINE
  8
_0-0_
  6
CONTINUOUS
 62
    7
 10
783.42609767353997
 20
719.97192436748321
 11
785.02327735122298
 21
720.34870583926192
  0
LINE
  8
_0-0_
  6
CONTINUOUS
 62
    7
 10
785.02327735122298
 20
720.34870583926192
 11
786.62173355915626
 21
720.71851289446317
  0
LINE
  8
_0-0_
  6
CONTINUOUS
 62
    7
 10
786.62173355915626
 20
720.71851289446317
 11
788.22227422787796
 21
721.07693134537964
  0
LINE
  8
_0-0_
  6
CONTINUOUS
 62
    7
 10
788.22227422787796
 20
721.07693134537964
 11
789.82570728792609
 21
721.41954700430449
  0
LINE
  8
_0-0_
  6
CONTINUOUS
 62
    7
 10
789.82570728792609
 20
721.41954700430449
 11
791.43284066983881
 21
721.74194568353004
  0
LINE
  8
_0-0_
  6
CONTINUOUS
 62
    7
 10
791.43284066983881
 20
721.74194568353004
 11
792.36699188547106
 21
721.91793407788838
  0
LINE
  8
_0-0_
  6
CONTINUOUS
 62
    7
 10
792.36699188547106
 20
721.91793407788838
 11
793.62641519034241
 21
722.14075871005672
  0
LINE
  8
_0-0_
  6
CONTINUOUS
 62
    7
 10
793.62641519034241
 20
722.14075871005672
 11
795.80398794555753
 21
722.49090782312441
  0
LINE
  8
_0-0_
  6
CONTINUOUS
 62
    7
 10
795.80398794555753
 20
722.49090782312441
 11
797.98789170823079
 21
722.80532124050239
  0
LINE
  8
_0-0_
  6
CONTINUOUS
 62
    7
 10
797.98789170823079
 20
722.80532124050239
 11
800.17643120582079
 21
723.09253603553179
  0
LINE
  8
_0-0_
  6
CONTINUOUS
 62
    7
 10
800.17643120582079
 20
723.09253603553179
 11
802.36791116578524
 21
723.36108928155351
  0
LINE
  8
_0-0_
  6
CONTINUOUS
 62
    7
 10
802.36791116578524
 20
723.36108928155351
 11
804.56063631558299
 21
723.61951805190869
  0
LINE
  8
_0-0_
  6
CONTINUOUS
 62
    7
 10
804.56063631558299
 20
723.61951805190869
 11
805.94154630707237
 21
723.78089642203599
  0
LINE
  8
_0-0_
  6
CONTINUOUS
 62
    7
 10
809.85785948474187
 20
723.96375363460163
 11
805.94154630707237
 21
723.78089642203599
  0
LINE
  8
_0-0_
  6
CONTINUOUS
 62
    7
 10
812.64704681309297
 20
724.06419933953873
 11
809.85785948474187
 21
723.96375363460163
  0
LINE
  8
_0-0_
  6
CONTINUOUS
 62
    7
 10
815.48425762156284
 20
724.13873537081099
 11
812.64704681309297
 21
724.06419933953873
  0
LINE
  8
_0-0_
  6
CONTINUOUS
 62
    7
 10
818.36398515683185
 20
724.18894958723183
 11
815.48425762156284
 21
724.13873537081099
  0
LINE
  8
_0-0_
  6
CONTINUOUS
 62
    7
 10
821.2812604452074
 20
724.21664690027216
 11
818.36398515683185
 21
724.18894958723183
  0
LINE
  8
_0-0_
  6
CONTINUOUS
 62
    7
 10
824.23168882620132
 20
724.22383069382465
 11
821.2812604452074
 21
724.21664690027216
  0
LINE
  8
_0-0_
  6
CONTINUOUS
 62
    7
 10
827.21148648611347
 20
724.21268424396362
 11
824.23168882620132
 21
724.22383069382465
  0
LINE
  8
_0-0_
  6
CONTINUOUS
 62
    7
 10
830.21751699160802
 20
724.18555213870729
 11
827.21148648611347
 21
724.21268424396362
  0
LINE
  8
_0-0_
  6
CONTINUOUS
 62
    7
 10
833.24732782329533
 20
724.14492169777861
 11
830.21751699160802
 21
724.18555213870729
  0
LINE
  8
_0-0_
  6
CONTINUOUS
 62
    7
 10
836.29918690930992
 20
724.09340439236825
 11
833.24732782329533
 21
724.14492169777861
  0
LINE
  8
_0-0_
  6
CONTINUOUS
 62
    7
 10
839.37211915889406
 20
724.03371726489342
 11
836.29918690930992
 21
724.09340439236825
  0
LINE
  8
_0-0_
  6
CONTINUOUS
 62
    7
 10
842.46594299597347
 20
723.96866434876312
 11
839.37211915889406
 21
724.03371726489342
  0
LINE
  8
_0-0_
  6
CONTINUOUS
 62
    7
 10
845.58130689273809
 20
723.9011180881356
 11
842.46594299597347
 21
723.96866434876312
  0
LINE
  8
_0-0_
  6
CONTINUOUS
 62
    7
 10
848.71972590322513
 20
723.83400075768338
 11
845.58130689273809
 21
723.9011180881356
  0
LINE
  8
_0-0_
  6
CONTINUOUS
 62
    7
 10
851.88361819689475
 20
723.77026588235241
 11
848.71972590322513
 21
723.83400075768338
  0
LINE
  8
_0-0_
  6
CONTINUOUS
 62
    7
 10
855.0763415922114
 20
723.71287965712508
 11
851.88361819689475
 21
723.77026588235241
  0
LINE
  8
_0-0_
  6
CONTINUOUS
 62
    7
 10
858.30223009022461
 20
723.66480236678046
 11
855.0763415922114
 21
723.71287965712508
  0
LINE
  8
_0-0_
  6
CONTINUOUS
 62
    7
 10
861.56663040814919
 20
723.6289698056571
 11
858.30223009022461
 21
723.66480236678046
  0
LINE
  8
_0-0_
  6
CONTINUOUS
 62
    7
 10
864.8759385129415
 20
723.60827469741354
 11
861.56663040814919
 21
723.6289698056571
  0
LINE
  8
_0-0_
  6
CONTINUOUS
 62
    7
 10
868.23763615488417
 20
723.60554811479016
 11
864.8759385129415
 21
723.60827469741354
  0
LINE
  8
_0-0_
  6
CONTINUOUS
 62
    7
 10
876.36149700276007
 20
724.24323558150956
 11
868.23763615488417
 21
723.60554811479016
  0
LINE
  8
_0-0_
  6
CONTINUOUS
 62
    7
 10
884.46981790631241
 20
725.0085136178767
 11
876.36149700276007
 21
724.24323558150956
  0
LINE
  8
_0-0_
  6
CONTINUOUS
 62
    7
 10
892.54987050400131
 20
725.91329623822889
 11
884.46981790631241
 21
725.0085136178767
  0
LINE
  8
_0-0_
  6
CONTINUOUS
 62
    7
 10
910.61066041979131
 20
728.55991407912722
 11
892.54987050400131
 21
725.91329623822889
  0
LINE
  8
_0-0_
  6
CONTINUOUS
 62
    7
 10
915.53214193133271
 20
729.57265280706462
 11
910.61066041979131
 21
728.55991407912722
  0
LINE
  8
_0-0_
  6
CONTINUOUS
 62
    7
 10
920.41073442452011
 20
730.73760267228499
 11
915.53214193133271
 21
729.57265280706462
  0
LINE
  8
_0-0_
  6
CONTINUOUS
 62
    7
 10
923.21697625610113
 20
731.49611261124823
 11
920.41073442452011
 21
730.73760267228499
  0
LINE
  8
_0-0_
  6
CONTINUOUS
 62
    7
 10
925.88976065075348
 20
732.28645062195698
 11
923.21697625610113
 21
731.49611261124823
  0
LINE
  8
_0-0_
  6
CONTINUOUS
 62
    7
 10
930.45805248829628
 20
733.7881706518965
 11
925.88976065075348
 21
732.28645062195698
  0
LINE
  8
_0-0_
  6
CONTINUOUS
 62
    7
 10
934.9786921251615
 20
735.45140148168741
 11
930.45805248829628
 21
733.7881706518965
  0
LINE
  8
_0-0_
  6
CONTINUOUS
 62
    7
 10
939.45508238769434
 20
737.25925356841582
 11
934.9786921251615
 21
735.45140148168741
  0
LINE
  8
_0-0_
  6
CONTINUOUS
 62
    7
 10
943.89062610223959
 20
739.19483736916845
 11
939.45508238769434
 21
737.25925356841582
  0
LINE
  8
_0-0_
  6
CONTINUOUS
 62
    7
 10
948.28872609514269
 20
741.24126334103129
 11
943.89062610223959
 21
739.19483736916845
  0
LINE
  8
_0-0_
  6
CONTINUOUS
 62
    7
 10
950.82380826829671
 20
742.47232292935007
 11
948.28872609514269
 21
741.24126334103129
  0
LINE
  8
_0-0_
  6
CONTINUOUS
 62
    7
 10
954.1010084512311
 20
744.1161569721778
 11
950.82380826829671
 21
742.47232292935007
  0
LINE
  8
_0-0_
  6
CONTINUOUS
 62
    7
 10
959.68727016168463
 20
747.07815958151184
 11
954.1010084512311
 21
744.1161569721778
  0
LINE
  8
_0-0_
  6
CONTINUOUS
 62
    7
 10
965.16021731287287
 20
750.22539455605533
 11
959.68727016168463
 21
747.07815958151184
  0
LINE
  8
_0-0_
  6
CONTINUOUS
 62
    7
 10
970.48241235801606
 20
753.58513240618049
 11
965.16021731287287
 21
750.22539455605533
  0
LINE
  8
_0-0_
  6
CONTINUOUS
 62
    7
 10
975.61641775033444
 20
757.1846436422594
 11
970.48241235801606
 21
753.58513240618049
  0
LINE
  8
_0-0_
  6
CONTINUOUS
 62
    7
 10
980.52479594304827
 20
761.05119877466404
 11
975.61641775033444
 21
757.1846436422594
  0
LINE
  8
_0-0_
  6
CONTINUOUS
 62
    7
 10
983.25352057177974
 20
763.42690626390833
 11
980.52479594304827
 21
761.05119877466404
  0
LINE
  8
_0-0_
  6
CONTINUOUS
 62
    7
 10
985.31943034293988
 20
765.35275402619618
 11
983.25352057177974
 21
763.42690626390833
  0
LINE
  8
_0-0_
  6
CONTINUOUS
 62
    7
 10
988.76021247189123
 20
768.80509634129668
 11
985.31943034293988
 21
765.35275402619618
  0
LINE
  8
_0-0_
  6
CONTINUOUS
 62
    7
 10
992.0719036629307
 20
772.39802208329547
 11
988.76021247189123
 21
768.80509634129668
  0
LINE
  8
_0-0_
  6
CONTINUOUS
 62
    7
 10
995.28268971036254
 20
776.10083618081785
 11
992.0719036629307
 21
772.39802208329547
  0
LINE
  8
_0-0_
  6
CONTINUOUS
 62
    7
 10
998.42075640849031
 20
779.882843562488
 11
995.28268971036254
 21
776.10083618081785
  0
LINE
  8
_0-0_
  6
CONTINUOUS
 62
    7
 10
1001.514289551618
 20
783.71334915693114
 11
998.42075640849031
 21
779.882843562488
  0
LINE
  8
_0-0_
  6
CONTINUOUS
 62
    7
 10
1003.299240168348
 20
785.94516882853508
 11
1001.514289551618
 21
783.71334915693114
  0
LINE
  8
_0-0_
  6
CONTINUOUS
 62
    7
 10
1008.1999619392678
 20
791.71679767071896
 11
1003.299240168348
 21
785.94516882853508
  0
LINE
  8
_0-0_
  6
CONTINUOUS
 62
    7
 10
1012.8039755796561
 20
797.8591999783224
 11
1008.1999619392678
 21
791.71679767071896
  0
LINE
  8
_0-0_
  6
CONTINUOUS
 62
    7
 10
1017.1066997541993
 20
804.39917668486953
 11
1012.8039755796561
 21
797.8591999783224
  0
LINE
  8
_0-0_
  6
CONTINUOUS
 62
    7
 10
1021.1079189322214
 20
811.36694686625514
 11
1017.1066997541993
 21
804.39917668486953
  0
LINE
  8
_0-0_
  6
CONTINUOUS
 62
    7
 10
1024.8126320684821
 20
818.79645588582445
 11
1021.1079189322214
 21
811.36694686625514
  0
LINE
  8
_0-0_
  6
CONTINUOUS
 62
    7
 10
1025.1598904171573
 20
819.60172854503764
 11
1024.8126320684821
 21
818.79645588582445
  0
LINE
  8
_0-0_
  6
CONTINUOUS
 62
    7
 10
1035.6068916463584
 20
829.1337884125096
 11
1035.6068916463584
 21
829.1337884125096
  0
LINE
  8
_0-0_
  6
CONTINUOUS
 62
    7
 10
1035.6068916463584
 20
829.1337884125096
 11
1034.2795770426059
 21
828.60739797452515
  0
LINE
  8
_0-0_
  6
CONTINUOUS
 62
    7
 10
1034.2795770426059
 20
828.60739797452515
 11
1032.8992488502508
 21
827.88054359440184
  0
LINE
  8
_0-0_
  6
CONTINUOUS
 62
    7
 10
1032.8992488502508
 20
827.88054359440184
 11
1031.5078476429382
 21
826.97531037467376
  0
LINE
  8
_0-0_
  6
CONTINUOUS
 62
    7
 10
1031.5078476429382
 20
826.97531037467376
 11
1030.1476504422691
 21
825.91920336865223
  0
LINE
  8
_0-0_
  6
CONTINUOUS
 62
    7
 10
1030.1476504422691
 20
825.91920336865223
 11
1028.859986151893
 21
824.74431185329922
  0
LINE
  8
_0-0_
  6
CONTINUOUS
 62
    7
 10
1028.859986151893
 20
824.74431185329922
 11
1027.6839797996833
 21
823.48633431278494
  0
LINE
  8
_0-0_
  6
CONTINUOUS
 62
    7
 10
1027.6839797996833
 20
823.48633431278494
 11
1026.655363743564
 21
822.18349375811067
  0
LINE
  8
_0-0_
  6
CONTINUOUS
 62
    7
 10
1026.655363743564
 20
822.18349375811067
 11
1025.8053919618955
 21
820.8753763402608
  0
LINE
  8
_0-0_
  6
CONTINUOUS
 62
    7
 10
1025.8053919618955
 20
820.8753763402608
 11
1025.1598904171573
 21
819.60172854503764
  0
LINE
  8
_0-0_
  6
CONTINUOUS
 62
    7
 10
1035.6068916463584
 20
829.13378841250971
 11
1053.0082933389458
 21
834.81577409578574
  0
LINE
  8
_0-0_
  6
CONTINUOUS
 62
    7
 10
702.5
 20
719.75193485567024
 11
702.5
 21
708.81577409578551
  0
LINE
  8
_0-0_
  6
CONTINUOUS
 62
    7
 10
702.5
 20
708.81577409578551
 11
720
 21
708.81577409578551
  0
LINE
  8
_0-0_
  6
CONTINUOUS
 62
    7
 10
710
 20
719.75193485567024
 11
720
 21
708.81577409578551
  0
LINE
  8
_0-0_
  6
CONTINUOUS
 62
    7
 10
782.5
 20
719.75193485567024
 11
783.42609767353997
 21
719.97192436748321
  0
LINE
  8
_0-0_
  6
CONTINUOUS
 62
    4
 10
782.5
 20
719.75193485567024
 11
775
 21
719.75193485567024
  0
LINE
  8
_0-0_
  6
CONTINUOUS
 62
    7
 10
782.5
 20
719.75193485567024
 11
782.5
 21
708.81577409578551
  0
LINE
  8
_0-0_
  6
CONTINUOUS
 62
    7
 10
775
 20
719.75193485567024
 11
765
 21
708.81577409578551
  0
ARC
  8
_0-0_
  6
CONTINUOUS
 62
    7
 10
792.5
 20
700.15044939971573
 40
4
 50
0.0000000000000127
 51
84.999999999999985
  0
LINE
  8
_0-0_
  6
CONTINUOUS
 62
    7
 10
781.5
 20
708.793428744744
 11
781.5
 21
708.81577409578551
  0
LINE
  8
_0-0_
  6
CONTINUOUS
 62
    7
 10
785.15137702900938
 20
704.80864995237709
 11
792.84862297099061
 21
704.13522819208287
  0
ARC
  8
_0-0_
  6
CONTINUOUS
 62
    7
 10
785.50000000000011
 20
708.793428744744
 40
4
 50
180
 51
264.99999999999988
  0
LINE
  8
_0-0_
  6
CONTINUOUS
 62
    7
 10
796.5
 20
700.15044939971573
 11
796.5
 21
698.81577409578551
  0
LINE
  8
_0-0_
  6
CONTINUOUS
 62
    7
 10
796.5
 20
698.81577409578551
 11
765
 21
698.81577409578551
  0
LINE
  8
_0-0_
  6
DASHED1
 62
    4
 10
772.00000000000022
 20
707.31577409578551
 11
769
 21
707.31577409578551
  0
LINE
  8
_0-0_
  6
DASHED1
 62
    4
 10
772.00000000000022
 20
708.81577409578551
 11
772.00000000000022
 21
707.31577409578551
  0
LINE
  8
_0-0_
  6
DASHED1
 62
    4
 10
769
 20
708.81577409578551
 11
769
 21
707.31577409578551
  0
SOLID
  8
_0-0_
  6
CONTINUOUS
 62
    4
 10
772.00000000000022
 20
708.81577409578551
 11
772.00000000000022
 21
707.31577409578551
 12
769
 22
708.81577409578551
 13
769
 23
707.31577409578551
  0
ARC
  8
_0-0_
  6
CONTINUOUS
 62
    7
 10
770.13795006481836
 20
697.81577409578562
 40
1
 50
50.194428907734888
 51
90
  0
LINE
  8
_0-0_
  6
DASHED3
 62
    4
 10
765
 20
708.81577409578551
 11
765
 21
698.81577409578551
  0
LINE
  8
_0-0_
  6
CONTINUOUS
 62
    4
 10
779.75
 20
700.31577409578562
 11
782.25
 21
700.31577409578562
  0
LINE
  8
_0-0_
  6
CONTINUOUS
 62
    4
 10
782.25
 20
698.81577409578551
 11
782.25
 21
700.31577409578562
  0
LINE
  8
_0-0_
  6
CONTINUOUS
 62
    4
 10
779.75
 20
698.81577409578551
 11
779.75
 21
700.31577409578562
  0
SOLID
  8
_0-0_
  6
CONTINUOUS
 62
    4
 10
782.25
 20
698.81577409578551
 11
782.25
 21
700.31577409578562
 12
779.75
 22
698.81577409578551
 13
779.75
 23
700.31577409578562
  0
LINE
  8
_0-0_
  6
CONTINUOUS
 62
    7
 10
782.5
 20
708.81577409578551
 11
765
 21
708.81577409578551
  0
LINE
  8
_0-0_
  6
CONTINUOUS
 62
    4
 10
796.1076212940718
 20
698.81577409578699
 11
796.49999999999931
 21
699.2081528017145
  0
LINE
  8
_0-0_
  6
CONTINUOUS
 62
    4
 10
794.69340773169756
 20
698.8157740957879
 11
796.4749593189631
 21
700.59732568305344
  0
LINE
  8
_0-0_
  6
CONTINUOUS
 62
    4
 10
793.27919416932809
 20
698.81577409578449
 11
796.18046079186342
 21
701.71704071831982
  0
LINE
  8
_0-0_
  6
CONTINUOUS
 62
    4
 10
791.86498060695396
 20
698.81577409578551
 11
795.65653784454207
 21
702.60733133337362
  0
LINE
  8
_0-0_
  6
CONTINUOUS
 62
    4
 10
790.45076704457983
 20
698.81577409578653
 11
794.9484923410921
 21
703.3134993922988
  0
LINE
  8
_0-0_
  6
CONTINUOUS
 62
    4
 10
789.03655348220581
 20
698.81577409578767
 11
794.05612641932066
 21
703.83534703290251
  0
LINE
  8
_0-0_
  6
CONTINUOUS
 62
    4
 10
787.62233991983885
 20
698.81577409578676
 11
792.93345992856484
 21
704.12689410451275
  0
LINE
  8
_0-0_
  6
CONTINUOUS
 62
    4
 10
786.2081263574621
 20
698.81577409578517
 11
791.63385856788545
 21
704.24150630620852
  0
LINE
  8
_0-0_
  6
CONTINUOUS
 62
    4
 10
784.79391279508809
 20
698.8157740957863
 11
790.33341874740153
 21
704.35528004809975
  0
LINE
  8
_0-0_
  6
CONTINUOUS
 62
    4
 10
783.37969923271384
 20
698.81577409578721
 11
789.03297892691568
 21
704.46905378998906
  0
LINE
  8
_0-0_
  6
CONTINUOUS
 62
    4
 10
781.96548567034471
 20
698.81577409578869
 11
787.73253910643484
 21
704.58282753187882
  0
LINE
  8
_0-0_
  6
CONTINUOUS
 62
    4
 10
780.55127210797024
 20
698.81577409578483
 11
786.43209928595479
 21
704.69660127376937
  0
LINE
  8
_0-0_
  6
CONTINUOUS
 62
    4
 10
779.13705854559611
 20
698.81577409578585
 11
785.13170448117546
 21
704.81042003136508
  0
LINE
  8
_0-0_
  6
CONTINUOUS
 62
    4
 10
777.7228449832221
 20
698.81577409578676
 11
783.99459244371882
 21
705.08752155628371
  0
LINE
  8
_0-0_
  6
CONTINUOUS
 62
    4
 10
776.30863142084785
 20
698.8157740957879
 11
783.0921720328879
 21
705.59931470782794
  0
LINE
  8
_0-0_
  6
CONTINUOUS
 62
    4
 10
774.89441785848021
 20
698.8157740957863
 11
782.37508859038075
 21
706.29644482768685
  0
LINE
  8
_0-0_
  6
CONTINUOUS
 62
    4
 10
773.48020429610426
 20
698.8157740957854
 11
781.84123825141784
 21
707.17680805109898
  0
LINE
  8
_0-0_
  6
CONTINUOUS
 62
    4
 10
772.06599073373013
 20
698.81577409578653
 11
781.53275967529475
 21
708.28254303735116
  0
LINE
  8
_0-0_
  6
CONTINUOUS
 62
    4
 10
770.651777171356
 20
698.81577409578756
 11
780.65177717135713
 21
708.81577409578869
  0
LINE
  8
_0-0_
  6
CONTINUOUS
 62
    4
 10
769.23756360898903
 20
698.81577409578665
 11
779.23756360898778
 21
708.8157740957854
  0
LINE
  8
_0-0_
  6
CONTINUOUS
 62
    4
 10
767.8233500466124
 20
698.81577409578517
 11
777.82335004661319
 21
708.81577409578596
  0
LINE
  8
_0-0_
  6
CONTINUOUS
 62
    4
 10
766.40913648423816
 20
698.8157740957863
 11
776.40913648423907
 21
708.81577409578676
  0
LINE
  8
_0-0_
  6
CONTINUOUS
 62
    4
 10
764.99999999999829
 20
698.82085117392136
 11
774.99492292186471
 21
708.81577409578778
  0
LINE
  8
_0-0_
  6
CONTINUOUS
 62
    4
 10
764.99999999999727
 20
700.23506473629549
 11
773.58070935949058
 21
708.81577409578881
  0
LINE
  8
_0-0_
  6
CONTINUOUS
 62
    4
 10
765.0000000000009
 20
701.64927829866519
 11
772.16649579712088
 21
708.81577409578517
  0
LINE
  8
_0-0_
  6
CONTINUOUS
 62
    4
 10
764.99999999999988
 20
703.06349186103932
 11
770.75228223474664
 21
708.81577409578596
  0
LINE
  8
_0-0_
  6
CONTINUOUS
 62
    4
 10
764.99999999999886
 20
704.47770542341345
 11
769.3380686723724
 21
708.81577409578699
  0
LINE
  8
_0-0_
  6
CONTINUOUS
 62
    4
 10
764.99999999999772
 20
705.89191898578746
 11
767.92385510999815
 21
708.8157740957879
  0
LINE
  8
_0-0_
  6
CONTINUOUS
 62
    4
 10
764.99999999999874
 20
707.30613254815455
 11
766.50964154763084
 21
708.81577409578665
  0
LINE
  8
_0-0_
  6
CONTINUOUS
 62
    4
 10
765.00000000000022
 20
708.72034611053118
 11
765.09542798525433
 21
708.81577409578528
  0
TEXT
  8
_0-0_
 62
    4
 10
978.26736101923415
 20
541.33684168402123
 40
12.5
 41
1
 50
0
  1
排水トラップφ32
  0
LINE
  8
_0-0_
  6
CONTINUOUS
 62
    7
 10
456.21218316362643
 20
246.27489564976471
 11
1041.6973545015812
 21
246.27489564976471
  0
TEXT
  8
_0-0_
 62
    7
 10
478.72582507944315
 20
211.66317251919025
 40
15
 41
1
 50
0
  1
【セット内容】
  0
TEXT
  8
_0-0_
 62
    7
 10
478.72582507944315
 20
186.66317251919025
 40
15
 41
1
 50
0
  1
・SUS304 ステンレス マウンティングディスク 5/10mmスペーサー
  0
TEXT
  8
_0-0_
 62
    7
 10
478.72582507944315
 20
161.66317251919025
 40
15
 41
1
 50
0
  1
・Оリング×2（乳白・黒 各1）
  0
TEXT
  8
_0-0_
 62
    7
 10
477.9102513890777
 20
60.09129081731416
 40
15
 41
1
 50
0
  1
※マウンティングディスクは、水栓の高さ・天板の厚みに応じて上下入れ替え可能です。
  0
TEXT
  8
_0-0_
 62
    7
 10
477.9102513890777
 20
110.0912908173143
 40
15
 41
1
 50
0
  1
・スチロールパッキン
  0
TEXT
  8
_0-0_
 62
    7
 10
478.37245748278832
 20
85.091290817314302
 40
15
 41
1
 50
0
  1
・天板固定用 樹脂パッキン付座付きナット×2
  0
TEXT
  8
_0-0_
 62
    7
 10
484.98999431738326
 20
264.98747205096435
 40
17.5
 41
1
 50
0
  1
品　番：SC-WBM-0174590S-70
  0
TEXT
  8
_0-0_
 62
    7
 10
484.98999431738326
 20
290.34824658152285
 40
17.5
 41
1
 50
0
  1
商品名：マジェスティック マウンティングディスクセット70mm
  0
TEXT
  8
_0-0_
 62
    7
 10
872.31905277359658
 20
251.47531558638931
 40
15
 41
1
 50
0
  1
※天板厚　10～25㎜対応
  0
TEXT
  8
_0-0_
 62
    7
 10
477.9102513890777
 20
135.0912908173143
 40
15
 41
1
 50
0
  1
・JORGER製 排水金具 クロームメッキ（70㎜）
  0
ENDSEC
  0
EOF
