  0
SECTION
  2
HEADER
  9
$ACADVER
  1
AC1009
  9
$INSBASE
 10
0
 20
0
 30
0
  9
$EXTMIN
 10
0
 20
0
  9
$EXTMAX
 10
841
 20
594
  9
$LIMMIN
 10
0
 20
0
  9
$LIMMAX
 10
841
 20
594
  9
$LTSCALE
 40
1
  0
ENDSEC
  0
SECTION
  2
TABLES
  0
TABLE
  2
LTYPE
 70
     9
  0
LTYPE
  2
CONTINUOUS
 70
    64
  3
実線
 72
    65
 73
     0
 40
0.0
  0
LTYPE
  2
DASHED1
 70
    64
  3
--  --  --  --  --  --  --  --  
 72
    65
 73
     2
 40
2.5
 49
1.25
 49
-1.25
  0
LTYPE
  2
DASHED2
 70
    64
  3
----    ----    ----    ----    
 72
    65
 73
     2
 40
5.0
 49
2.5
 49
-2.5
  0
LTYPE
  2
DASHED3
 70
    64
  3
------  ------  ------  ------  
 72
    65
 73
     2
 40
5.0
 49
3.75
 49
-1.25
  0
LTYPE
  2
CENTER1
 70
    64
  3
----- - ----- - ----- - ----- - 
 72
    65
 73
     4
 40
10.0
 49
6.25
 49
-1.25
 49
1.25
 49
-1.25
  0
LTYPE
  2
CENTER2
 70
    64
  3
----------  --  ----------  --  
 72
    65
 73
     4
 40
20.0
 49
12.5
 49
-2.5
 49
2.5
 49
-2.5
  0
LTYPE
  2
PHANTOM1
 70
    64
  3
--- - - --- - - --- - - --- - - 
 72
    65
 73
     6
 40
10.0
 49
3.25
 49
-1.25
 49
1.25
 49
-1.25
 49
1.25
 49
-1.25
  0
LTYPE
  2
PHANTOM2
 70
    64
  3
--------  -  -  --------  -  -  
 72
    65
 73
     6
 40
20.0
 49
10.0
 49
-2.5
 49
1.25
 49
-2.5
 49
1.25
 49
-2.5
  0
LTYPE
  2
DOT
 70
    64
  3
-   -   -   -   -   -   -   -   
 72
    65
 73
     2
 40
2.5
 49
0.625
 49
-1.875
  0
LTYPE
  2
DUMMY
 70
    64
  3
ダミー
 72
    65
 73
     0
 40
0.0
  0
LTYPE
  2
RAND1
 70
    64
  3
ランダム線1
 72
    65
 73
     4
 40
10.0
 49
1.0
 49
-2.0
 49
3.0
 49
-4.0
  0
LTYPE
  2
RAND2
 70
    64
  3
ランダム線2
 72
    65
 73
     4
 40
14.0
 49
2.0
 49
-3.0
 49
4.0
 49
-5.0
  0
LTYPE
  2
RAND3
 70
    64
  3
ランダム線3
 72
    65
 73
     4
 40
18.0
 49
3.0
 49
-4.0
 49
5.0
 49
-6.0
  0
LTYPE
  2
RAND4
 70
    64
  3
ランダム線4
 72
    65
 73
     4
 40
22.0
 49
4.0
 49
-5.0
 49
6.0
 49
-7.0
  0
LTYPE
  2
RAND5
 70
    64
  3
ランダム線5
 72
    65
 73
     4
 40
26.0
 49
5.0
 49
-6.0
 49
7.0
 49
-8.0
  0
LTYPE
  2
LONG1
 70
    64
  3
----------  --  ----------  --  
 72
    65
 73
     4
 40
40.0
 49
32.5
 49
-2.5
 49
2.5
 49
-2.5
  0
LTYPE
  2
LONG2
 70
    64
  3
--------  -  -  --------  -  -  
 72
    65
 73
     6
 40
40.0
 49
30.0
 49
-2.5
 49
1.25
 49
-2.5
 49
1.25
 49
-2.5
  0
LTYPE
  2
LONG3
 70
    64
  3
+++++++++++++++..+++++++++++++++
 72
    65
 73
     2
 40
40.0
 49
37.5
 49
-2.5
  0
LTYPE
  2
LONG4
 70
    64
  3
+++++++++++++++..+++++++++++++++
 72
    65
 73
     2
 40
80.0
 49
75.0
 49
-5.0
  0
LTYPE
  2
LONG5
 70
    64
  3
----------  --  ----------  --  
 72
    65
 73
     4
 40
60.0
 49
37.5
 49
-7.5
 49
7.5
 49
-7.5
  0
LTYPE
  2
dashed
 70
   64
  3
-------   -------------   ------
 72
   65
 73
    2
 40
7.5
 49
6
 49
-1.5
  0
LTYPE
  2
dashed_spaced
 70
   64
  3
----        --------        ----
 72
   65
 73
    2
 40
12
 49
6
 49
-6
  0
LTYPE
  2
long_dashed_dotted
 70
   64
  3
------------- --- --------------
 72
   65
 73
    4
 40
15.25
 49
12
 49
-1.5
 49
0.25
 49
-1.5
  0
LTYPE
  2
long_dashed_double-dotted
 70
   64
  3
----------- --- --- ------------
 72
   65
 73
    6
 40
17
 49
12
 49
-1.5
 49
0.25
 49
-1.5
 49
0.25
 49
-1.5
  0
LTYPE
  2
long_dashed_triplicate-dotted
 70
   64
  3
--------- --- --- --- ----------
 72
   65
 73
    8
 40
18.75
 49
12
 49
-1.5
 49
0.25
 49
-1.5
 49
0.25
 49
-1.5
 49
0.25
 49
-1.5
  0
LTYPE
  2
dotted
 70
   64
  3
   -       -       -       -    
 72
   65
 73
    2
 40
1.75
 49
0.25
 49
-1.5
  0
LTYPE
  2
chain
 70
   64
  3
-------------- -- --------------
 72
   65
 73
    4
 40
18.5
 49
12
 49
-1.5
 49
3.5
 49
-1.5
  0
LTYPE
  2
chain_double_dash
 70
   64
  3
------------ -- -- -------------
 72
   65
 73
    6
 40
23.5
 49
12
 49
-1.5
 49
3.5
 49
-1.5
 49
3.5
 49
-1.5
  0
LTYPE
  2
dashed_dotted
 70
   64
  3
-----------     -     ----------
 72
   65
 73
    4
 40
9.25
 49
6
 49
-1.5
 49
0.25
 49
-1.5
  0
LTYPE
  2
double-dashed_dotted
 70
   64
  3
------   -----------   -   -----
 72
   65
 73
    6
 40
16.75
 49
6
 49
-1.5
 49
6
 49
-1.5
 49
0.25
 49
-1.5
  0
LTYPE
  2
dashed_double-dotted
 70
   64
  3
---------    -    -    ---------
 72
   65
 73
    6
 40
11
 49
6
 49
-1.5
 49
0.25
 49
-1.5
 49
0.25
 49
-1.5
  0
LTYPE
  2
double-dashed_double-dotted
 70
   64
  3
-----   ---------   -   -   ----
 72
   65
 73
    8
 40
18.5
 49
6
 49
-1.5
 49
6
 49
-1.5
 49
0.25
 49
-1.5
 49
0.25
 49
-1.5
  0
LTYPE
  2
dashed_triplicate-dotted
 70
   64
  3
-------    -    -    -    ------
 72
   65
 73
    8
 40
12.75
 49
6
 49
-1.5
 49
0.25
 49
-1.5
 49
0.25
 49
-1.5
 49
0.25
 49
-1.5
  0
LTYPE
  2
double-dashed_triplicate-dotted
 70
   64
  3
-----  ---------  -  -  -  -----
 72
   65
 73
   10
 40
20.25
 49
6
 49
-1.5
 49
6
 49
-1.5
 49
0.25
 49
-1.5
 49
0.25
 49
-1.5
 49
0.25
 49
-1.5
  0
LTYPE
  2
undefined
 70
   64
  3
--------------------------------
 72
   65
 73
    0
 40
0
  0
LTYPE
  2
_
 70
   64
  3
                                
 72
   65
 73
    0
 40
0
  0
LTYPE
  2
__18
 70
   64
  3
                                
 72
   65
 73
    0
 40
0
  0
LTYPE
  2
__19
 70
   64
  3
                                
 72
   65
 73
    0
 40
0
  0
LTYPE
  2
__20
 70
   64
  3
                                
 72
   65
 73
    0
 40
0
  0
LTYPE
  2
__21
 70
   64
  3
                                
 72
   65
 73
    0
 40
0
  0
LTYPE
  2
__22
 70
   64
  3
                                
 72
   65
 73
    0
 40
0
  0
LTYPE
  2
__23
 70
   64
  3
                                
 72
   65
 73
    0
 40
0
  0
LTYPE
  2
__24
 70
   64
  3
                                
 72
   65
 73
    0
 40
0
  0
LTYPE
  2
__25
 70
   64
  3
                                
 72
   65
 73
    0
 40
0
  0
LTYPE
  2
__26
 70
   64
  3
                                
 72
   65
 73
    0
 40
0
  0
LTYPE
  2
__27
 70
   64
  3
                                
 72
   65
 73
    0
 40
0
  0
LTYPE
  2
__28
 70
   64
  3
                                
 72
   65
 73
    0
 40
0
  0
LTYPE
  2
__29
 70
   64
  3
                                
 72
   65
 73
    0
 40
0
  0
LTYPE
  2
__30
 70
   64
  3
                                
 72
   65
 73
    0
 40
0
  0
LTYPE
  2
__31
 70
   64
  3
                                
 72
   65
 73
    0
 40
0
  0
LTYPE
  2
__32
 70
   64
  3
                                
 72
   65
 73
    0
 40
0
  0
ENDTAB
  0
TABLE
  2
STYLE
  5
3
100
AcDbSymbolTable
 70
     1
  0
STYLE
  5
10
100
AcDbSymbolTableRecord
100
AcDbTextStyleTableRecord
  2
STANDARD
 70
     0
 40
0.0
 41
1.0
 50
0.0
 71
     0
 42
0.2
  3
txt
  4
bigfont.shx
  0
STYLE
  5
26
100
AcDbSymbolTableRecord
100
AcDbTextStyleTableRecord
  2
TATEGAKI
 70
    68
 40
0.0
 41
1.0
 50
0.0
 71
     0
 42
1.0
  3
txt
  4
bigfont.shx
  0
ENDTAB
  0
TABLE
  2
LAYER
 70
    3
  0
LAYER
  2
_0-0_
 70
   64
 62
    7
  6
CONTINUOUS
  0
LAYER
  2
_0-1_ADD_LINE
 70
   64
 62
    7
  6
CONTINUOUS
  0
LAYER
  2
ADD_LINE
 70
   64
 62
    7
  6
CONTINUOUS
  0
ENDTAB
  0
ENDSEC
  0
SECTION
  2
BLOCKS
  0
ENDSEC
  0
SECTION
  2
ENTITIES
  0
LINE
  8
ADD_LINE
  6
DOT
 62
    4
 10
210.5
 20
1
 11
630.5
 21
1
  0
LINE
  8
ADD_LINE
  6
DOT
 62
    4
 10
630.5
 20
1
 11
630.5
 21
593
  0
LINE
  8
ADD_LINE
  6
DOT
 62
    4
 10
630.5
 20
593
 11
210.5
 21
593
  0
LINE
  8
ADD_LINE
  6
DOT
 62
    4
 10
210.5
 20
593
 11
210.5
 21
1
  0
LINE
  8
_0-0_
  6
CONTINUOUS
 62
    7
 10
336.64270856675216
 20
81.497200609193271
 11
355.14270856675216
 21
81.497200609193271
  0
CIRCLE
  8
_0-0_
  6
CONTINUOUS
 62
    7
 10
315.14270856675216
 20
200.93459065753734
 40
21.5
  0
CIRCLE
  8
_0-0_
  6
CONTINUOUS
 62
    7
 10
315.14270856675216
 20
200.93459065753734
 40
40
  0
CIRCLE
  8
_0-0_
  6
CONTINUOUS
 62
    7
 10
315.14270856675216
 20
200.93459065753734
 40
55
  0
LINE
  8
_0-0_
  6
CENTER1
 62
    4
 10
232.15460683352657
 20
200.93459065753734
 11
401.8453931664734
 21
200.93459065753734
  0
LINE
  8
_0-0_
  6
CONTINUOUS
 62
    4
 10
275.14270993432853
 20
115.74335776693038
 11
355.14270993432853
 21
115.74335776693038
  0
ARC
  8
_0-0_
  6
CONTINUOUS
 62
    7
 10
264.14270856675216
 20
72.831875913123553
 40
4
 50
95.000000000000014
 51
180
  0
ARC
  8
_0-0_
  6
CONTINUOUS
 62
    7
 10
366.14270856675216
 20
72.831875913123553
 40
4
 50
0
 51
84.999999999999985
  0
LINE
  8
_0-0_
  6
CONTINUOUS
 62
    7
 10
355.14270856675216
 20
81.474855258151762
 11
355.14270856675216
 21
81.497200609193271
  0
LINE
  8
_0-0_
  6
CONTINUOUS
 62
    7
 10
358.79408559576154
 20
77.490076465784795
 11
366.49133153774278
 21
76.81665470549052
  0
ARC
  8
_0-0_
  6
CONTINUOUS
 62
    7
 10
359.14270856675216
 20
81.474855258151762
 40
4
 50
180
 51
264.99999999999988
  0
LINE
  8
_0-0_
  6
CONTINUOUS
 62
    7
 10
275.14270856675216
 20
81.474855258151762
 11
275.14270856675216
 21
81.497200609193271
  0
LINE
  8
_0-0_
  6
CONTINUOUS
 62
    7
 10
271.49133153774278
 20
77.490076465784795
 11
263.79408559576154
 21
76.81665470549052
  0
ARC
  8
_0-0_
  6
CONTINUOUS
 62
    7
 10
271.14270856675216
 20
81.474855258151762
 40
4
 50
275.00000000000011
 51
0
  0
LINE
  8
_0-0_
  6
CONTINUOUS
 62
    7
 10
260.14270856675216
 20
72.831875913123496
 11
260.14270856675216
 21
71.497200609193271
  0
LINE
  8
_0-0_
  6
CONTINUOUS
 62
    7
 10
260.14270856675216
 20
71.497200609193271
 11
370.14270856675216
 21
71.497200609193271
  0
LINE
  8
_0-0_
  6
CONTINUOUS
 62
    7
 10
370.14270856675216
 20
72.831875913123496
 11
370.14270856675216
 21
71.497200609193271
  0
LINE
  8
_0-0_
  6
CONTINUOUS
 62
    7
 10
275.14270856675216
 20
81.497200609193271
 11
293.64270856675216
 21
81.497200609193271
  0
LINE
  8
_0-0_
  6
CONTINUOUS
 62
    7
 10
336.64270856675216
 20
81.497200609193271
 11
336.64270856675216
 21
71.497200609193214
  0
LINE
  8
_0-0_
  6
CONTINUOUS
 62
    4
 10
315.14270856675216
 20
81.497200609193271
 11
336.64270856675216
 21
81.497200609193271
  0
LINE
  8
_0-0_
  6
CONTINUOUS
 62
    7
 10
291.64270856675216
 20
81.497200609193271
 11
291.64270856675216
 21
71.497200609193214
  0
LINE
  8
_0-0_
  6
DASHED2
 62
    7
 10
293.64270856675216
 20
81.497200609193271
 11
293.64270856675216
 21
71.497200609193214
  0
LINE
  8
_0-0_
  6
CONTINUOUS
 62
    4
 10
367.95964096055763
 20
71.497200609193214
 11
370.06730832626965
 21
73.604867974905289
  0
LINE
  8
_0-0_
  6
CONTINUOUS
 62
    4
 10
363.71700027343797
 20
71.497200609193555
 11
368.37251399104854
 21
76.152714326804186
  0
LINE
  8
_0-0_
  6
CONTINUOUS
 62
    4
 10
359.4743595863174
 20
71.497200609193043
 11
364.9303793071013
 21
76.953220329976943
  0
LINE
  8
_0-0_
  6
CONTINUOUS
 62
    4
 10
355.23171889919956
 20
71.497200609193328
 11
361.02905984565279
 21
77.294541555646674
  0
LINE
  8
_0-0_
  6
CONTINUOUS
 62
    4
 10
350.98907821207961
 20
71.497200609193441
 11
357.37736495803102
 21
77.885487355144846
  0
LINE
  8
_0-0_
  6
CONTINUOUS
 62
    4
 10
346.74643752496115
 20
71.4972006091931
 11
355.37653242574407
 21
80.127295509976079
  0
LINE
  8
_0-0_
  6
CONTINUOUS
 62
    4
 10
342.50379683784149
 20
71.497200609193441
 11
352.50379683784137
 21
81.497200609193441
  0
LINE
  8
_0-0_
  6
CONTINUOUS
 62
    4
 10
338.26115615072126
 20
71.497200609193214
 11
348.26115615072137
 21
81.497200609193441
  0
LINE
  8
_0-0_
  6
CONTINUOUS
 62
    4
 10
336.64270856675216
 20
74.12139371234241
 11
344.01851546360296
 21
81.497200609193214
  0
LINE
  8
_0-0_
  6
CONTINUOUS
 62
    4
 10
336.64270856675187
 20
78.36403439946207
 11
339.7758747764833
 21
81.497200609193555
  0
LINE
  8
_0-0_
  6
CONTINUOUS
 62
    4
 10
291.59210859241011
 20
71.4972006091931
 11
291.64270856675233
 21
71.547800583535263
  0
LINE
  8
_0-0_
  6
CONTINUOUS
 62
    4
 10
287.34946790529045
 20
71.497200609193441
 11
291.64270856675204
 21
75.790441270654923
  0
LINE
  8
_0-0_
  6
CONTINUOUS
 62
    4
 10
283.10682721817227
 20
71.497200609193384
 11
291.64270856675204
 21
80.033081957773163
  0
LINE
  8
_0-0_
  6
CONTINUOUS
 62
    4
 10
278.86418653105204
 20
71.497200609193214
 11
288.86418653105204
 21
81.497200609193157
  0
LINE
  8
_0-0_
  6
CONTINUOUS
 62
    4
 10
274.62154584393181
 20
71.497200609192987
 11
284.62154584393238
 21
81.497200609193498
  0
LINE
  8
_0-0_
  6
CONTINUOUS
 62
    4
 10
270.37890515681397
 20
71.497200609193328
 11
280.37890515681397
 21
81.497200609193271
  0
LINE
  8
_0-0_
  6
CONTINUOUS
 62
    4
 10
266.13626446969396
 20
71.497200609193271
 11
272.27858556924525
 21
77.639521708744609
  0
LINE
  8
_0-0_
  6
CONTINUOUS
 62
    4
 10
274.9780421161588
 20
80.338978255658162
 11
276.13626446969396
 21
81.497200609193271
  0
LINE
  8
_0-0_
  6
CONTINUOUS
 62
    4
 10
261.89362378257578
 20
71.497200609193271
 11
267.54087990554205
 21
77.14445673215954
  0
LINE
  8
_0-0_
  6
CONTINUOUS
 62
    4
 10
260.4017685860482
 20
74.247986099785691
 11
262.72659838009087
 21
76.572815893828362
  0
LINE
  8
_0-0_
  6
CONTINUOUS
 62
    4
 10
275.14270993432853
 20
83.771088201843269
 11
275.14270993432853
 21
115.74335776693038
  0
LINE
  8
_0-0_
  6
CONTINUOUS
 62
    4
 10
355.14270993432853
 20
83.771088201843269
 11
355.14270993432853
 21
115.74335776693038
  0
LINE
  8
_0-0_
  6
CONTINUOUS
 62
    4
 10
293.64270993432853
 20
99.649933489201998
 11
336.64270993432853
 21
99.649933489201998
  0
LINE
  8
_0-0_
  6
CONTINUOUS
 62
    4
 10
293.64270993432853
 20
83.771088201843269
 11
293.64270993432853
 21
99.649933489201998
  0
LINE
  8
_0-0_
  6
CONTINUOUS
 62
    4
 10
336.64270993432853
 20
83.771088201843269
 11
336.64270993432853
 21
99.649933489201998
  0
LINE
  8
_0-0_
  6
CONTINUOUS
 62
    7
 10
275.14270993432853
 20
115.74335776693038
 11
278.0404874131957
 21
116.51981490223795
  0
LINE
  8
_0-0_
  6
CONTINUOUS
 62
    7
 10
275.14270993432853
 20
115.74335776693038
 11
278.0404874131957
 21
114.96690063162282
  0
LINE
  8
_0-0_
  6
CONTINUOUS
 62
    7
 10
355.14270993432853
 20
115.74335776693038
 11
352.24493245546136
 21
114.96690063162282
  0
LINE
  8
_0-0_
  6
CONTINUOUS
 62
    7
 10
355.14270993432853
 20
115.74335776693038
 11
352.24493245546136
 21
116.51981490223795
  0
LINE
  8
_0-0_
  6
CONTINUOUS
 62
    7
 10
293.64270993432853
 20
99.649933489201998
 11
296.5404874131957
 21
100.4263906245095
  0
LINE
  8
_0-0_
  6
CONTINUOUS
 62
    7
 10
293.64270993432853
 20
99.649933489201998
 11
296.5404874131957
 21
98.873476353894432
  0
LINE
  8
_0-0_
  6
CONTINUOUS
 62
    7
 10
336.64270993432853
 20
99.649933489201998
 11
333.74493245546136
 21
98.873476353894432
  0
LINE
  8
_0-0_
  6
CONTINUOUS
 62
    7
 10
336.64270993432853
 20
99.649933489201998
 11
333.74493245546136
 21
100.4263906245095
  0
CIRCLE
  8
_0-0_
  6
CONTINUOUS
 62
    7
 10
522.14270856675216
 20
200.93459065753734
 40
21.5
  0
CIRCLE
  8
_0-0_
  6
CONTINUOUS
 62
    7
 10
522.14270856675216
 20
200.93459065753734
 40
40
  0
CIRCLE
  8
_0-0_
  6
CONTINUOUS
 62
    7
 10
522.14270856675216
 20
200.93459065753734
 40
55
  0
LINE
  8
_0-0_
  6
CENTER1
 62
    4
 10
439.15460683352659
 20
200.93459065753734
 11
608.8453931664734
 21
200.93459065753734
  0
LINE
  8
_0-0_
  6
CONTINUOUS
 62
    7
 10
562.14270856675216
 20
76.497200609193271
 11
544.64270856675216
 21
76.497200609193271
  0
LINE
  8
_0-0_
  6
CONTINUOUS
 62
    7
 10
467.14270856675216
 20
71.497200609193271
 11
577.14270856675216
 21
71.497200609193271
  0
LINE
  8
_0-0_
  6
CONTINUOUS
 62
    7
 10
480.64270856675216
 20
74.997200609193271
 11
472.89109252136711
 21
74.997200609193271
  0
ARC
  8
_0-0_
  6
CONTINUOUS
 62
    7
 10
472.89109252136711
 20
69.997200609193271
 40
5
 50
90
 51
115.06918975068204
  0
LINE
  8
_0-0_
  6
CONTINUOUS
 62
    7
 10
467.14270856675216
 20
71.785953359784116
 11
467.14270856675216
 21
71.497200609193271
  0
ARC
  8
_0-0_
  6
CONTINUOUS
 62
    7
 10
476.28079172620675
 20
62.750826391647649
 40
13
 50
115.06918975068208
 51
133.71301771025676
  0
ARC
  8
_0-0_
  6
CONTINUOUS
 62
    7
 10
467.64270856675216
 20
71.785953359784116
 40
0.5
 50
133.71301771025736
 51
180.00000000000002
  0
LINE
  8
_0-0_
  6
CONTINUOUS
 62
    7
 10
480.64270856675216
 20
74.997200609193271
 11
480.90318083325257
 21
75.019988979674963
  0
LINE
  8
_0-0_
  6
CONTINUOUS
 62
    7
 10
480.90318083325257
 20
75.019988979674963
 11
481.15573878174063
 21
75.087661678014399
  0
LINE
  8
_0-0_
  6
CONTINUOUS
 62
    7
 10
481.15573878174063
 20
75.087661678014399
 11
481.39270856675216
 21
75.198162503516613
  0
LINE
  8
_0-0_
  6
CONTINUOUS
 62
    7
 10
481.39270856675216
 20
75.198162503516613
 11
481.60688998128199
 21
75.348133944514813
  0
LINE
  8
_0-0_
  6
CONTINUOUS
 62
    7
 10
481.60688998128199
 20
75.348133944514813
 11
481.79177523143061
 21
75.533019194663467
  0
LINE
  8
_0-0_
  6
CONTINUOUS
 62
    7
 10
481.79177523143061
 20
75.533019194663467
 11
481.94174667242879
 21
75.747200609193271
  0
LINE
  8
_0-0_
  6
CONTINUOUS
 62
    7
 10
481.94174667242879
 20
75.747200609193271
 11
482.05224749793103
 21
75.984170394204767
  0
LINE
  8
_0-0_
  6
CONTINUOUS
 62
    7
 10
482.05224749793103
 20
75.984170394204767
 11
482.11992019627047
 21
76.236728342692856
  0
LINE
  8
_0-0_
  6
CONTINUOUS
 62
    7
 10
482.11992019627047
 20
76.236728342692856
 11
482.14270856675216
 21
76.497200609193271
  0
LINE
  8
_0-0_
  6
CONTINUOUS
 62
    7
 10
563.64270856675216
 20
74.997200609193271
 11
571.39432461213709
 21
74.997200609193271
  0
ARC
  8
_0-0_
  6
CONTINUOUS
 62
    7
 10
571.39432461213709
 20
69.997200609193271
 40
5
 50
64.930810249317957
 51
90
  0
LINE
  8
_0-0_
  6
CONTINUOUS
 62
    7
 10
577.14270856675216
 20
71.785953359784116
 11
577.14270856675216
 21
71.497200609193271
  0
ARC
  8
_0-0_
  6
CONTINUOUS
 62
    7
 10
568.00462540729756
 20
62.750826391647649
 40
13
 50
46.286982289743235
 51
64.930810249317914
  0
ARC
  8
_0-0_
  6
CONTINUOUS
 62
    7
 10
576.64270856675216
 20
71.785953359784116
 40
0.5
 50
0
 51
46.286982289742674
  0
ARC
  8
_0-0_
  6
CONTINUOUS
 62
    7
 10
563.64270856675216
 20
76.497200609193271
 40
1.5
 50
180
 51
270
  0
LINE
  8
_0-0_
  6
CONTINUOUS
 62
    7
 10
544.64270856675216
 20
76.497200609193271
 11
544.64270856675216
 21
71.497200609193271
  0
LINE
  8
_0-0_
  6
CONTINUOUS
 62
    4
 10
544.64270856675216
 20
76.497200609193271
 11
522.14270856675216
 21
76.497200609193271
  0
LINE
  8
_0-0_
  6
CONTINUOUS
 62
    4
 10
574.18723375633123
 20
71.497200609193214
 11
575.82531222794375
 21
73.135279080805673
  0
LINE
  8
_0-0_
  6
CONTINUOUS
 62
    4
 10
569.94459306921112
 20
71.497200609193043
 11
573.13267700260644
 21
74.685284542588419
  0
LINE
  8
_0-0_
  6
CONTINUOUS
 62
    4
 10
565.70195238209089
 20
71.497200609192873
 11
569.20195238209146
 21
74.997200609193441
  0
LINE
  8
_0-0_
  6
CONTINUOUS
 62
    4
 10
561.45931169497293
 20
71.497200609193157
 11
564.95931169497328
 21
74.997200609193384
  0
LINE
  8
_0-0_
  6
CONTINUOUS
 62
    4
 10
557.21667100785305
 20
71.497200609193271
 11
562.14444828295404
 21
76.424977884294207
  0
LINE
  8
_0-0_
  6
CONTINUOUS
 62
    4
 10
552.97403032073486
 20
71.497200609193271
 11
557.9740303207352
 21
76.497200609193498
  0
LINE
  8
_0-0_
  6
CONTINUOUS
 62
    4
 10
548.73138963361486
 20
71.497200609193157
 11
553.73138963361452
 21
76.497200609192816
  0
LINE
  8
_0-0_
  6
CONTINUOUS
 62
    4
 10
544.6427085667525
 20
71.651160229450795
 11
549.48874894649486
 21
76.497200609193157
  0
LINE
  8
_0-0_
  6
CONTINUOUS
 62
    4
 10
544.64270856675227
 20
75.893800916568807
 11
545.24610825937656
 21
76.497200609193157
  0
LINE
  8
_0-0_
  6
CONTINUOUS
 62
    4
 10
493.57706070106382
 20
71.4972006091931
 11
497.6427085667525
 21
75.562848474881775
  0
LINE
  8
_0-0_
  6
CONTINUOUS
 62
    4
 10
489.33442001394371
 20
71.497200609192987
 11
494.33442001394394
 21
76.497200609193157
  0
LINE
  8
_0-0_
  6
CONTINUOUS
 62
    4
 10
485.09177932682587
 20
71.497200609193271
 11
490.09177932682564
 21
76.497200609193157
  0
LINE
  8
_0-0_
  6
CONTINUOUS
 62
    4
 10
480.84913863970587
 20
71.497200609193328
 11
485.84913863970552
 21
76.497200609192987
  0
LINE
  8
_0-0_
  6
CONTINUOUS
 62
    4
 10
476.60649795258734
 20
71.497200609192987
 11
480.1064979525878
 21
74.997200609193441
  0
LINE
  8
_0-0_
  6
CONTINUOUS
 62
    4
 10
472.36385726546757
 20
71.497200609193214
 11
475.86385726546791
 21
74.997200609193555
  0
LINE
  8
_0-0_
  6
CONTINUOUS
 62
    4
 10
468.12121657834745
 20
71.497200609193043
 11
471.39083002675886
 21
74.766814057604563
  0
LINE
  8
_0-0_
  6
CONTINUOUS
 62
    7
 10
497.64270856675216
 20
76.497200609193271
 11
497.64270856675216
 21
71.497200609193271
  0
LINE
  8
_0-0_
  6
CONTINUOUS
 62
    7
 10
482.14270856675216
 20
76.497200609193271
 11
499.64270856675216
 21
76.497200609193271
  0
LINE
  8
_0-0_
  6
DASHED2
 62
    7
 10
499.64270856675216
 20
76.497200609193271
 11
499.64270856675216
 21
71.497200609193271
  0
LINE
  8
_0-0_
  6
CONTINUOUS
 62
    4
 10
482.14270716021246
 20
115.74335776693038
 11
562.14270716021246
 21
115.74335776693038
  0
LINE
  8
_0-0_
  6
CONTINUOUS
 62
    4
 10
543.64270716021246
 20
99.649933489201998
 11
500.64270716021246
 21
99.649933489201998
  0
LINE
  8
_0-0_
  6
CONTINUOUS
 62
    4
 10
482.14270716021246
 20
78.500399572661024
 11
482.14270716021246
 21
115.74335776693038
  0
LINE
  8
_0-0_
  6
CONTINUOUS
 62
    4
 10
562.14270716021246
 20
78.500399572661024
 11
562.14270716021246
 21
115.74335776693038
  0
LINE
  8
_0-0_
  6
CONTINUOUS
 62
    4
 10
500.64270716021246
 20
78.500399572661024
 11
500.64270716021246
 21
99.649933489201998
  0
LINE
  8
_0-0_
  6
CONTINUOUS
 62
    4
 10
543.64270716021246
 20
78.500399572661024
 11
543.64270716021246
 21
99.649933489201998
  0
LINE
  8
_0-0_
  6
CONTINUOUS
 62
    7
 10
482.14270716021246
 20
115.74335776693038
 11
485.04048463907975
 21
116.51981490223795
  0
LINE
  8
_0-0_
  6
CONTINUOUS
 62
    7
 10
482.14270716021246
 20
115.74335776693038
 11
485.04048463907975
 21
114.96690063162282
  0
LINE
  8
_0-0_
  6
CONTINUOUS
 62
    7
 10
562.14270716021246
 20
115.74335776693038
 11
559.24492968134529
 21
114.96690063162282
  0
LINE
  8
_0-0_
  6
CONTINUOUS
 62
    7
 10
562.14270716021246
 20
115.74335776693038
 11
559.24492968134529
 21
116.51981490223795
  0
LINE
  8
_0-0_
  6
CONTINUOUS
 62
    7
 10
500.64270716021246
 20
99.649933489201998
 11
503.54048463907975
 21
100.4263906245095
  0
LINE
  8
_0-0_
  6
CONTINUOUS
 62
    7
 10
500.64270716021246
 20
99.649933489201998
 11
503.54048463907975
 21
98.873476353894432
  0
LINE
  8
_0-0_
  6
CONTINUOUS
 62
    7
 10
543.64270716021246
 20
99.649933489201998
 11
540.74492968134529
 21
98.873476353894432
  0
LINE
  8
_0-0_
  6
CONTINUOUS
 62
    7
 10
543.64270716021246
 20
99.649933489201998
 11
540.74492968134529
 21
100.4263906245095
  0
LINE
  8
_0-0_
  6
CONTINUOUS
 62
    4
 10
260.14270993432853
 20
50.009258122527626
 11
370.14270993432853
 21
50.009258122527626
  0
LINE
  8
_0-0_
  6
CENTER1
 62
    4
 10
315.14270856675216
 20
92.783405797371187
 11
315.14270856675216
 21
62.388716623516529
  0
LINE
  8
_0-0_
  6
CONTINUOUS
 62
    4
 10
260.14270993432853
 20
69.407308117979141
 11
260.14270993432853
 21
50.009258122527626
  0
LINE
  8
_0-0_
  6
CONTINUOUS
 62
    4
 10
370.14270993432853
 20
69.407308117979141
 11
370.14270993432853
 21
50.009258122527626
  0
LINE
  8
_0-0_
  6
CONTINUOUS
 62
    7
 10
260.14270993432853
 20
50.009258122527626
 11
263.0404874131957
 21
50.785715257835192
  0
LINE
  8
_0-0_
  6
CONTINUOUS
 62
    7
 10
260.14270993432853
 20
50.009258122527626
 11
263.0404874131957
 21
49.232800987220059
  0
LINE
  8
_0-0_
  6
CONTINUOUS
 62
    7
 10
370.14270993432853
 20
50.009258122527626
 11
367.24493245546136
 21
49.232800987220059
  0
LINE
  8
_0-0_
  6
CONTINUOUS
 62
    7
 10
370.14270993432853
 20
50.009258122527626
 11
367.24493245546136
 21
50.785715257835192
  0
LINE
  8
_0-0_
  6
CONTINUOUS
 62
    4
 10
467.14270716021246
 20
50.009258122527626
 11
577.14270716021246
 21
50.009258122527626
  0
LINE
  8
_0-0_
  6
CENTER1
 62
    4
 10
522.14270856675216
 20
92.783405797371187
 11
522.14270856675216
 21
62.388716623516529
  0
LINE
  8
_0-0_
  6
CONTINUOUS
 62
    4
 10
467.14270716021246
 20
69.407308117979141
 11
467.14270716021246
 21
50.009258122527626
  0
LINE
  8
_0-0_
  6
CONTINUOUS
 62
    4
 10
577.14270716021246
 20
69.407308117979141
 11
577.14270716021246
 21
50.009258122527626
  0
LINE
  8
_0-0_
  6
CONTINUOUS
 62
    7
 10
467.14270716021246
 20
50.009258122527626
 11
470.04048463907975
 21
50.785715257835192
  0
LINE
  8
_0-0_
  6
CONTINUOUS
 62
    7
 10
467.14270716021246
 20
50.009258122527626
 11
470.04048463907975
 21
49.232800987220059
  0
LINE
  8
_0-0_
  6
CONTINUOUS
 62
    7
 10
577.14270716021246
 20
50.009258122527626
 11
574.24492968134529
 21
49.232800987220059
  0
LINE
  8
_0-0_
  6
CONTINUOUS
 62
    7
 10
577.14270716021246
 20
50.009258122527626
 11
574.24492968134529
 21
50.785715257835192
  0
LINE
  8
_0-0_
  6
CONTINUOUS
 62
    4
 10
592.14270716021246
 20
81.497200609193271
 11
592.14270716021246
 21
66.497200609193271
  0
LINE
  8
_0-0_
  6
CONTINUOUS
 62
    7
 10
592.14270716021246
 20
71.497200609193271
 11
592.91916429552009
 21
68.599423130326044
  0
LINE
  8
_0-0_
  6
CONTINUOUS
 62
    7
 10
592.14270716021246
 20
71.497200609193271
 11
591.36625002490495
 21
68.599423130326044
  0
LINE
  8
_0-0_
  6
CONTINUOUS
 62
    7
 10
592.14270716021246
 20
76.497200609193271
 11
591.36625002490495
 21
79.39497808806044
  0
LINE
  8
_0-0_
  6
CONTINUOUS
 62
    7
 10
592.14270716021246
 20
76.497200609193271
 11
592.91916429552009
 21
79.39497808806044
  0
LINE
  8
_0-0_
  6
CONTINUOUS
 62
    4
 10
592.14270716021246
 20
71.497200609193271
 11
577.8644020552648
 21
71.497200609193271
  0
LINE
  8
_0-0_
  6
CONTINUOUS
 62
    4
 10
592.14270716021246
 20
76.497200609193271
 11
577.8644020552648
 21
76.497200609193271
  0
LINE
  8
_0-0_
  6
CONTINUOUS
 62
    4
 10
385.14270993432853
 20
86.497200609193271
 11
385.14270993432853
 21
66.497200609193271
  0
LINE
  8
_0-0_
  6
CONTINUOUS
 62
    7
 10
385.14270993432853
 20
71.497200609193271
 11
385.9191670696361
 21
68.599423130326044
  0
LINE
  8
_0-0_
  6
CONTINUOUS
 62
    7
 10
385.14270993432853
 20
71.497200609193271
 11
384.36625279902096
 21
68.599423130326044
  0
LINE
  8
_0-0_
  6
CONTINUOUS
 62
    7
 10
385.14270993432853
 20
81.497200609193271
 11
384.36625279902096
 21
84.39497808806044
  0
LINE
  8
_0-0_
  6
CONTINUOUS
 62
    7
 10
385.14270993432853
 20
81.497200609193271
 11
385.9191670696361
 21
84.39497808806044
  0
LINE
  8
_0-0_
  6
CONTINUOUS
 62
    4
 10
385.14270993432853
 20
71.497200609193271
 11
371.64978836838196
 21
71.497200609193271
  0
LINE
  8
_0-0_
  6
CONTINUOUS
 62
    4
 10
385.14270993432853
 20
81.497200609193271
 11
371.64978836838196
 21
81.497200609193271
  0
CIRCLE
  8
_0-0_
  6
CONTINUOUS
 62
    4
 10
315.14270856675216
 20
200.93459065753734
 40
27.5
  0
CIRCLE
  8
_0-0_
  6
CONTINUOUS
 62
    4
 10
315.14270856675216
 20
200.93459065753734
 40
30.5
  0
CIRCLE
  8
_0-0_
  6
CONTINUOUS
 62
    4
 10
522.14270856675216
 20
200.93459065753734
 40
27.5
  0
CIRCLE
  8
_0-0_
  6
CONTINUOUS
 62
    4
 10
522.14270856675216
 20
200.93459065753734
 40
30.5
  0
LINE
  8
_0-0_
  6
CENTER1
 62
    4
 10
315.14270856675216
 20
272.62200201219332
 11
315.14270856675216
 21
124.84928418390751
  0
LINE
  8
_0-0_
  6
CENTER1
 62
    4
 10
522.14270856675216
 20
272.62200201219332
 11
522.14270856675216
 21
124.84928418390751
  0
TEXT
  8
_0-0_
 62
    7
 10
274.14270856675216
 20
34.061108564514199
 40
4
 41
1
 50
0
  1
マウンティングディスク（スペーサー）L10.0
  0
TEXT
  8
_0-0_
 62
    7
 10
482.14270856675216
 20
34.061108564514199
 40
4
 41
1
 50
0
  1
マウンティングディスク（スペーサー）L5.0
  0
LINE
  8
_0-0_
  6
CONTINUOUS
 62
    7
 10
272.64270856675216
 20
39.561108564514199
 11
272.64270856675216
 21
32.561108564514199
  0
LINE
  8
_0-0_
  6
CONTINUOUS
 62
    7
 10
272.64270856675216
 20
32.561108564514199
 11
357.64270856675216
 21
32.561108564514199
  0
LINE
  8
_0-0_
  6
CONTINUOUS
 62
    7
 10
357.64270856675216
 20
32.561108564514199
 11
357.64270856675216
 21
39.561108564514199
  0
LINE
  8
_0-0_
  6
CONTINUOUS
 62
    7
 10
357.64270856675216
 20
39.561108564514199
 11
272.64270856675216
 21
39.561108564514199
  0
LINE
  8
_0-0_
  6
CONTINUOUS
 62
    7
 10
564.64270856675216
 20
39.561108564514199
 11
479.64270856675216
 21
39.561108564514199
  0
LINE
  8
_0-0_
  6
CONTINUOUS
 62
    7
 10
479.64270856675216
 20
39.561108564514199
 11
479.64270856675216
 21
32.561108564514199
  0
LINE
  8
_0-0_
  6
CONTINUOUS
 62
    7
 10
479.64270856675216
 20
32.561108564514199
 11
564.64270856675216
 21
32.561108564514199
  0
LINE
  8
_0-0_
  6
CONTINUOUS
 62
    7
 10
564.64270856675216
 20
32.561108564514199
 11
564.64270856675216
 21
39.561108564514199
  0
TEXT
  8
_0-0_
 62
    7
 10
308.45520993432853
 20
116.93756317119056
 40
5
 41
1
 50
0
  1
φ80
  0
TEXT
  8
_0-0_
 62
    7
 10
308.45520993432853
 20
100.84413889346217
 40
5
 41
1
 50
0
  1
φ43
  0
TEXT
  8
_0-0_
 62
    7
 10
306.76770993432853
 20
51.2034635267878
 40
5
 41
1
 50
0
  1
φ110
  0
TEXT
  8
_0-0_
 62
    7
 10
515.45520716021246
 20
116.93756317119056
 40
5
 41
1
 50
0
  1
φ80
  0
TEXT
  8
_0-0_
 62
    7
 10
515.45520716021246
 20
100.84413889346217
 40
5
 41
1
 50
0
  1
φ43
  0
TEXT
  8
_0-0_
 62
    7
 10
513.76770716021246
 20
51.2034635267878
 40
5
 41
1
 50
0
  1
φ110
  0
TEXT
  8
_0-0_
 62
    7
 10
383.62600372598006
 20
73.184700609193271
 40
5
 41
1
 50
90
  1
10
  0
TEXT
  8
_0-0_
 62
    7
 10
591.66172939816954
 20
72.372200609193271
 40
5
 41
1
 50
90
  1
5
  0
LINE
  8
_0-0_
  6
DASHED1
 62
    4
 10
284.64270856675216
 20
79.997200609193271
 11
287.64270856675216
 21
79.997200609193271
  0
LINE
  8
_0-0_
  6
DASHED1
 62
    4
 10
342.64270856675216
 20
79.997200609193271
 11
345.64270856675216
 21
79.997200609193271
  0
LINE
  8
_0-0_
  6
DASHED1
 62
    4
 10
342.64270856675216
 20
81.497200609193271
 11
342.64270856675216
 21
79.997200609193271
  0
LINE
  8
_0-0_
  6
DASHED1
 62
    4
 10
345.64270856675216
 20
81.497200609193271
 11
345.64270856675216
 21
79.997200609193271
  0
LINE
  8
_0-0_
  6
DASHED1
 62
    4
 10
284.64270856675216
 20
81.497200609193271
 11
284.64270856675216
 21
79.997200609193271
  0
LINE
  8
_0-0_
  6
DASHED1
 62
    4
 10
287.64270856675216
 20
81.497200609193271
 11
287.64270856675216
 21
79.997200609193271
  0
LINE
  8
_0-0_
  6
DASHED1
 62
    4
 10
549.64270856675216
 20
74.997200609193271
 11
552.64270856675216
 21
74.997200609193271
  0
LINE
  8
_0-0_
  6
DASHED1
 62
    4
 10
491.64270856675216
 20
74.997200609193271
 11
494.64270856675216
 21
74.997200609193271
  0
LINE
  8
_0-0_
  6
DASHED1
 62
    4
 10
494.64270856675216
 20
76.497200609193271
 11
494.64270856675216
 21
74.997200609193271
  0
LINE
  8
_0-0_
  6
DASHED1
 62
    4
 10
491.64270856675216
 20
76.497200609193271
 11
491.64270856675216
 21
74.997200609193271
  0
LINE
  8
_0-0_
  6
DASHED1
 62
    4
 10
549.64270856675216
 20
76.497200609193271
 11
549.64270856675216
 21
74.997200609193271
  0
LINE
  8
_0-0_
  6
DASHED1
 62
    4
 10
552.64270856675216
 20
76.497200609193271
 11
552.64270856675216
 21
74.997200609193271
  0
LINE
  8
_0-0_
  6
CONTINUOUS
 62
    7
 10
272.52012326492757
 20
473.43109292406262
 11
333.52012326492763
 21
473.43109292406262
  0
LINE
  8
_0-0_
  6
CONTINUOUS
 62
    4
 10
282.27012326492763
 20
411.44837984308873
 11
323.77012326492763
 21
412.8399461081214
  0
LINE
  8
_0-0_
  6
CONTINUOUS
 62
    7
 10
295.52012326492763
 20
486.43109292406262
 11
295.52012326492763
 21
477.43109292406262
  0
LINE
  8
_0-0_
  6
CONTINUOUS
 62
    7
 10
310.52012326492763
 20
486.43109292406262
 11
310.52012326492763
 21
477.43109292406262
  0
LINE
  8
_0-0_
  6
CONTINUOUS
 62
    7
 10
272.52012326492757
 20
467.43109292406262
 11
333.52012326492763
 21
467.43109292406262
  0
LINE
  8
_0-0_
  6
CONTINUOUS
 62
    7
 10
333.52012326492763
 20
473.43109292406262
 11
333.52012326492763
 21
467.43109292406262
  0
LINE
  8
_0-0_
  6
CONTINUOUS
 62
    7
 10
272.52012326492757
 20
473.43109292406262
 11
272.52012326492757
 21
467.43109292406262
  0
LINE
  8
_0-0_
  6
CONTINUOUS
 62
    7
 10
282.27012326492763
 20
457.43109292406262
 11
323.77012326492763
 21
457.43109292406262
  0
LINE
  8
_0-0_
  6
CONTINUOUS
 62
    7
 10
283.77012326492763
 20
447.776268035408
 11
282.27012326492763
 21
446.47123491535813
  0
LINE
  8
_0-0_
  6
CONTINUOUS
 62
    7
 10
282.27012326492763
 20
446.47123491535813
 11
283.77012326492763
 21
445.27463553024591
  0
LINE
  8
_0-0_
  6
CONTINUOUS
 62
    7
 10
283.77012326492763
 20
445.27463553024591
 11
282.27012326492763
 21
443.96960241019604
  0
LINE
  8
_0-0_
  6
CONTINUOUS
 62
    7
 10
282.27012326492763
 20
443.96960241019604
 11
283.77012326492763
 21
442.77300302508382
  0
LINE
  8
_0-0_
  6
CONTINUOUS
 62
    7
 10
283.77012326492763
 20
442.77300302508382
 11
282.27012326492763
 21
441.46796990503395
  0
LINE
  8
_0-0_
  6
CONTINUOUS
 62
    7
 10
282.27012326492763
 20
441.46796990503395
 11
283.77012326492763
 21
440.27137051992173
  0
LINE
  8
_0-0_
  6
CONTINUOUS
 62
    7
 10
283.77012326492763
 20
440.27137051992173
 11
282.27012326492763
 21
438.96633739987186
  0
LINE
  8
_0-0_
  6
CONTINUOUS
 62
    7
 10
282.27012326492763
 20
438.96633739987186
 11
283.77012326492763
 21
437.76973801475963
  0
LINE
  8
_0-0_
  6
CONTINUOUS
 62
    7
 10
283.77012326492763
 20
437.76973801475963
 11
282.27012326492763
 21
436.46470489470976
  0
LINE
  8
_0-0_
  6
CONTINUOUS
 62
    7
 10
282.27012326492763
 20
436.46470489470976
 11
283.77012326492763
 21
435.26810550959754
  0
LINE
  8
_0-0_
  6
CONTINUOUS
 62
    7
 10
283.77012326492763
 20
435.26810550959754
 11
282.27012326492763
 21
433.96307238954767
  0
LINE
  8
_0-0_
  6
CONTINUOUS
 62
    7
 10
282.27012326492763
 20
433.96307238954767
 11
283.77012326492763
 21
432.76647300443545
  0
LINE
  8
_0-0_
  6
CONTINUOUS
 62
    7
 10
283.77012326492763
 20
432.76647300443545
 11
282.27012326492763
 21
431.46143988438558
  0
LINE
  8
_0-0_
  6
CONTINUOUS
 62
    7
 10
282.27012326492763
 20
431.46143988438558
 11
283.77012326492763
 21
430.26484049927324
  0
LINE
  8
_0-0_
  6
CONTINUOUS
 62
    7
 10
283.77012326492763
 20
430.26484049927324
 11
282.27012326492763
 21
428.95980737922349
  0
LINE
  8
_0-0_
  6
CONTINUOUS
 62
    7
 10
282.27012326492763
 20
428.95980737922349
 11
283.77012326492763
 21
427.76320799411115
  0
LINE
  8
_0-0_
  6
CONTINUOUS
 62
    7
 10
283.77012326492763
 20
427.76320799411115
 11
282.27012326492763
 21
426.45817487406139
  0
LINE
  8
_0-0_
  6
CONTINUOUS
 62
    7
 10
282.27012326492763
 20
426.45817487406139
 11
283.77012326492763
 21
425.26157548894906
  0
LINE
  8
_0-0_
  6
CONTINUOUS
 62
    7
 10
283.77012326492763
 20
425.26157548894906
 11
282.27012326492763
 21
423.95654236889919
  0
LINE
  8
_0-0_
  6
CONTINUOUS
 62
    7
 10
282.27012326492763
 20
423.95654236889919
 11
283.77012326492763
 21
422.75994298378697
  0
LINE
  8
_0-0_
  6
CONTINUOUS
 62
    7
 10
283.77012326492763
 20
422.75994298378697
 11
282.27012326492763
 21
421.45490986373721
  0
LINE
  8
_0-0_
  6
CONTINUOUS
 62
    7
 10
282.27012326492763
 20
421.45490986373721
 11
283.77012326492763
 21
420.25831047862487
  0
LINE
  8
_0-0_
  6
CONTINUOUS
 62
    7
 10
283.77012326492763
 20
420.25831047862487
 11
282.27012326492763
 21
418.953277358575
  0
LINE
  8
_0-0_
  6
CONTINUOUS
 62
    7
 10
282.27012326492763
 20
418.953277358575
 11
283.77012326492763
 21
417.75667797346278
  0
LINE
  8
_0-0_
  6
CONTINUOUS
 62
    7
 10
283.77012326492763
 20
417.75667797346278
 11
282.27012326492763
 21
416.45164485341291
  0
LINE
  8
_0-0_
  6
CONTINUOUS
 62
    7
 10
282.27012326492763
 20
416.45164485341291
 11
283.77012326492763
 21
415.25504546830069
  0
LINE
  8
_0-0_
  6
CONTINUOUS
 62
    7
 10
283.77012326492763
 20
415.25504546830069
 11
282.27012326492763
 21
413.95001234825082
  0
LINE
  8
_0-0_
  6
CONTINUOUS
 62
    7
 10
282.27012326492763
 20
413.95001234825082
 11
283.77012326492763
 21
412.7534129631386
  0
LINE
  8
_0-0_
  6
CONTINUOUS
 62
    7
 10
283.77012326492763
 20
412.7534129631386
 11
282.27012326492763
 21
411.44837984308873
  0
LINE
  8
_0-0_
  6
CONTINUOUS
 62
    7
 10
282.27012326492763
 20
396.43858481211617
 11
283.77012326492763
 21
395.24198542700395
  0
LINE
  8
_0-0_
  6
CONTINUOUS
 62
    7
 10
283.77012326492763
 20
395.24198542700395
 11
282.27012326492763
 21
393.93695230695408
  0
LINE
  8
_0-0_
  6
CONTINUOUS
 62
    7
 10
282.27012326492763
 20
393.93695230695408
 11
283.77012326492763
 21
392.74035292184186
  0
LINE
  8
_0-0_
  6
CONTINUOUS
 62
    7
 10
283.77012326492763
 20
392.74035292184186
 11
282.27012326492763
 21
391.43531980179199
  0
LINE
  8
_0-0_
  6
CONTINUOUS
 62
    7
 10
282.27012326492763
 20
391.43531980179199
 11
283.77012326492763
 21
390.23872041667976
  0
LINE
  8
_0-0_
  6
CONTINUOUS
 62
    7
 10
283.77012326492763
 20
390.23872041667976
 11
282.27012326492763
 21
388.93368729662989
  0
LINE
  8
_0-0_
  6
CONTINUOUS
 62
    7
 10
282.27012326492763
 20
388.93368729662989
 11
283.77012326492763
 21
387.73708791151756
  0
LINE
  8
_0-0_
  6
CONTINUOUS
 62
    7
 10
283.77012326492763
 20
387.73708791151756
 11
282.27012326492763
 21
386.4320547914678
  0
LINE
  8
_0-0_
  6
CONTINUOUS
 62
    7
 10
282.27012326492763
 20
386.4320547914678
 11
283.77012326492763
 21
385.23545540635547
  0
LINE
  8
_0-0_
  6
CONTINUOUS
 62
    7
 10
283.77012326492763
 20
385.23545540635547
 11
282.27012326492763
 21
383.93042228630571
  0
LINE
  8
_0-0_
  6
CONTINUOUS
 62
    7
 10
282.27012326492763
 20
383.93042228630571
 11
283.77012326492763
 21
382.73382290119337
  0
LINE
  8
_0-0_
  6
CONTINUOUS
 62
    7
 10
283.77012326492763
 20
382.73382290119337
 11
282.27012326492763
 21
381.4287897811435
  0
LINE
  8
_0-0_
  6
CONTINUOUS
 62
    7
 10
282.27012326492763
 20
381.4287897811435
 11
283.77012326492763
 21
380.23219039603128
  0
LINE
  8
_0-0_
  6
CONTINUOUS
 62
    7
 10
283.77012326492763
 20
380.23219039603128
 11
282.27012326492763
 21
378.92715727598141
  0
LINE
  8
_0-0_
  6
CONTINUOUS
 62
    7
 10
282.27012326492763
 20
378.92715727598141
 11
283.77012326492763
 21
377.73055789086919
  0
LINE
  8
_0-0_
  6
CONTINUOUS
 62
    7
 10
282.27012326492763
 20
448.97286742052023
 11
283.77012326492763
 21
447.776268035408
  0
LINE
  8
_0-0_
  6
CONTINUOUS
 62
    7
 10
322.27012326492763
 20
449.16783430044057
 11
323.77012326492763
 21
447.8628011803907
  0
LINE
  8
_0-0_
  6
CONTINUOUS
 62
    7
 10
323.77012326492763
 20
447.8628011803907
 11
322.27012326492763
 21
446.66620179527848
  0
LINE
  8
_0-0_
  6
CONTINUOUS
 62
    7
 10
322.27012326492763
 20
446.66620179527848
 11
323.77012326492763
 21
445.36116867522861
  0
LINE
  8
_0-0_
  6
CONTINUOUS
 62
    7
 10
323.77012326492763
 20
445.36116867522861
 11
322.27012326492763
 21
444.16456929011638
  0
LINE
  8
_0-0_
  6
CONTINUOUS
 62
    7
 10
322.27012326492763
 20
444.16456929011638
 11
323.77012326492763
 21
442.85953617006651
  0
LINE
  8
_0-0_
  6
CONTINUOUS
 62
    7
 10
323.77012326492763
 20
442.85953617006651
 11
322.27012326492763
 21
441.66293678495429
  0
LINE
  8
_0-0_
  6
CONTINUOUS
 62
    7
 10
322.27012326492763
 20
441.66293678495418
 11
323.77012326492763
 21
440.35790366490442
  0
LINE
  8
_0-0_
  6
CONTINUOUS
 62
    7
 10
323.77012326492763
 20
440.35790366490442
 11
322.27012326492763
 21
439.16130427979209
  0
LINE
  8
_0-0_
  6
CONTINUOUS
 62
    7
 10
322.27012326492763
 20
439.16130427979209
 11
323.77012326492763
 21
437.85627115974222
  0
LINE
  8
_0-0_
  6
CONTINUOUS
 62
    7
 10
323.77012326492763
 20
437.85627115974222
 11
322.27012326492763
 21
436.65967177462999
  0
LINE
  8
_0-0_
  6
CONTINUOUS
 62
    7
 10
322.27012326492763
 20
436.65967177462999
 11
323.77012326492763
 21
435.35463865458012
  0
LINE
  8
_0-0_
  6
CONTINUOUS
 62
    7
 10
323.77012326492763
 20
435.35463865458012
 11
322.27012326492763
 21
434.1580392694679
  0
LINE
  8
_0-0_
  6
CONTINUOUS
 62
    7
 10
322.27012326492763
 20
434.1580392694679
 11
323.77012326492763
 21
432.85300614941803
  0
LINE
  8
_0-0_
  6
CONTINUOUS
 62
    7
 10
323.77012326492763
 20
432.85300614941803
 11
322.27012326492763
 21
431.65640676430581
  0
LINE
  8
_0-0_
  6
CONTINUOUS
 62
    7
 10
322.27012326492763
 20
431.6564067643057
 11
323.77012326492763
 21
430.35137364425594
  0
LINE
  8
_0-0_
  6
CONTINUOUS
 62
    7
 10
323.77012326492763
 20
430.35137364425594
 11
322.27012326492763
 21
429.1547742591436
  0
LINE
  8
_0-0_
  6
CONTINUOUS
 62
    7
 10
322.27012326492763
 20
429.1547742591436
 11
323.77012326492763
 21
427.84974113909373
  0
LINE
  8
_0-0_
  6
CONTINUOUS
 62
    7
 10
323.77012326492763
 20
427.84974113909373
 11
322.27012326492763
 21
426.65314175398151
  0
LINE
  8
_0-0_
  6
CONTINUOUS
 62
    7
 10
322.27012326492763
 20
426.65314175398151
 11
323.77012326492763
 21
425.34810863393164
  0
LINE
  8
_0-0_
  6
CONTINUOUS
 62
    7
 10
323.77012326492763
 20
425.34810863393164
 11
322.27012326492763
 21
424.15150924881942
  0
LINE
  8
_0-0_
  6
CONTINUOUS
 62
    7
 10
322.27012326492763
 20
424.15150924881942
 11
323.77012326492763
 21
422.84647612876955
  0
LINE
  8
_0-0_
  6
CONTINUOUS
 62
    7
 10
323.77012326492763
 20
422.84647612876955
 11
322.27012326492763
 21
421.64987674365733
  0
LINE
  8
_0-0_
  6
CONTINUOUS
 62
    7
 10
322.27012326492763
 20
421.64987674365733
 11
323.77012326492763
 21
420.34484362360745
  0
LINE
  8
_0-0_
  6
CONTINUOUS
 62
    7
 10
323.77012326492763
 20
420.34484362360745
 11
322.27012326492763
 21
419.14824423849512
  0
LINE
  8
_0-0_
  6
CONTINUOUS
 62
    7
 10
322.27012326492763
 20
419.14824423849512
 11
323.77012326492763
 21
417.84321111844525
  0
LINE
  8
_0-0_
  6
CONTINUOUS
 62
    7
 10
323.77012326492763
 20
417.84321111844525
 11
322.27012326492763
 21
416.64661173333303
  0
LINE
  8
_0-0_
  6
CONTINUOUS
 62
    7
 10
322.27012326492763
 20
416.64661173333303
 11
323.77012326492763
 21
415.34157861328316
  0
LINE
  8
_0-0_
  6
CONTINUOUS
 62
    7
 10
323.77012326492763
 20
415.34157861328316
 11
322.27012326492763
 21
414.14497922817093
  0
LINE
  8
_0-0_
  6
CONTINUOUS
 62
    7
 10
322.27012326492763
 20
414.14497922817093
 11
323.77012326492763
 21
412.83994610812106
  0
LINE
  8
_0-0_
  6
CONTINUOUS
 62
    7
 10
323.77012326492763
 20
412.83994610812106
 11
322.27012326492763
 21
411.64334672300884
  0
LINE
  8
_0-0_
  6
CONTINUOUS
 62
    7
 10
322.27012326492763
 20
396.63355169203606
 11
323.77012326492763
 21
395.32851857198619
  0
LINE
  8
_0-0_
  6
CONTINUOUS
 62
    7
 10
323.77012326492763
 20
395.32851857198619
 11
322.27012326492763
 21
394.13191918687397
  0
LINE
  8
_0-0_
  6
CONTINUOUS
 62
    7
 10
322.27012326492763
 20
394.13191918687397
 11
323.77012326492763
 21
392.8268860668241
  0
LINE
  8
_0-0_
  6
CONTINUOUS
 62
    7
 10
323.77012326492763
 20
392.8268860668241
 11
322.27012326492763
 21
391.63028668171187
  0
LINE
  8
_0-0_
  6
CONTINUOUS
 62
    7
 10
322.27012326492763
 20
391.63028668171176
 11
323.77012326492763
 21
390.325253561662
  0
LINE
  8
_0-0_
  6
CONTINUOUS
 62
    7
 10
323.77012326492763
 20
390.325253561662
 11
322.27012326492763
 21
389.12865417654967
  0
LINE
  8
_0-0_
  6
CONTINUOUS
 62
    7
 10
322.27012326492763
 20
389.12865417654967
 11
323.77012326492763
 21
387.8236210564998
  0
LINE
  8
_0-0_
  6
CONTINUOUS
 62
    7
 10
323.77012326492763
 20
387.8236210564998
 11
322.27012326492763
 21
386.62702167138758
  0
LINE
  8
_0-0_
  6
CONTINUOUS
 62
    7
 10
322.27012326492763
 20
386.62702167138758
 11
323.77012326492763
 21
385.32198855133771
  0
LINE
  8
_0-0_
  6
CONTINUOUS
 62
    7
 10
323.77012326492763
 20
385.32198855133771
 11
322.27012326492763
 21
384.12538916622548
  0
LINE
  8
_0-0_
  6
CONTINUOUS
 62
    7
 10
322.27012326492763
 20
384.12538916622548
 11
323.77012326492763
 21
382.82035604617561
  0
LINE
  8
_0-0_
  6
CONTINUOUS
 62
    7
 10
323.77012326492763
 20
382.82035604617561
 11
322.27012326492763
 21
381.62375666106339
  0
LINE
  8
_0-0_
  6
CONTINUOUS
 62
    7
 10
322.27012326492763
 20
381.62375666106328
 11
323.77012326492763
 21
380.31872354101352
  0
LINE
  8
_0-0_
  6
CONTINUOUS
 62
    7
 10
323.77012326492763
 20
380.31872354101352
 11
322.27012326492763
 21
379.12212415590119
  0
LINE
  8
_0-0_
  6
CONTINUOUS
 62
    7
 10
322.27012326492763
 20
379.12212415590119
 11
323.77012326492763
 21
377.81709103585131
  0
LINE
  8
_0-0_
  6
CONTINUOUS
 62
    7
 10
322.27012326492763
 20
449.16783430044057
 11
283.77012326492763
 21
447.776268035408
  0
LINE
  8
_0-0_
  6
CONTINUOUS
 62
    7
 10
322.27012326492763
 20
379.1221241559013
 11
283.77012326492763
 21
377.73055789086873
  0
LINE
  8
_0-0_
  6
CONTINUOUS
 62
    7
 10
322.27012326492763
 20
381.62375666106339
 11
283.77012326492763
 21
380.23219039603083
  0
LINE
  8
_0-0_
  6
CONTINUOUS
 62
    7
 10
322.27012326492763
 20
384.12538916622548
 11
283.77012326492763
 21
382.73382290119292
  0
LINE
  8
_0-0_
  6
CONTINUOUS
 62
    7
 10
322.27012326492763
 20
386.62702167138758
 11
283.77012326492763
 21
385.23545540635501
  0
LINE
  8
_0-0_
  6
CONTINUOUS
 62
    7
 10
322.27012326492763
 20
389.12865417654978
 11
283.77012326492763
 21
387.7370879115171
  0
LINE
  8
_0-0_
  6
CONTINUOUS
 62
    7
 10
322.27012326492763
 20
391.63028668171187
 11
283.77012326492763
 21
390.23872041667931
  0
LINE
  8
_0-0_
  6
CONTINUOUS
 62
    7
 10
322.27012326492763
 20
394.13191918687397
 11
283.77012326492763
 21
392.7403529218414
  0
LINE
  8
_0-0_
  6
CONTINUOUS
 62
    7
 10
322.27012326492763
 20
396.63355169203606
 11
283.77012326492763
 21
395.24198542700349
  0
LINE
  8
_0-0_
  6
CONTINUOUS
 62
    7
 10
322.27012326492763
 20
414.14497922817093
 11
283.77012326492763
 21
412.75341296313837
  0
LINE
  8
_0-0_
  6
CONTINUOUS
 62
    7
 10
322.27012326492763
 20
416.64661173333303
 11
283.77012326492763
 21
415.25504546830046
  0
LINE
  8
_0-0_
  6
CONTINUOUS
 62
    7
 10
322.27012326492763
 20
419.14824423849512
 11
283.77012326492763
 21
417.75667797346255
  0
LINE
  8
_0-0_
  6
CONTINUOUS
 62
    7
 10
322.27012326492763
 20
421.64987674365721
 11
283.77012326492763
 21
420.25831047862465
  0
LINE
  8
_0-0_
  6
CONTINUOUS
 62
    7
 10
322.27012326492763
 20
424.15150924881942
 11
283.77012326492763
 21
422.75994298378685
  0
LINE
  8
_0-0_
  6
CONTINUOUS
 62
    7
 10
322.27012326492763
 20
426.65314175398151
 11
283.77012326492763
 21
425.26157548894894
  0
LINE
  8
_0-0_
  6
CONTINUOUS
 62
    7
 10
322.27012326492763
 20
429.1547742591436
 11
283.77012326492763
 21
427.76320799411104
  0
LINE
  8
_0-0_
  6
CONTINUOUS
 62
    7
 10
322.27012326492763
 20
431.6564067643057
 11
283.77012326492763
 21
430.26484049927313
  0
LINE
  8
_0-0_
  6
CONTINUOUS
 62
    7
 10
322.27012326492763
 20
434.15803926946779
 11
283.77012326492763
 21
432.76647300443522
  0
LINE
  8
_0-0_
  6
CONTINUOUS
 62
    7
 10
322.27012326492763
 20
436.65967177462999
 11
283.77012326492763
 21
435.26810550959731
  0
LINE
  8
_0-0_
  6
CONTINUOUS
 62
    7
 10
322.27012326492763
 20
439.16130427979209
 11
283.77012326492763
 21
437.76973801475941
  0
LINE
  8
_0-0_
  6
CONTINUOUS
 62
    7
 10
322.27012326492763
 20
441.66293678495429
 11
283.77012326492763
 21
440.27137051992173
  0
LINE
  8
_0-0_
  6
CONTINUOUS
 62
    7
 10
322.27012326492763
 20
444.16456929011638
 11
283.77012326492763
 21
442.77300302508382
  0
LINE
  8
_0-0_
  6
CONTINUOUS
 62
    7
 10
322.27012326492763
 20
446.66620179527848
 11
283.77012326492763
 21
445.27463553024591
  0
LINE
  8
_0-0_
  6
CONTINUOUS
 62
    7
 10
282.27012326492763
 20
449.93109292406262
 11
323.77012326492763
 21
449.93109292406262
  0
LINE
  8
_0-0_
  6
CONTINUOUS
 62
    7
 10
283.37150393736499
 20
449.93109292406262
 11
282.27012326492763
 21
448.97286742052023
  0
LINE
  8
_0-0_
  6
CONTINUOUS
 62
    7
 10
323.22690792458683
 20
449.93109292406262
 11
322.27012326492763
 21
449.16783430044057
  0
LINE
  8
_0-0_
  6
CONTINUOUS
 62
    4
 10
282.27012326492763
 20
446.47123491535813
 11
323.77012326492763
 21
447.8628011803907
  0
LINE
  8
_0-0_
  6
CONTINUOUS
 62
    4
 10
282.27012326492763
 20
448.97286742052023
 11
308.78102886346016
 21
449.93109292406262
  0
LINE
  8
_0-0_
  6
CONTINUOUS
 62
    4
 10
282.27012326492763
 20
443.96960241019604
 11
323.77012326492763
 21
445.36116867522861
  0
LINE
  8
_0-0_
  6
CONTINUOUS
 62
    4
 10
282.27012326492763
 20
441.46796990503395
 11
323.77012326492763
 21
442.85953617006651
  0
LINE
  8
_0-0_
  6
CONTINUOUS
 62
    4
 10
282.27012326492763
 20
438.96633739987186
 11
323.77012326492763
 21
440.35790366490442
  0
LINE
  8
_0-0_
  6
CONTINUOUS
 62
    4
 10
282.27012326492763
 20
436.46470489470976
 11
323.77012326492763
 21
437.85627115974233
  0
LINE
  8
_0-0_
  6
CONTINUOUS
 62
    4
 10
282.27012326492763
 20
433.96307238954767
 11
323.77012326492763
 21
435.35463865458024
  0
LINE
  8
_0-0_
  6
CONTINUOUS
 62
    4
 10
282.27012326492763
 20
431.46143988438558
 11
323.77012326492763
 21
432.85300614941814
  0
LINE
  8
_0-0_
  6
CONTINUOUS
 62
    4
 10
282.27012326492763
 20
428.95980737922349
 11
323.77012326492763
 21
430.35137364425605
  0
LINE
  8
_0-0_
  6
CONTINUOUS
 62
    4
 10
282.27012326492763
 20
426.45817487406139
 11
323.77012326492763
 21
427.84974113909396
  0
LINE
  8
_0-0_
  6
CONTINUOUS
 62
    4
 10
282.27012326492763
 20
423.95654236889919
 11
323.77012326492763
 21
425.34810863393187
  0
LINE
  8
_0-0_
  6
CONTINUOUS
 62
    4
 10
282.27012326492763
 20
421.45490986373721
 11
323.77012326492763
 21
422.84647612876977
  0
LINE
  8
_0-0_
  6
CONTINUOUS
 62
    4
 10
282.27012326492763
 20
418.953277358575
 11
323.77012326492763
 21
420.34484362360768
  0
LINE
  8
_0-0_
  6
CONTINUOUS
 62
    4
 10
282.27012326492763
 20
416.45164485341291
 11
323.77012326492763
 21
417.84321111844559
  0
LINE
  8
_0-0_
  6
CONTINUOUS
 62
    4
 10
282.27012326492763
 20
413.95001234825082
 11
323.77012326492763
 21
415.3415786132835
  0
LINE
  8
_0-0_
  6
CONTINUOUS
 62
    4
 10
282.27012326492763
 20
393.93695230695408
 11
323.77012326492763
 21
395.32851857198664
  0
LINE
  8
_0-0_
  6
CONTINUOUS
 62
    4
 10
282.27012326492763
 20
391.43531980179199
 11
323.77012326492763
 21
392.82688606682455
  0
LINE
  8
_0-0_
  6
CONTINUOUS
 62
    4
 10
282.27012326492763
 20
388.93368729662989
 11
323.77012326492763
 21
390.32525356166246
  0
LINE
  8
_0-0_
  6
CONTINUOUS
 62
    4
 10
282.27012326492763
 20
386.4320547914678
 11
323.77012326492763
 21
387.82362105650037
  0
LINE
  8
_0-0_
  6
CONTINUOUS
 62
    4
 10
282.27012326492763
 20
383.93042228630571
 11
323.77012326492763
 21
385.32198855133827
  0
LINE
  8
_0-0_
  6
CONTINUOUS
 62
    4
 10
282.27012326492763
 20
381.4287897811435
 11
323.77012326492763
 21
382.82035604617618
  0
LINE
  8
_0-0_
  6
CONTINUOUS
 62
    4
 10
282.27012326492763
 20
378.92715727598141
 11
323.77012326492763
 21
380.31872354101409
  0
LINE
  8
_0-0_
  6
CONTINUOUS
 62
    7
 10
273.02012326492757
 20
402.93109292406262
 11
333.02012326492763
 21
402.93109292406262
  0
LINE
  8
_0-0_
  6
CONTINUOUS
 62
    7
 10
272.02012326492757
 20
408.46271797807816
 11
272.02012326492757
 21
405.93109292406262
  0
ARC
  8
_0-0_
  6
CONTINUOUS
 62
    7
 10
273.02012326492757
 20
408.46271797807816
 40
1
 50
129.80557109226521
 51
180
  0
LINE
  8
_0-0_
  6
CONTINUOUS
 62
    7
 10
334.02012326492763
 20
408.46271797807816
 11
334.02012326492763
 21
405.93109292406262
  0
LINE
  8
_0-0_
  6
CONTINUOUS
 62
    7
 10
272.02012326492757
 20
405.93109292406262
 11
334.02012326492763
 21
405.93109292406262
  0
ARC
  8
_0-0_
  6
CONTINUOUS
 62
    7
 10
330.65807332974634
 20
410.43109292406262
 40
1
 50
50.194428907734874
 51
90.000000000000056
  0
LINE
  8
_0-0_
  6
CONTINUOUS
 62
    7
 10
333.66030766459209
 20
409.23093925767551
 11
331.2982577294108
 21
411.19931420365998
  0
ARC
  8
_0-0_
  6
CONTINUOUS
 62
    7
 10
333.02012326492763
 20
408.46271797807816
 40
1
 50
0
 51
50.194428907734796
  0
LINE
  8
_0-0_
  6
CONTINUOUS
 62
    7
 10
272.37993886526311
 20
409.23093925767551
 11
274.74198880044446
 21
411.19931420365998
  0
LINE
  8
_0-0_
  6
CONTINUOUS
 62
    7
 10
330.65807332974634
 20
411.43109292406262
 11
275.38217320010903
 21
411.43109292406262
  0
ARC
  8
_0-0_
  6
CONTINUOUS
 62
    7
 10
275.38217320010903
 20
410.43109292406262
 40
1
 50
90
 51
129.80557109226512
  0
LINE
  8
_0-0_
  6
CONTINUOUS
 62
    7
 10
273.02012326492757
 20
405.93109292406262
 11
273.02012326492757
 21
402.93109292406262
  0
LINE
  8
_0-0_
  6
CONTINUOUS
 62
    7
 10
333.02012326492763
 20
405.93109292406262
 11
333.02012326492763
 21
402.93109292406262
  0
LINE
  8
_0-0_
  6
CONTINUOUS
 62
    4
 10
303.02012326492763
 20
402.93109292406262
 11
303.02012326492763
 21
396.93109292406262
  0
LINE
  8
_0-0_
  6
CONTINUOUS
 62
    7
 10
280.27012326492763
 20
402.93109292406262
 11
280.27012326492763
 21
396.93109292406262
  0
LINE
  8
_0-0_
  6
CONTINUOUS
 62
    7
 10
280.27012326492763
 20
396.93109292406262
 11
325.77012326492763
 21
396.93109292406262
  0
LINE
  8
_0-0_
  6
CONTINUOUS
 62
    7
 10
325.77012326492763
 20
402.93109292406262
 11
325.77012326492763
 21
396.93109292406262
  0
LINE
  8
_0-0_
  6
CONTINUOUS
 62
    7
 10
322.64310678271374
 20
396.93109292406262
 11
322.27012326492763
 21
396.63355169203606
  0
LINE
  8
_0-0_
  6
CONTINUOUS
 62
    4
 10
282.27012326492763
 20
396.43858481211617
 11
296.95795176391743
 21
396.93109292406262
  0
LINE
  8
_0-0_
  6
CONTINUOUS
 62
    7
 10
282.83621017611005
 20
396.93109292406262
 11
282.27012326492763
 21
396.43858481211617
  0
LINE
  8
_0-0_
  6
CONTINUOUS
 62
    7
 10
282.27012326492763
 20
411.44837984308873
 11
282.29179332331295
 21
411.43109292406262
  0
LINE
  8
_0-0_
  6
CONTINUOUS
 62
    7
 10
322.27012326492763
 20
411.64334672300884
 11
316.39776816063277
 21
411.43109292406262
  0
LINE
  8
_0-0_
  6
CONTINUOUS
 62
    7
 10
322.27012326492763
 20
411.64334672300884
 11
322.51408695713428
 21
411.43109292406262
  0
LINE
  8
_0-0_
  6
CONTINUOUS
 62
    7
 10
282.27012326492763
 20
467.43109292406262
 11
282.27012326492763
 21
449.93109292406262
  0
LINE
  8
_0-0_
  6
CONTINUOUS
 62
    7
 10
323.77012326492763
 20
467.43109292406262
 11
323.77012326492763
 21
449.93109292406262
  0
LINE
  8
_0-0_
  6
DASHED1
 62
    4
 10
282.27012326492763
 20
473.43109292406262
 11
282.27012326492763
 21
467.43109292406262
  0
LINE
  8
_0-0_
  6
DASHED1
 62
    4
 10
323.77012326492763
 20
467.43109292406262
 11
323.77012326492763
 21
473.43109292406262
  0
LINE
  8
_0-0_
  6
CONTINUOUS
 62
    7
 10
283.77012326492763
 20
377.73055789086919
 11
283.42591939507281
 21
377.43109292406262
  0
LINE
  8
_0-0_
  6
CONTINUOUS
 62
    7
 10
323.02012326492763
 20
376.43109292406262
 11
282.98956920227828
 21
376.43109292406262
  0
LINE
  8
_0-0_
  6
CONTINUOUS
 62
    7
 10
323.02012326492763
 20
377.43109292406262
 11
323.02012326492763
 21
376.43109292406262
  0
LINE
  8
_0-0_
  6
CONTINUOUS
 62
    4
 10
312.25869039841029
 20
377.43109292406262
 11
323.77012326492695
 21
377.81709103585131
  0
LINE
  8
_0-0_
  6
CONTINUOUS
 62
    7
 10
323.77012326492763
 20
377.81709103585131
 11
323.28625441551423
 21
377.43109292406262
  0
LINE
  8
_0-0_
  6
CONTINUOUS
 62
    4
 10
339.02012448113475
 20
518.61626519660489
 11
267.0201244811347
 21
518.61626519660489
  0
LINE
  8
_0-0_
  6
CONTINUOUS
 62
    7
 10
267.02012326492757
 20
486.63109292406267
 11
267.02012326492757
 21
486.86183738256687
  0
ARC
  8
_0-0_
  6
CONTINUOUS
 62
    7
 10
267.22012326492762
 20
486.63109292406267
 40
0.2
 50
180
 51
270
  0
LINE
  8
_0-0_
  6
CONTINUOUS
 62
    7
 10
339.02012326492763
 20
486.63109292406267
 11
339.02012326492763
 21
486.86183738256687
  0
ARC
  8
_0-0_
  6
CONTINUOUS
 62
    7
 10
338.8201232649277
 20
486.63109292406267
 40
0.2
 50
270
 51
0
  0
LINE
  8
_0-0_
  6
CONTINUOUS
 62
    7
 10
267.22012326492762
 20
486.43109292406262
 11
338.8201232649277
 21
486.43109292406262
  0
ARC
  8
_0-0_
  6
CONTINUOUS
 62
    7
 10
268.02012326492757
 20
486.79207772651244
 40
1
 50
114.62431835216359
 51
180.00000000000036
  0
ARC
  8
_0-0_
  6
CONTINUOUS
 62
    7
 10
303.02012326492763
 20
410.43109292406262
 40
84.999999999999957
 50
65.375681647835918
 51
114.62431835216406
  0
ARC
  8
_0-0_
  6
CONTINUOUS
 62
    7
 10
338.02012326492763
 20
486.79207772651244
 40
1
 50
0.0000000000004071
 51
65.375681647835662
  0
LINE
  8
_0-0_
  6
CONTINUOUS
 62
    7
 10
267.0201244811347
 20
518.61626519660489
 11
269.91790196000187
 21
519.3927223319124
  0
LINE
  8
_0-0_
  6
CONTINUOUS
 62
    7
 10
267.0201244811347
 20
518.61626519660489
 11
269.91790196000187
 21
517.83980806129738
  0
LINE
  8
_0-0_
  6
CONTINUOUS
 62
    7
 10
339.02012448113475
 20
518.61626519660489
 11
336.12234700226747
 21
517.83980806129738
  0
LINE
  8
_0-0_
  6
CONTINUOUS
 62
    7
 10
339.02012448113475
 20
518.61626519660489
 11
336.12234700226747
 21
519.3927223319124
  0
LINE
  8
_0-0_
  6
CONTINUOUS
 62
    4
 10
267.0201244811347
 20
488.70535034679829
 11
267.0201244811347
 21
518.61626519660489
  0
LINE
  8
_0-0_
  6
CONTINUOUS
 62
    4
 10
339.02012448113475
 20
488.70535034679829
 11
339.02012448113475
 21
518.61626519660489
  0
LINE
  8
_0-0_
  6
CONTINUOUS
 62
    4
 10
242.90449744288773
 20
477.43109292406262
 11
242.90449744288773
 21
377.43109292406262
  0
LINE
  8
_0-0_
  6
CONTINUOUS
 62
    7
 10
242.90449744288773
 20
477.43109292406262
 11
243.68095457819524
 21
474.53331544519534
  0
LINE
  8
_0-0_
  6
CONTINUOUS
 62
    7
 10
242.90449744288773
 20
477.43109292406262
 11
242.12804030758022
 21
474.53331544519534
  0
LINE
  8
_0-0_
  6
CONTINUOUS
 62
    7
 10
242.90449744288773
 20
377.43109292406262
 11
242.1280403075801
 21
380.32887040292979
  0
LINE
  8
_0-0_
  6
CONTINUOUS
 62
    7
 10
242.90449744288773
 20
377.43109292406262
 11
243.68095457819524
 21
380.32887040292979
  0
LINE
  8
_0-0_
  6
CONTINUOUS
 62
    4
 10
242.90449744288773
 20
377.43109292406262
 11
272.27012326492757
 21
377.43109292406262
  0
LINE
  8
_0-0_
  6
CONTINUOUS
 62
    7
 10
282.98956920227828
 20
377.43109292406262
 11
282.98956920227828
 21
376.43109292406262
  0
LINE
  8
_0-0_
  6
CONTINUOUS
 62
    7
 10
282.98956920227828
 20
377.43109292406262
 11
323.28625441551423
 21
377.43109292406262
  0
LINE
  8
_0-0_
  6
CONTINUOUS
 62
    4
 10
254.09024022982438
 20
476.43109292406262
 11
254.09024022982438
 21
411.43109292406262
  0
LINE
  8
_0-0_
  6
CONTINUOUS
 62
    7
 10
254.09024022982438
 20
476.43109292406262
 11
254.86669736513195
 21
473.53331544519534
  0
LINE
  8
_0-0_
  6
CONTINUOUS
 62
    7
 10
254.09024022982438
 20
476.43109292406262
 11
253.31378309451682
 21
473.53331544519534
  0
LINE
  8
_0-0_
  6
CONTINUOUS
 62
    7
 10
254.09024022982438
 20
411.43109292406262
 11
253.31378309451682
 21
414.32887040292979
  0
LINE
  8
_0-0_
  6
CONTINUOUS
 62
    7
 10
254.09024022982438
 20
411.43109292406262
 11
254.86669736513195
 21
414.32887040292979
  0
LINE
  8
_0-0_
  6
CONTINUOUS
 62
    4
 10
254.09024022982438
 20
411.43109292406262
 11
272.27012326492757
 21
411.43109292406262
  0
TEXT
  8
_0-0_
 62
    7
 10
266.02012326492763
 20
356.37602142310532
 40
4
 41
1
 50
0
  1
JORGER製 排水金具 クロームメッキ100㎜
  0
LINE
  8
_0-0_
  6
CONTINUOUS
 62
    7
 10
264.52012326492751
 20
361.87602142310532
 11
341.52012326492763
 21
361.87602142310532
  0
LINE
  8
_0-0_
  6
CONTINUOUS
 62
    7
 10
341.52012326492763
 20
354.87602142310532
 11
341.52012326492763
 21
361.87602142310532
  0
LINE
  8
_0-0_
  6
CONTINUOUS
 62
    7
 10
264.52012326492751
 20
354.87602142310532
 11
341.52012326492763
 21
354.87602142310532
  0
LINE
  8
_0-0_
  6
CONTINUOUS
 62
    7
 10
264.52012326492751
 20
361.87602142310532
 11
264.52012326492751
 21
354.87602142310532
  0
ARC
  8
_0-0_
  6
CONTINUOUS
 62
    7
 10
271.02012326492763
 20
476.93109292406262
 40
0.5
 50
90
 51
270
  0
LINE
  8
_0-0_
  6
CONTINUOUS
 62
    7
 10
271.02012326492763
 20
476.43109292406262
 11
282.27012326492763
 21
473.43109292406262
  0
LINE
  8
_0-0_
  6
CONTINUOUS
 62
    7
 10
335.02012326492763
 20
476.43109292406262
 11
323.77012326492763
 21
473.43109292406262
  0
LINE
  8
_0-0_
  6
CONTINUOUS
 62
    7
 10
271.02012326492763
 20
477.43109292406262
 11
335.02012326492763
 21
477.43109292406262
  0
LINE
  8
_0-0_
  6
CONTINUOUS
 62
    7
 10
271.02012326492763
 20
476.43109292406262
 11
335.02012326492763
 21
476.43109292406262
  0
ARC
  8
_0-0_
  6
CONTINUOUS
 62
    7
 10
335.02012326492763
 20
476.93109292406262
 40
0.5
 50
270
 51
90
  0
LINE
  8
_0-0_
  6
CONTINUOUS
 62
    4
 10
242.90449744288773
 20
477.43109292406262
 11
271.02012326492763
 21
477.43109292406262
  0
LINE
  8
_0-0_
  6
CONTINUOUS
 62
    4
 10
254.09024022982438
 20
476.43109292406262
 11
271.02012326492763
 21
476.43109292406262
  0
LINE
  8
_0-0_
  6
CENTER1
 62
    4
 10
303.02012326492763
 20
512.72252617198478
 11
303.02012326492763
 21
365.23745952209532
  0
LINE
  8
_0-0_
  6
CONTINUOUS
 62
    7
 10
443
 20
319.6450268583988
 11
398
 21
319.6450268583988
  0
LINE
  8
_0-0_
  6
CONTINUOUS
 62
    7
 10
398
 20
319.6450268583988
 11
398
 21
312.6450268583988
  0
LINE
  8
_0-0_
  6
CONTINUOUS
 62
    7
 10
398
 20
312.6450268583988
 11
443
 21
312.6450268583988
  0
LINE
  8
_0-0_
  6
CONTINUOUS
 62
    7
 10
443
 20
312.6450268583988
 11
443
 21
319.6450268583988
  0
CIRCLE
  8
_0-0_
  6
CONTINUOUS
 62
    7
 10
420.5
 20
357.60558199727694
 40
30
  0
CIRCLE
  8
_0-0_
  6
CONTINUOUS
 62
    7
 10
420.5
 20
357.60558199727694
 40
20
  0
CIRCLE
  8
_0-0_
  6
CONTINUOUS
 62
    4
 10
420.5
 20
357.60558199727694
 40
21
  0
LINE
  8
_0-0_
  6
CONTINUOUS
 62
    7
 10
443
 20
436.23382151376637
 11
398
 21
436.23382151376637
  0
LINE
  8
_0-0_
  6
CONTINUOUS
 62
    7
 10
398
 20
436.23382151376637
 11
398
 21
429.23382151376637
  0
LINE
  8
_0-0_
  6
CONTINUOUS
 62
    7
 10
398
 20
429.23382151376637
 11
443
 21
429.23382151376637
  0
LINE
  8
_0-0_
  6
CONTINUOUS
 62
    7
 10
443
 20
429.23382151376637
 11
443
 21
436.23382151376637
  0
CIRCLE
  8
_0-0_
  6
CONTINUOUS
 62
    7
 10
420.5
 20
474.1943766526445
 40
31
  0
CIRCLE
  8
_0-0_
  6
CONTINUOUS
 62
    4
 10
420.5
 20
474.1943766526445
 40
28
  0
LINE
  8
_0-0_
  6
CONTINUOUS
 62
    7
 10
436.36917389947734
 20
459.6885392156625
 11
435.47755948300925
 21
460.20331303902361
  0
LINE
  8
_0-0_
  6
CONTINUOUS
 62
    7
 10
435.00583743698211
 20
458.32520275316727
 11
434.49106361362089
 21
459.21681716963536
  0
ARC
  8
_0-0_
  6
CONTINUOUS
 62
    7
 10
437.45676175305163
 20
457.23761489959298
 40
3.565474313462841
 50
123.71774729193272
 51
146.28225270806731
  0
LINE
  8
_0-0_
  6
CONTINUOUS
 62
    7
 10
405.99416256301799
 20
490.06355055212185
 11
406.5089363863791
 21
489.17193613565365
  0
LINE
  8
_0-0_
  6
CONTINUOUS
 62
    7
 10
404.63082610052276
 20
488.70021408962662
 11
405.52244051699085
 21
488.18544026626528
  0
ARC
  8
_0-0_
  6
CONTINUOUS
 62
    7
 10
403.54323824694847
 20
491.15113840569603
 40
3.565474313462841
 50
303.71774729193271
 51
326.28225270806723
  0
LINE
  8
_0-0_
  6
CONTINUOUS
 62
    7
 10
405.99416256301799
 20
458.32520275316727
 11
406.50893638637921
 21
459.21681716963536
  0
LINE
  8
_0-0_
  6
CONTINUOUS
 62
    7
 10
404.63082610052276
 20
459.68853921566238
 11
405.52244051699085
 21
460.20331303902361
  0
ARC
  8
_0-0_
  6
CONTINUOUS
 62
    7
 10
403.54323824694847
 20
457.23761489959298
 40
3.565474313462841
 50
33.717747291932717
 51
56.282252708067289
  0
LINE
  8
_0-0_
  6
CONTINUOUS
 62
    7
 10
436.36917389947723
 20
488.70021408962639
 11
435.47755948300914
 21
488.18544026626528
  0
LINE
  8
_0-0_
  6
CONTINUOUS
 62
    7
 10
435.005837436982
 20
490.06355055212162
 11
434.49106361362089
 21
489.17193613565365
  0
ARC
  8
_0-0_
  6
CONTINUOUS
 62
    7
 10
437.45676175305152
 20
491.15113840569603
 40
3.565474313462841
 50
213.71774729193279
 51
236.2822527080674
  0
ARC
  8
_0-0_
  6
CONTINUOUS
 62
    7
 10
420.5
 20
474.1943766526445
 40
21.5
 50
227.5699096511245
 51
312.43009034887586
  0
ARC
  8
_0-0_
  6
CONTINUOUS
 62
    7
 10
420.5
 20
474.1943766526445
 40
21.5
 50
317.56990965112441
 51
42.430090348875658
  0
ARC
  8
_0-0_
  6
CONTINUOUS
 62
    7
 10
420.5
 20
474.1943766526445
 40
21.5
 50
137.56990965112424
 51
222.43009034887566
  0
ARC
  8
_0-0_
  6
CONTINUOUS
 62
    7
 10
420.5
 20
474.1943766526445
 40
21.5
 50
47.569909651124497
 51
132.43009034887543
  0
LINE
  8
_0-0_
  6
CONTINUOUS
 62
    4
 10
420.5
 20
513.20701655823677
 11
420.5
 21
516.78871165505552
  0
LINE
  8
_0-0_
  6
CONTINUOUS
 62
    7
 10
389.5
 20
516.20701655823677
 11
451.5
 21
516.20701655823677
  0
LINE
  8
_0-0_
  6
CONTINUOUS
 62
    7
 10
389.5
 20
518.73864161225219
 11
389.5
 21
516.20701655823677
  0
ARC
  8
_0-0_
  6
CONTINUOUS
 62
    7
 10
390.5
 20
518.73864161225219
 40
1
 50
129.80557109226521
 51
180
  0
LINE
  8
_0-0_
  6
CONTINUOUS
 62
    7
 10
451.5
 20
518.73864161225219
 11
451.5
 21
516.20701655823677
  0
ARC
  8
_0-0_
  6
CONTINUOUS
 62
    7
 10
448.13795006481859
 20
520.70701655823677
 40
1
 50
50.194428907734874
 51
90.000000000000056
  0
LINE
  8
_0-0_
  6
CONTINUOUS
 62
    7
 10
451.14018439966446
 20
519.50686289184955
 11
448.77813446448317
 21
521.47523783783412
  0
ARC
  8
_0-0_
  6
CONTINUOUS
 62
    7
 10
450.5
 20
518.73864161225219
 40
1
 50
0
 51
50.194428907734796
  0
LINE
  8
_0-0_
  6
CONTINUOUS
 62
    7
 10
389.85981560033542
 20
519.50686289184955
 11
392.22186553551682
 21
521.47523783783412
  0
LINE
  8
_0-0_
  6
CONTINUOUS
 62
    7
 10
448.13795006481859
 20
521.70701655823677
 11
392.8620499351814
 21
521.70701655823677
  0
ARC
  8
_0-0_
  6
CONTINUOUS
 62
    7
 10
392.8620499351814
 20
520.70701655823677
 40
1
 50
90
 51
129.80557109226512
  0
LINE
  8
_0-0_
  6
DASHED1
 62
    4
 10
399
 20
516.20701655823677
 11
399
 21
521.70701655823677
  0
LINE
  8
_0-0_
  6
DASHED1
 62
    4
 10
442
 20
516.20701655823677
 11
442
 21
521.70701655823677
  0
LINE
  8
_0-0_
  6
CONTINUOUS
 62
    4
 10
451.49999963757318
 20
536.70701655823677
 11
389.49999963757318
 21
536.70701655823677
  0
LINE
  8
_0-0_
  6
CONTINUOUS
 62
    7
 10
451.49999963757318
 20
536.70701655823677
 11
448.60222215870589
 21
535.93055942292903
  0
LINE
  8
_0-0_
  6
CONTINUOUS
 62
    7
 10
451.49999963757318
 20
536.70701655823677
 11
448.60222215870589
 21
537.48347369354428
  0
LINE
  8
_0-0_
  6
CONTINUOUS
 62
    7
 10
389.49999963757318
 20
536.70701655823677
 11
392.39777711644035
 21
537.48347369354428
  0
LINE
  8
_0-0_
  6
CONTINUOUS
 62
    7
 10
389.49999963757318
 20
536.70701655823677
 11
392.39777711644035
 21
535.93055942292903
  0
LINE
  8
_0-0_
  6
CONTINUOUS
 62
    4
 10
451.49999963757318
 20
521.70701655823677
 11
451.49999963757318
 21
536.70701655823677
  0
LINE
  8
_0-0_
  6
CONTINUOUS
 62
    4
 10
389.49999963757318
 20
521.70701655823677
 11
389.49999963757318
 21
536.70701655823677
  0
LINE
  8
_0-0_
  6
CENTER1
 62
    4
 10
420.5
 20
531.82748865519783
 11
420.5
 21
439.39981701169011
  0
LINE
  8
_0-0_
  6
CONTINUOUS
 62
    7
 10
390.5
 20
400.76096251857762
 11
450.5
 21
400.76096251857762
  0
LINE
  8
_0-0_
  6
CONTINUOUS
 62
    7
 10
390.5
 20
403.76096251857762
 11
390.5
 21
400.76096251857762
  0
LINE
  8
_0-0_
  6
CONTINUOUS
 62
    7
 10
450.5
 20
403.76096251857762
 11
450.5
 21
400.76096251857762
  0
LINE
  8
_0-0_
  6
CONTINUOUS
 62
    4
 10
420.5
 20
400.76096251857762
 11
420.5
 21
394.76096251857762
  0
LINE
  8
_0-0_
  6
CONTINUOUS
 62
    7
 10
397.75
 20
400.76096251857762
 11
397.75
 21
394.76096251857762
  0
LINE
  8
_0-0_
  6
CONTINUOUS
 62
    7
 10
397.75
 20
394.76096251857762
 11
443.25
 21
394.76096251857762
  0
LINE
  8
_0-0_
  6
CONTINUOUS
 62
    7
 10
443.25
 20
400.76096251857762
 11
443.25
 21
394.76096251857762
  0
LINE
  8
_0-0_
  6
CONTINUOUS
 62
    7
 10
390.5
 20
403.76096251857762
 11
450.5
 21
403.76096251857762
  0
LINE
  8
_0-0_
  6
DASHED1
 62
    4
 10
440.5
 20
394.76096251857762
 11
440.5
 21
403.76096251857762
  0
LINE
  8
_0-0_
  6
DASHED1
 62
    4
 10
400.5
 20
394.76096251857762
 11
400.5
 21
403.76096251857762
  0
LINE
  8
_0-0_
  6
CONTINUOUS
 62
    4
 10
450.49999963757318
 20
418.76096251857762
 11
390.49999963757318
 21
418.76096251857762
  0
LINE
  8
_0-0_
  6
CONTINUOUS
 62
    7
 10
450.49999963757318
 20
418.76096251857762
 11
447.60222215870589
 21
417.98450538327
  0
LINE
  8
_0-0_
  6
CONTINUOUS
 62
    7
 10
450.49999963757318
 20
418.76096251857762
 11
447.60222215870589
 21
419.53741965388513
  0
LINE
  8
_0-0_
  6
CONTINUOUS
 62
    7
 10
390.49999963757318
 20
418.76096251857762
 11
393.39777711644035
 21
419.53741965388513
  0
LINE
  8
_0-0_
  6
CONTINUOUS
 62
    7
 10
390.49999963757318
 20
418.76096251857762
 11
393.39777711644035
 21
417.98450538327
  0
LINE
  8
_0-0_
  6
CONTINUOUS
 62
    4
 10
450.49999963757318
 20
403.76096251857762
 11
450.49999963757318
 21
418.76096251857762
  0
LINE
  8
_0-0_
  6
CONTINUOUS
 62
    4
 10
390.49999963757318
 20
403.76096251857762
 11
390.49999963757318
 21
418.76096251857762
  0
LINE
  8
_0-0_
  6
CENTER1
 62
    4
 10
420.5
 20
413.49243185650249
 11
420.5
 21
323.52821684751853
  0
TEXT
  8
_0-0_
 62
    7
 10
408.5
 20
314.1450268583988
 40
4
 41
1
 50
0
  1
座付きナット
  0
TEXT
  8
_0-0_
 62
    7
 10
408.5
 20
430.73382151376637
 40
4
 41
1
 50
0
  1
樹脂パッキン
  0
TEXT
  8
_0-0_
 62
    7
 10
445
 20
430.73382151376637
 40
4
 41
1
 50
0
  1
S=1/2
  0
LINE
  8
_0-0_
  6
CONTINUOUS
 62
    4
 10
331.10674178416275
 20
469.05739049336176
 11
394.3796699550819
 21
554.49882268078295
  0
LINE
  8
_0-0_
  6
CONTINUOUS
 62
    4
 10
331.02012326492763
 20
408.93109292406262
 11
388.19765305535486
 21
512.69572602787502
  0
LINE
  8
_0-0_
  6
CONTINUOUS
 62
    4
 10
324.36746961858682
 20
399.54605433709861
 11
389.29889175425705
 21
401.12963204970861
  0
LINE
  8
_0-0_
  6
CONTINUOUS
 62
    4
 10
432.0470053837925
 20
380.60558199727694
 11
408.95299461620754
 21
380.60558199727694
  0
ARC
  8
_0-0_
  6
CONTINUOUS
 62
    4
 10
408.95299461620754
 20
377.60558199727694
 40
3
 50
90
 51
149.99999999999982
  0
LINE
  8
_0-0_
  6
CONTINUOUS
 62
    4
 10
394.8079130210616
 20
359.10558199727694
 11
406.35491840485423
 21
379.10558199727694
  0
ARC
  8
_0-0_
  6
CONTINUOUS
 62
    4
 10
397.40598923241492
 20
357.60558199727694
 40
3
 50
149.99999999999977
 51
209.99999999999997
  0
LINE
  8
_0-0_
  6
CONTINUOUS
 62
    4
 10
406.35491840485417
 20
336.10558199727694
 11
394.8079130210616
 21
356.10558199727694
  0
ARC
  8
_0-0_
  6
CONTINUOUS
 62
    4
 10
408.95299461620749
 20
337.60558199727694
 40
3
 50
210.00000000000005
 51
270
  0
LINE
  8
_0-0_
  6
CONTINUOUS
 62
    4
 10
408.95299461620749
 20
334.60558199727694
 11
432.0470053837925
 21
334.60558199727694
  0
ARC
  8
_0-0_
  6
CONTINUOUS
 62
    4
 10
432.0470053837925
 20
337.60558199727694
 40
3
 50
270
 51
329.99999999999988
  0
LINE
  8
_0-0_
  6
CONTINUOUS
 62
    4
 10
434.64508159514582
 20
336.10558199727694
 11
446.19208697893839
 21
356.10558199727682
  0
ARC
  8
_0-0_
  6
CONTINUOUS
 62
    4
 10
443.59401076758507
 20
357.60558199727682
 40
3
 50
329.99999999999994
 51
30.000000000000042
  0
LINE
  8
_0-0_
  6
CONTINUOUS
 62
    4
 10
446.19208697893839
 20
359.10558199727682
 11
434.64508159514582
 21
379.10558199727694
  0
ARC
  8
_0-0_
  6
CONTINUOUS
 62
    4
 10
432.0470053837925
 20
377.60558199727694
 40
3
 50
29.999999999999964
 51
90
  0
LINE
  8
_0-0_
  6
CENTER1
 62
    4
 10
461.32635242003141
 20
357.60558199727694
 11
374.03865348913092
 21
357.60558199727694
  0
TEXT
  8
_0-0_
 62
    7
 10
398.5
 20
552.44390837158698
 40
4
 41
1
 50
0
  1
スチロールパッキンφ60
  0
LINE
  8
_0-0_
  6
CONTINUOUS
 62
    7
 10
395
 20
557.94390837158698
 11
395
 21
550.94390837158698
  0
LINE
  8
_0-0_
  6
CONTINUOUS
 62
    7
 10
446
 20
557.94390837158698
 11
395
 21
557.94390837158698
  0
LINE
  8
_0-0_
  6
CONTINUOUS
 62
    7
 10
446
 20
550.94390837158698
 11
446
 21
557.94390837158698
  0
LINE
  8
_0-0_
  6
CONTINUOUS
 62
    7
 10
395
 20
550.94390837158698
 11
446
 21
550.94390837158698
  0
TEXT
  8
_0-0_
 62
    7
 10
415.49999963757318
 20
537.70701655823677
 40
5
 41
1
 50
0
  1
φ62
  0
TEXT
  8
_0-0_
 62
    7
 10
415.49999963757318
 20
419.76096251857762
 40
5
 41
1
 50
0
  1
φ60
  0
CIRCLE
  8
_0-0_
  6
CONTINUOUS
 62
    7
 10
551.93798624422652
 20
497.90666717808619
 40
30
  0
CIRCLE
  8
_0-0_
  6
CONTINUOUS
 62
    7
 10
551.93798624422652
 20
497.90666717808619
 40
27.600000000000001
  0
LINE
  8
_0-0_
  6
CONTINUOUS
 62
    4
 10
581.93798475282164
 20
550.46970751240394
 11
521.93798475282164
 21
550.46970751240394
  0
LINE
  8
_0-0_
  6
CONTINUOUS
 62
    7
 10
581.93798475282164
 20
550.46970751240394
 11
579.04020727395436
 21
549.69325037709643
  0
LINE
  8
_0-0_
  6
CONTINUOUS
 62
    7
 10
581.93798475282164
 20
550.46970751240394
 11
579.04020727395436
 21
551.24616464771145
  0
LINE
  8
_0-0_
  6
CONTINUOUS
 62
    7
 10
521.93798475282164
 20
550.46970751240394
 11
524.8357622316887
 21
551.24616464771145
  0
LINE
  8
_0-0_
  6
CONTINUOUS
 62
    7
 10
521.93798475282164
 20
550.46970751240394
 11
524.8357622316887
 21
549.69325037709643
  0
LINE
  8
_0-0_
  6
CONTINUOUS
 62
    4
 10
581.93798475282164
 20
515.99834367462256
 11
581.93798475282164
 21
550.46970751240394
  0
LINE
  8
_0-0_
  6
CONTINUOUS
 62
    4
 10
521.93798475282164
 20
515.99834367462256
 11
521.93798475282164
 21
550.46970751240394
  0
LINE
  8
_0-0_
  6
CONTINUOUS
 62
    4
 10
527.99019870531788
 20
481.85520681506204
 11
506.67492258629278
 21
464.48720405141204
  0
TEXT
  8
_0-0_
 62
    7
 10
494.04364784909279
 20
461.00038571256823
 40
5
 41
1
 50
0
  1
乳白
  0
CIRCLE
  8
_0-0_
  6
CONTINUOUS
 62
    7
 10
551.93798624422652
 20
376.35411045686572
 40
37.25
  0
LINE
  8
_0-0_
  6
CONTINUOUS
 62
    4
 10
517.21824818270738
 20
360.30265009384157
 11
495.90297206368228
 21
342.93464733019158
  0
TEXT
  8
_0-0_
 62
    7
 10
488.20587933309485
 20
339.44782899134776
 40
5
 41
1
 50
0
  1
黒
  0
LINE
  8
_0-0_
  6
CONTINUOUS
 62
    4
 10
591.18798285827188
 20
428.91715079118347
 11
512.68798285827188
 21
428.91715079118347
  0
LINE
  8
_0-0_
  6
CONTINUOUS
 62
    7
 10
591.18798285827188
 20
428.91715079118347
 11
588.29020537940482
 21
428.14069365587596
  0
LINE
  8
_0-0_
  6
CONTINUOUS
 62
    7
 10
591.18798285827188
 20
428.91715079118347
 11
588.29020537940482
 21
429.69360792649098
  0
LINE
  8
_0-0_
  6
CONTINUOUS
 62
    7
 10
512.68798285827188
 20
428.91715079118347
 11
515.58576033713916
 21
429.69360792649098
  0
LINE
  8
_0-0_
  6
CONTINUOUS
 62
    7
 10
512.68798285827188
 20
428.91715079118347
 11
515.58576033713916
 21
428.14069365587596
  0
LINE
  8
_0-0_
  6
CONTINUOUS
 62
    4
 10
591.18798285827188
 20
394.44578695340209
 11
591.18798285827188
 21
428.91715079118347
  0
LINE
  8
_0-0_
  6
CONTINUOUS
 62
    4
 10
512.68798285827188
 20
394.44578695340209
 11
512.68798285827188
 21
428.91715079118347
  0
ARC
  8
_0-0_
  6
CONTINUOUS
 62
    7
 10
551.93798624422652
 20
376.35411045686572
 40
39.25
 50
167.39010024951539
 51
161.62292656249246
  0
LINE
  8
_0-0_
  6
CONTINUOUS
 62
    7
 10
513.4379862442264
 20
322.49226999675067
 11
513.4379862442264
 21
315.49226999675067
  0
LINE
  8
_0-0_
  6
CONTINUOUS
 62
    7
 10
513.4379862442264
 20
315.49226999675067
 11
590.43798624422652
 21
315.49226999675067
  0
LINE
  8
_0-0_
  6
CONTINUOUS
 62
    7
 10
590.43798624422652
 20
315.49226999675067
 11
590.43798624422652
 21
322.49226999675067
  0
LINE
  8
_0-0_
  6
CONTINUOUS
 62
    7
 10
513.4379862442264
 20
322.49226999675067
 11
590.43798624422652
 21
322.49226999675067
  0
TEXT
  8
_0-0_
 62
    7
 10
529.9379862442264
 20
316.99226999675067
 40
4
 41
1
 50
0
  1
Оリング　乳白・黒　各1
  0
TEXT
  8
_0-0_
 62
    7
 10
546.93798475282164
 20
551.46970751240394
 40
5
 41
1
 50
0
  1
φ60
  0
TEXT
  8
_0-0_
 62
    7
 10
544.43798285827188
 20
429.91715079118347
 40
5
 41
1
 50
0
  1
φ78.5
  0
TEXT
  8
_0-0_
 62
    7
 10
298.02012448113475
 20
518.61626519660489
 40
5
 41
1
 50
0
  1
φ72
  0
TEXT
  8
_0-0_
 62
    7
 10
254.09024022982438
 20
436.43109292406262
 40
5
 41
1
 50
90
  1
45～65
  0
TEXT
  8
_0-0_
 62
    7
 10
242.90449744288773
 20
423.68109292406262
 40
5
 41
1
 50
90
  1
100
  0
TEXT
  8
_0-0_
 62
    7
 10
343.52012326492763
 20
356.37602142310532
 40
4
 41
1
 50
0
  1
S=1/1
  0
TEXT
  8
_0-0_
 62
    7
 10
445
 20
314.1450268583988
 40
4
 41
1
 50
0
  1
S=1/1
  0
TEXT
  8
_0-0_
 62
    7
 10
592.43798624422652
 20
316.99226999675067
 40
4
 41
1
 50
0
  1
S=1/1
  0
TEXT
  8
_0-0_
 62
    7
 10
359.64270856675216
 20
34.061108564514199
 40
4
 41
1
 50
0
  1
S=1/1
  0
TEXT
  8
_0-0_
 62
    7
 10
566.64270856675216
 20
34.061108564514199
 40
4
 41
1
 50
0
  1
S=1/1
  0
ENDSEC
  0
EOF
