  0
SECTION
  2
HEADER
  9
$ACADVER
  1
AC1009
  9
$INSBASE
 10
0
 20
0
 30
0
  9
$EXTMIN
 10
0
 20
0
  9
$EXTMAX
 10
840
 20
594
  9
$LIMMIN
 10
0
 20
0
  9
$LIMMAX
 10
840
 20
594
  9
$LTSCALE
 40
2
  0
ENDSEC
  0
SECTION
  2
TABLES
  0
TABLE
  2
LTYPE
 70
     9
  0
LTYPE
  2
CONTINUOUS
 70
    64
  3
実線
 72
    65
 73
     0
 40
0.0
  0
LTYPE
  2
DASHED1
 70
    64
  3
--  --  --  --  --  --  --  --  
 72
    65
 73
     2
 40
2.5
 49
1.25
 49
-1.25
  0
LTYPE
  2
DASHED2
 70
    64
  3
----    ----    ----    ----    
 72
    65
 73
     2
 40
5.0
 49
2.5
 49
-2.5
  0
LTYPE
  2
DASHED3
 70
    64
  3
------  ------  ------  ------  
 72
    65
 73
     2
 40
5.0
 49
3.75
 49
-1.25
  0
LTYPE
  2
CENTER1
 70
    64
  3
----- - ----- - ----- - ----- - 
 72
    65
 73
     4
 40
10.0
 49
6.25
 49
-1.25
 49
1.25
 49
-1.25
  0
LTYPE
  2
CENTER2
 70
    64
  3
----------  --  ----------  --  
 72
    65
 73
     4
 40
20.0
 49
12.5
 49
-2.5
 49
2.5
 49
-2.5
  0
LTYPE
  2
PHANTOM1
 70
    64
  3
--- - - --- - - --- - - --- - - 
 72
    65
 73
     6
 40
10.0
 49
3.25
 49
-1.25
 49
1.25
 49
-1.25
 49
1.25
 49
-1.25
  0
LTYPE
  2
PHANTOM2
 70
    64
  3
--------  -  -  --------  -  -  
 72
    65
 73
     6
 40
20.0
 49
10.0
 49
-2.5
 49
1.25
 49
-2.5
 49
1.25
 49
-2.5
  0
LTYPE
  2
DOT
 70
    64
  3
-   -   -   -   -   -   -   -   
 72
    65
 73
     2
 40
2.5
 49
0.625
 49
-1.875
  0
LTYPE
  2
DUMMY
 70
    64
  3
ダミー
 72
    65
 73
     0
 40
0.0
  0
LTYPE
  2
RAND1
 70
    64
  3
ランダム線1
 72
    65
 73
     4
 40
10.0
 49
1.0
 49
-2.0
 49
3.0
 49
-4.0
  0
LTYPE
  2
RAND2
 70
    64
  3
ランダム線2
 72
    65
 73
     4
 40
14.0
 49
2.0
 49
-3.0
 49
4.0
 49
-5.0
  0
LTYPE
  2
RAND3
 70
    64
  3
ランダム線3
 72
    65
 73
     4
 40
18.0
 49
3.0
 49
-4.0
 49
5.0
 49
-6.0
  0
LTYPE
  2
RAND4
 70
    64
  3
ランダム線4
 72
    65
 73
     4
 40
22.0
 49
4.0
 49
-5.0
 49
6.0
 49
-7.0
  0
LTYPE
  2
RAND5
 70
    64
  3
ランダム線5
 72
    65
 73
     4
 40
26.0
 49
5.0
 49
-6.0
 49
7.0
 49
-8.0
  0
LTYPE
  2
LONG1
 70
    64
  3
----------  --  ----------  --  
 72
    65
 73
     4
 40
40.0
 49
32.5
 49
-2.5
 49
2.5
 49
-2.5
  0
LTYPE
  2
LONG2
 70
    64
  3
--------  -  -  --------  -  -  
 72
    65
 73
     6
 40
40.0
 49
30.0
 49
-2.5
 49
1.25
 49
-2.5
 49
1.25
 49
-2.5
  0
LTYPE
  2
LONG3
 70
    64
  3
+++++++++++++++..+++++++++++++++
 72
    65
 73
     2
 40
40.0
 49
37.5
 49
-2.5
  0
LTYPE
  2
LONG4
 70
    64
  3
+++++++++++++++..+++++++++++++++
 72
    65
 73
     2
 40
80.0
 49
75.0
 49
-5.0
  0
LTYPE
  2
LONG5
 70
    64
  3
----------  --  ----------  --  
 72
    65
 73
     4
 40
60.0
 49
37.5
 49
-7.5
 49
7.5
 49
-7.5
  0
LTYPE
  2
dashed
 70
   64
  3
-------   -------------   ------
 72
   65
 73
    2
 40
7.5
 49
6
 49
-1.5
  0
LTYPE
  2
dashed_spaced
 70
   64
  3
----        --------        ----
 72
   65
 73
    2
 40
12
 49
6
 49
-6
  0
LTYPE
  2
long_dashed_dotted
 70
   64
  3
------------- --- --------------
 72
   65
 73
    4
 40
15.25
 49
12
 49
-1.5
 49
0.25
 49
-1.5
  0
LTYPE
  2
long_dashed_double-dotted
 70
   64
  3
----------- --- --- ------------
 72
   65
 73
    6
 40
17
 49
12
 49
-1.5
 49
0.25
 49
-1.5
 49
0.25
 49
-1.5
  0
LTYPE
  2
long_dashed_triplicate-dotted
 70
   64
  3
--------- --- --- --- ----------
 72
   65
 73
    8
 40
18.75
 49
12
 49
-1.5
 49
0.25
 49
-1.5
 49
0.25
 49
-1.5
 49
0.25
 49
-1.5
  0
LTYPE
  2
dotted
 70
   64
  3
   -       -       -       -    
 72
   65
 73
    2
 40
1.75
 49
0.25
 49
-1.5
  0
LTYPE
  2
chain
 70
   64
  3
-------------- -- --------------
 72
   65
 73
    4
 40
18.5
 49
12
 49
-1.5
 49
3.5
 49
-1.5
  0
LTYPE
  2
chain_double_dash
 70
   64
  3
------------ -- -- -------------
 72
   65
 73
    6
 40
23.5
 49
12
 49
-1.5
 49
3.5
 49
-1.5
 49
3.5
 49
-1.5
  0
LTYPE
  2
dashed_dotted
 70
   64
  3
-----------     -     ----------
 72
   65
 73
    4
 40
9.25
 49
6
 49
-1.5
 49
0.25
 49
-1.5
  0
LTYPE
  2
double-dashed_dotted
 70
   64
  3
------   -----------   -   -----
 72
   65
 73
    6
 40
16.75
 49
6
 49
-1.5
 49
6
 49
-1.5
 49
0.25
 49
-1.5
  0
LTYPE
  2
dashed_double-dotted
 70
   64
  3
---------    -    -    ---------
 72
   65
 73
    6
 40
11
 49
6
 49
-1.5
 49
0.25
 49
-1.5
 49
0.25
 49
-1.5
  0
LTYPE
  2
double-dashed_double-dotted
 70
   64
  3
-----   ---------   -   -   ----
 72
   65
 73
    8
 40
18.5
 49
6
 49
-1.5
 49
6
 49
-1.5
 49
0.25
 49
-1.5
 49
0.25
 49
-1.5
  0
LTYPE
  2
dashed_triplicate-dotted
 70
   64
  3
-------    -    -    -    ------
 72
   65
 73
    8
 40
12.75
 49
6
 49
-1.5
 49
0.25
 49
-1.5
 49
0.25
 49
-1.5
 49
0.25
 49
-1.5
  0
LTYPE
  2
double-dashed_triplicate-dotted
 70
   64
  3
-----  ---------  -  -  -  -----
 72
   65
 73
   10
 40
20.25
 49
6
 49
-1.5
 49
6
 49
-1.5
 49
0.25
 49
-1.5
 49
0.25
 49
-1.5
 49
0.25
 49
-1.5
  0
LTYPE
  2
undefined
 70
   64
  3
--------------------------------
 72
   65
 73
    0
 40
0
  0
LTYPE
  2
_
 70
   64
  3
                                
 72
   65
 73
    0
 40
0
  0
LTYPE
  2
__18
 70
   64
  3
                                
 72
   65
 73
    0
 40
0
  0
LTYPE
  2
__19
 70
   64
  3
                                
 72
   65
 73
    0
 40
0
  0
LTYPE
  2
__20
 70
   64
  3
                                
 72
   65
 73
    0
 40
0
  0
LTYPE
  2
__21
 70
   64
  3
                                
 72
   65
 73
    0
 40
0
  0
LTYPE
  2
__22
 70
   64
  3
                                
 72
   65
 73
    0
 40
0
  0
LTYPE
  2
__23
 70
   64
  3
                                
 72
   65
 73
    0
 40
0
  0
LTYPE
  2
__24
 70
   64
  3
                                
 72
   65
 73
    0
 40
0
  0
LTYPE
  2
__25
 70
   64
  3
                                
 72
   65
 73
    0
 40
0
  0
LTYPE
  2
__26
 70
   64
  3
                                
 72
   65
 73
    0
 40
0
  0
LTYPE
  2
__27
 70
   64
  3
                                
 72
   65
 73
    0
 40
0
  0
LTYPE
  2
__28
 70
   64
  3
                                
 72
   65
 73
    0
 40
0
  0
LTYPE
  2
__29
 70
   64
  3
                                
 72
   65
 73
    0
 40
0
  0
LTYPE
  2
__30
 70
   64
  3
                                
 72
   65
 73
    0
 40
0
  0
LTYPE
  2
__31
 70
   64
  3
                                
 72
   65
 73
    0
 40
0
  0
LTYPE
  2
__32
 70
   64
  3
                                
 72
   65
 73
    0
 40
0
  0
ENDTAB
  0
TABLE
  2
STYLE
  5
3
100
AcDbSymbolTable
 70
     1
  0
STYLE
  5
10
100
AcDbSymbolTableRecord
100
AcDbTextStyleTableRecord
  2
STANDARD
 70
     0
 40
0.0
 41
1.0
 50
0.0
 71
     0
 42
0.2
  3
txt
  4
bigfont.shx
  0
STYLE
  5
26
100
AcDbSymbolTableRecord
100
AcDbTextStyleTableRecord
  2
TATEGAKI
 70
    68
 40
0.0
 41
1.0
 50
0.0
 71
     0
 42
1.0
  3
txt
  4
bigfont.shx
  0
ENDTAB
  0
TABLE
  2
LAYER
 70
    3
  0
LAYER
  2
_0-0_
 70
   64
 62
    7
  6
CONTINUOUS
  0
LAYER
  2
_4-0_
 70
   64
 62
    7
  6
CONTINUOUS
  0
LAYER
  2
ADD_LINE
 70
   64
 62
    7
  6
CONTINUOUS
  0
ENDTAB
  0
ENDSEC
  0
SECTION
  2
BLOCKS
  0
ENDSEC
  0
SECTION
  2
ENTITIES
  0
LINE
  8
_4-0_
  6
CONTINUOUS
 62
    7
 10
280.45901509943064
 20
265.58399489770835
 11
280.45901509943064
 21
263.58399489770829
  0
LINE
  8
_4-0_
  6
CONTINUOUS
 62
    7
 10
280.45901509943064
 20
265.58399489770835
 11
340.45901509943064
 21
265.58399489770835
  0
LINE
  8
_4-0_
  6
CONTINUOUS
 62
    7
 10
340.45901509943064
 20
265.58399489770835
 11
340.45901509943064
 21
263.58399489770829
  0
LINE
  8
_4-0_
  6
CENTER1
 62
    4
 10
310.45901509943064
 20
544.63040722181381
 11
310.45901509943064
 21
60.342252251881745
  0
LINE
  8
_4-0_
  6
CONTINUOUS
 62
    4
 10
383.50967954334004
 20
263.58399489770829
 11
383.50967954334004
 21
253.58399489770826
  0
LINE
  8
_4-0_
  6
CONTINUOUS
 62
    4
 10
383.50967954334004
 20
265.58399489770835
 11
383.50967954334004
 21
275.58399489770835
  0
LINE
  8
_4-0_
  6
CONTINUOUS
 62
    4
 10
383.50967954334004
 20
263.58399489770829
 11
383.50967954334004
 21
265.58399489770835
  0
LINE
  8
_4-0_
  6
CONTINUOUS
 62
    7
 10
383.50967954334004
 20
263.58399489770829
 11
385.06259381395517
 21
257.78843993997389
  0
LINE
  8
_4-0_
  6
CONTINUOUS
 62
    7
 10
383.50967954334004
 20
263.58399489770829
 11
381.9567652727249
 21
257.78843993997389
  0
LINE
  8
_4-0_
  6
CONTINUOUS
 62
    7
 10
383.50967954334004
 20
265.58399489770835
 11
381.9567652727249
 21
271.37954985544274
  0
LINE
  8
_4-0_
  6
CONTINUOUS
 62
    7
 10
383.50967954334004
 20
265.58399489770835
 11
385.06259381395517
 21
271.37954985544274
  0
TEXT
  8
_4-0_
 62
    7
 10
381.01659615293942
 20
270.75757109763264
 40
6
 41
1
 50
90
  1
2
  0
LINE
  8
_4-0_
  6
CONTINUOUS
 62
    4
 10
383.50967954334004
 20
265.58399489770835
 11
354.64573085994612
 21
265.58399489770835
  0
LINE
  8
_4-0_
  6
CONTINUOUS
 62
    4
 10
383.50967954334004
 20
263.58399489770829
 11
354.64573085994612
 21
263.58399489770829
  0
LINE
  8
_4-0_
  6
CONTINUOUS
 62
    7
 10
307.70901509943087
 20
389.07133345127567
 11
313.20901509943041
 21
389.07133345127567
  0
LINE
  8
_4-0_
  6
CONTINUOUS
 62
    7
 10
307.70901509943087
 20
466.07133345127579
 11
307.70901509943087
 21
389.07133345127567
  0
LINE
  8
_4-0_
  6
CONTINUOUS
 62
    7
 10
313.20901509943041
 20
466.07133345127579
 11
313.20901509943041
 21
389.07133345127567
  0
LINE
  8
_4-0_
  6
CONTINUOUS
 62
    7
 10
304.70901509943075
 20
469.07133345127567
 11
307.70901509943087
 21
466.07133345127579
  0
LINE
  8
_4-0_
  6
CONTINUOUS
 62
    7
 10
304.70901509943075
 20
469.07133345127567
 11
316.20901509943053
 21
469.07133345127567
  0
LINE
  8
_4-0_
  6
CONTINUOUS
 62
    7
 10
316.20901509943053
 20
469.07133345127567
 11
313.20901509943041
 21
466.07133345127579
  0
LINE
  8
_4-0_
  6
CONTINUOUS
 62
    4
 10
307.70901509943087
 20
465.58922232546046
 11
313.20901509943041
 21
465.72974784532868
  0
LINE
  8
_4-0_
  6
CONTINUOUS
 62
    4
 10
307.70901509943087
 20
390.56474604450556
 11
313.20901509943041
 21
390.70527156437367
  0
LINE
  8
_4-0_
  6
CONTINUOUS
 62
    4
 10
307.70901509943087
 20
392.06523557012462
 11
313.20901509943041
 21
392.20576108999273
  0
LINE
  8
_4-0_
  6
CONTINUOUS
 62
    4
 10
307.70901509943087
 20
393.56572509574368
 11
313.20901509943041
 21
393.7062506156119
  0
LINE
  8
_4-0_
  6
CONTINUOUS
 62
    4
 10
307.70901509943087
 20
395.06621462136274
 11
313.20901509943041
 21
395.20674014123096
  0
LINE
  8
_4-0_
  6
CONTINUOUS
 62
    4
 10
307.70901509943087
 20
396.56670414698191
 11
313.20901509943041
 21
396.70722966685013
  0
LINE
  8
_4-0_
  6
CONTINUOUS
 62
    4
 10
307.70901509943087
 20
398.06719367260109
 11
313.20901509943041
 21
398.20771919246919
  0
LINE
  8
_4-0_
  6
CONTINUOUS
 62
    4
 10
307.70901509943087
 20
399.56768319822015
 11
313.20901509943041
 21
399.70820871808837
  0
LINE
  8
_4-0_
  6
CONTINUOUS
 62
    4
 10
307.70901509943087
 20
401.06817272383932
 11
313.20901509943041
 21
401.20869824370731
  0
LINE
  8
_4-0_
  6
CONTINUOUS
 62
    4
 10
307.70901509943087
 20
402.56866224945827
 11
313.20901509943041
 21
402.70918776932637
  0
LINE
  8
_4-0_
  6
CONTINUOUS
 62
    4
 10
307.70901509943087
 20
404.06915177507733
 11
313.20901509943041
 21
404.20967729494549
  0
LINE
  8
_4-0_
  6
CONTINUOUS
 62
    4
 10
307.70901509943087
 20
405.56964130069644
 11
313.20901509943041
 21
405.71016682056472
  0
LINE
  8
_4-0_
  6
CONTINUOUS
 62
    4
 10
307.70901509943087
 20
407.07013082631556
 11
313.20901509943041
 21
407.21065634618378
  0
LINE
  8
_4-0_
  6
CONTINUOUS
 62
    4
 10
307.70901509943087
 20
408.57062035193473
 11
313.20901509943041
 21
408.71114587180289
  0
LINE
  8
_4-0_
  6
CONTINUOUS
 62
    4
 10
307.70901509943087
 20
410.07110987755379
 11
313.20901509943041
 21
410.21163539742201
  0
LINE
  8
_4-0_
  6
CONTINUOUS
 62
    4
 10
307.70901509943087
 20
411.57159940317296
 11
313.20901509943041
 21
411.71212492304096
  0
LINE
  8
_4-0_
  6
CONTINUOUS
 62
    4
 10
307.70901509943087
 20
413.07208892879191
 11
313.20901509943041
 21
413.21261444866024
  0
LINE
  8
_4-0_
  6
CONTINUOUS
 62
    4
 10
307.70901509943087
 20
414.5725784544112
 11
313.20901509943041
 21
414.71310397427913
  0
LINE
  8
_4-0_
  6
CONTINUOUS
 62
    4
 10
307.70901509943087
 20
416.07306798003008
 11
313.20901509943041
 21
416.21359349989836
  0
LINE
  8
_4-0_
  6
CONTINUOUS
 62
    4
 10
307.70901509943087
 20
417.57355750564931
 11
313.20901509943041
 21
417.71408302551742
  0
LINE
  8
_4-0_
  6
CONTINUOUS
 62
    4
 10
307.70901509943087
 20
419.07404703126837
 11
313.20901509943041
 21
419.21457255113654
  0
LINE
  8
_4-0_
  6
CONTINUOUS
 62
    4
 10
307.70901509943087
 20
420.57453655688749
 11
313.20901509943041
 21
420.71506207675565
  0
LINE
  8
_4-0_
  6
CONTINUOUS
 62
    4
 10
307.70901509943087
 20
422.07502608250661
 11
313.20901509943041
 21
422.21555160237483
  0
LINE
  8
_4-0_
  6
CONTINUOUS
 62
    4
 10
307.70901509943087
 20
423.57551560812578
 11
313.20901509943041
 21
423.71604112799388
  0
LINE
  8
_4-0_
  6
CONTINUOUS
 62
    4
 10
307.70901509943087
 20
425.07600513374484
 11
313.20901509943041
 21
425.21653065361294
  0
LINE
  8
_4-0_
  6
CONTINUOUS
 62
    4
 10
307.70901509943087
 20
426.5764946593639
 11
313.20901509943041
 21
426.717020179232
  0
LINE
  8
_4-0_
  6
CONTINUOUS
 62
    4
 10
307.70901509943087
 20
428.07698418498296
 11
313.20901509943041
 21
428.21750970485118
  0
LINE
  8
_4-0_
  6
CONTINUOUS
 62
    4
 10
307.70901509943087
 20
429.57747371060213
 11
313.20901509943041
 21
429.71799923047024
  0
LINE
  8
_4-0_
  6
CONTINUOUS
 62
    4
 10
307.70901509943087
 20
431.07796323622119
 11
313.20901509943041
 21
431.21848875608941
  0
LINE
  8
_4-0_
  6
CONTINUOUS
 62
    4
 10
307.70901509943087
 20
432.57845276184025
 11
313.20901509943041
 21
432.71897828170847
  0
LINE
  8
_4-0_
  6
CONTINUOUS
 62
    4
 10
307.70901509943087
 20
434.07894228745942
 11
313.20901509943041
 21
434.21946780732764
  0
LINE
  8
_4-0_
  6
CONTINUOUS
 62
    4
 10
307.70901509943087
 20
435.57943181307848
 11
313.20901509943041
 21
435.71995733294659
  0
LINE
  8
_4-0_
  6
CONTINUOUS
 62
    4
 10
307.70901509943087
 20
437.07992133869754
 11
313.20901509943041
 21
437.22044685856565
  0
LINE
  8
_4-0_
  6
CONTINUOUS
 62
    4
 10
307.70901509943087
 20
438.5804108643166
 11
313.20901509943041
 21
438.72093638418482
  0
LINE
  8
_4-0_
  6
CONTINUOUS
 62
    4
 10
307.70901509943087
 20
440.08090038993577
 11
313.20901509943041
 21
440.22142590980388
  0
LINE
  8
_4-0_
  6
CONTINUOUS
 62
    4
 10
307.70901509943087
 20
441.58138991555483
 11
313.20901509943041
 21
441.72191543542305
  0
LINE
  8
_4-0_
  6
CONTINUOUS
 62
    4
 10
307.70901509943087
 20
443.08187944117401
 11
313.20901509943041
 21
443.22240496104222
  0
LINE
  8
_4-0_
  6
CONTINUOUS
 62
    4
 10
307.70901509943087
 20
444.58236896679306
 11
313.20901509943041
 21
444.72289448666128
  0
LINE
  8
_4-0_
  6
CONTINUOUS
 62
    4
 10
307.70901509943087
 20
446.08285849241224
 11
313.20901509943041
 21
446.22338401228023
  0
LINE
  8
_4-0_
  6
CONTINUOUS
 62
    4
 10
307.70901509943087
 20
447.58334801803118
 11
313.20901509943041
 21
447.72387353789952
  0
LINE
  8
_4-0_
  6
CONTINUOUS
 62
    4
 10
307.70901509943087
 20
449.08383754365047
 11
313.20901509943041
 21
449.22436306351846
  0
LINE
  8
_4-0_
  6
CONTINUOUS
 62
    4
 10
307.70901509943087
 20
450.58432706926942
 11
313.20901509943041
 21
450.72485258913764
  0
LINE
  8
_4-0_
  6
CONTINUOUS
 62
    4
 10
307.70901509943087
 20
452.08481659488859
 11
313.20901509943041
 21
452.22534211475669
  0
LINE
  8
_4-0_
  6
CONTINUOUS
 62
    4
 10
307.70901509943087
 20
453.58530612050765
 11
313.20901509943041
 21
453.72583164037587
  0
LINE
  8
_4-0_
  6
CONTINUOUS
 62
    4
 10
307.70901509943087
 20
455.08579564612682
 11
313.20901509943041
 21
455.22632116599493
  0
LINE
  8
_4-0_
  6
CONTINUOUS
 62
    4
 10
307.70901509943087
 20
456.58628517174588
 11
313.20901509943041
 21
456.7268106916141
  0
LINE
  8
_4-0_
  6
CONTINUOUS
 62
    4
 10
307.70901509943087
 20
458.08677469736505
 11
313.20901509943041
 21
458.22730021723316
  0
LINE
  8
_4-0_
  6
CONTINUOUS
 62
    4
 10
307.70901509943087
 20
459.58726422298411
 11
313.20901509943041
 21
459.72778974285222
  0
LINE
  8
_4-0_
  6
CONTINUOUS
 62
    4
 10
307.70901509943087
 20
461.08775374860306
 11
313.20901509943041
 21
461.22827926847128
  0
LINE
  8
_4-0_
  6
CONTINUOUS
 62
    4
 10
307.70901509943087
 20
462.58824327422223
 11
313.20901509943041
 21
462.72876879409051
  0
LINE
  8
_4-0_
  6
CONTINUOUS
 62
    4
 10
307.70901509943087
 20
464.08873279984146
 11
313.20901509943041
 21
464.22925831970951
  0
LINE
  8
_4-0_
  6
CONTINUOUS
 62
    4
 10
307.98599772989859
 20
389.07133345127567
 11
313.20901509943041
 21
389.20478203875461
  0
LINE
  8
_4-0_
  6
CONTINUOUS
 62
    7
 10
278.95901509943087
 20
358.45775974919399
 11
341.95901509943041
 21
358.45775974919399
  0
LINE
  8
_4-0_
  6
CONTINUOUS
 62
    4
 10
278.95901509943087
 20
357.45775974919399
 11
341.95901509943041
 21
357.45775974919399
  0
LINE
  8
_4-0_
  6
CONTINUOUS
 62
    7
 10
290.45901509943064
 20
340.95775974919399
 11
305.45901509943064
 21
315.95775974919399
  0
LINE
  8
_4-0_
  6
CONTINUOUS
 62
    7
 10
305.45901509943064
 20
315.95775974919399
 11
315.45901509943064
 21
315.95775974919399
  0
LINE
  8
_4-0_
  6
CONTINUOUS
 62
    7
 10
330.45901509943064
 20
340.95775974919399
 11
315.45901509943064
 21
315.95775974919399
  0
ARC
  8
_4-0_
  6
CONTINUOUS
 62
    7
 10
284.39166197716815
 20
353.09388117369087
 40
3.0000000000000004
 50
39.548010668832382
 51
76.726821399986164
  0
LINE
  8
_4-0_
  6
CONTINUOUS
 62
    7
 10
286.70493592056743
 20
355.00405489950514
 11
290.45901509943064
 21
350.45775974919399
  0
LINE
  8
_4-0_
  6
CONTINUOUS
 62
    7
 10
278.95901509943087
 20
357.45775974919399
 11
278.95901509943087
 21
358.45775974919399
  0
LINE
  8
_4-0_
  6
CONTINUOUS
 62
    7
 10
285.08044441460242
 20
356.01374054596942
 11
278.95901509943087
 21
357.45775974919399
  0
LINE
  8
_4-0_
  6
CONTINUOUS
 62
    7
 10
290.45901509943064
 20
340.95775974919399
 11
290.45901509943064
 21
350.45775974919399
  0
LINE
  8
_4-0_
  6
CONTINUOUS
 62
    7
 10
306.20901509943053
 20
340.95775974919399
 11
314.70901509943075
 21
340.95775974919399
  0
LINE
  8
_4-0_
  6
CONTINUOUS
 62
    7
 10
314.70901509943075
 20
343.45775974919399
 11
330.45901509943064
 21
343.45775974919399
  0
LINE
  8
_4-0_
  6
CONTINUOUS
 62
    7
 10
291.95901509943041
 20
343.45775974919399
 11
306.20901509943053
 21
343.45775974919399
  0
LINE
  8
_4-0_
  6
CONTINUOUS
 62
    7
 10
291.95901509943041
 20
341.37323569661668
 11
291.95901509943041
 21
343.45775974919399
  0
LINE
  8
_4-0_
  6
CONTINUOUS
 62
    7
 10
291.95901509943041
 20
341.37323569661668
 11
301.20830066788414
 21
325.95775974919399
  0
LINE
  8
_4-0_
  6
CONTINUOUS
 62
    4
 10
306.20901509943053
 20
324.45775974919388
 11
307.45901509943053
 21
320.95775974919399
  0
LINE
  8
_4-0_
  6
CONTINUOUS
 62
    4
 10
302.45901509943053
 20
320.95775974919399
 11
307.45901509943053
 21
320.95775974919399
  0
LINE
  8
_4-0_
  6
CONTINUOUS
 62
    4
 10
302.45901509943053
 20
320.95775974919399
 11
302.45901509943053
 21
324.45775974919388
  0
LINE
  8
_4-0_
  6
CONTINUOUS
 62
    4
 10
301.20830066788414
 20
324.45775974919388
 11
306.20901509943053
 21
324.45775974919388
  0
LINE
  8
_4-0_
  6
CONTINUOUS
 62
    4
 10
301.20830066788414
 20
325.95775974919399
 11
301.20830066788414
 21
324.45775974919388
  0
LINE
  8
_4-0_
  6
CONTINUOUS
 62
    7
 10
301.20830066788414
 20
325.95775974919399
 11
306.20901509943053
 21
325.95775974919399
  0
LINE
  8
_4-0_
  6
CONTINUOUS
 62
    7
 10
306.20901509943053
 20
325.95775974919399
 11
306.20901509943053
 21
343.45775974919399
  0
LINE
  8
_4-0_
  6
CONTINUOUS
 62
    4
 10
306.20901509943053
 20
325.95775974919399
 11
306.20901509943053
 21
324.45775974919388
  0
LINE
  8
_4-0_
  6
CONTINUOUS
 62
    7
 10
328.95901509943087
 20
341.37323569661668
 11
328.95901509943087
 21
343.45775974919399
  0
LINE
  8
_4-0_
  6
CONTINUOUS
 62
    7
 10
328.95901509943087
 20
341.37323569661668
 11
319.70972953097714
 21
325.95775974919399
  0
LINE
  8
_4-0_
  6
CONTINUOUS
 62
    4
 10
314.70901509943075
 20
324.45775974919388
 11
313.45901509943075
 21
320.95775974919399
  0
LINE
  8
_4-0_
  6
CONTINUOUS
 62
    4
 10
318.45901509943075
 20
320.95775974919399
 11
313.45901509943075
 21
320.95775974919399
  0
LINE
  8
_4-0_
  6
CONTINUOUS
 62
    4
 10
318.45901509943075
 20
320.95775974919399
 11
318.45901509943075
 21
324.45775974919388
  0
LINE
  8
_4-0_
  6
CONTINUOUS
 62
    4
 10
319.70972953097714
 20
324.45775974919388
 11
314.70901509943075
 21
324.45775974919388
  0
LINE
  8
_4-0_
  6
CONTINUOUS
 62
    4
 10
319.70972953097714
 20
325.95775974919399
 11
319.70972953097714
 21
324.45775974919388
  0
LINE
  8
_4-0_
  6
CONTINUOUS
 62
    7
 10
319.70972953097714
 20
325.95775974919399
 11
314.70901509943075
 21
325.95775974919399
  0
LINE
  8
_4-0_
  6
CONTINUOUS
 62
    7
 10
314.70901509943075
 20
325.95775974919399
 11
314.70901509943075
 21
343.45775974919399
  0
LINE
  8
_4-0_
  6
CONTINUOUS
 62
    4
 10
314.70901509943075
 20
325.95775974919399
 11
314.70901509943075
 21
324.45775974919388
  0
LINE
  8
_4-0_
  6
CONTINUOUS
 62
    4
 10
306.20901509943053
 20
343.45775974919399
 11
314.70901509943075
 21
343.45775974919399
  0
LINE
  8
_4-0_
  6
CONTINUOUS
 62
    4
 10
314.70901509943075
 20
340.95775974919399
 11
306.20901509943053
 21
340.95775974919399
  0
ARC
  8
_4-0_
  6
CONTINUOUS
 62
    7
 10
336.52636822169313
 20
353.09388117369087
 40
3.0000000000000004
 50
103.27317860001383
 51
140.45198933116762
  0
LINE
  8
_4-0_
  6
CONTINUOUS
 62
    7
 10
334.21309427829385
 20
355.00405489950514
 11
330.45901509943064
 21
350.45775974919399
  0
LINE
  8
_4-0_
  6
CONTINUOUS
 62
    7
 10
341.95901509943041
 20
357.45775974919399
 11
341.95901509943041
 21
358.45775974919399
  0
LINE
  8
_4-0_
  6
CONTINUOUS
 62
    7
 10
335.83758578425886
 20
356.01374054596942
 11
341.95901509943041
 21
357.45775974919399
  0
LINE
  8
_4-0_
  6
CONTINUOUS
 62
    7
 10
330.45901509943064
 20
340.95775974919399
 11
330.45901509943064
 21
350.45775974919399
  0
LINE
  8
_4-0_
  6
CONTINUOUS
 62
    4
 10
290.45901509943064
 20
350.45775974919399
 11
330.45901509943064
 21
350.45775974919399
  0
LINE
  8
_4-0_
  6
CONTINUOUS
 62
    4
 10
307.45901509943053
 20
320.95775974919399
 11
313.45901509943075
 21
320.95775974919399
  0
LINE
  8
_4-0_
  6
CONTINUOUS
 62
    4
 10
306.20901509943053
 20
340.95775974919399
 11
307.45901509943053
 21
320.95775974919399
  0
LINE
  8
_4-0_
  6
CONTINUOUS
 62
    4
 10
313.45901509943075
 20
320.95775974919399
 11
314.70901509943075
 21
340.95775974919399
  0
LINE
  8
_4-0_
  6
CONTINUOUS
 62
    7
 10
290.45901509943064
 20
537.68614851185418
 11
290.72350557049333
 21
536.18614851185407
  0
LINE
  8
_4-0_
  6
CONTINUOUS
 62
    7
 10
290.45901509943064
 20
537.68614851185418
 11
330.45901509943064
 21
537.68614851185418
  0
LINE
  8
_4-0_
  6
CONTINUOUS
 62
    7
 10
290.72350557049333
 20
536.18614851185407
 11
330.19452462836795
 21
536.18614851185407
  0
LINE
  8
_4-0_
  6
CONTINUOUS
 62
    7
 10
330.45901509943064
 20
537.68614851185418
 11
330.19452462836795
 21
536.18614851185407
  0
LINE
  8
_4-0_
  6
CONTINUOUS
 62
    7
 10
294.45901509943041
 20
534.18614851185418
 11
294.45901509943041
 21
536.18614851185407
  0
LINE
  8
_4-0_
  6
CONTINUOUS
 62
    7
 10
326.45901509943087
 20
534.18614851185418
 11
326.45901509943087
 21
536.18614851185407
  0
LINE
  8
_4-0_
  6
CONTINUOUS
 62
    7
 10
293.45901509943075
 20
532.18614851185418
 11
327.45901509943053
 21
532.18614851185418
  0
LINE
  8
_4-0_
  6
CONTINUOUS
 62
    7
 10
293.45901509943075
 20
534.18614851185418
 11
327.45901509943053
 21
534.18614851185418
  0
LINE
  8
_4-0_
  6
CONTINUOUS
 62
    7
 10
293.45901509943075
 20
528.18614851185407
 11
327.45901509943053
 21
528.18614851185407
  0
LINE
  8
_4-0_
  6
CONTINUOUS
 62
    7
 10
290.45901509943064
 20
530.18614851185418
 11
293.45901509943075
 21
529.43614851185407
  0
LINE
  8
_4-0_
  6
CONTINUOUS
 62
    7
 10
293.45901509943075
 20
530.93614851185418
 11
290.45901509943064
 21
530.18614851185418
  0
LINE
  8
_4-0_
  6
CONTINUOUS
 62
    7
 10
293.45901509943075
 20
530.93614851185418
 11
293.45901509943075
 21
534.18614851185418
  0
LINE
  8
_4-0_
  6
CONTINUOUS
 62
    7
 10
327.45901509943053
 20
530.93614851185418
 11
330.45901509943064
 21
530.18614851185418
  0
LINE
  8
_4-0_
  6
CONTINUOUS
 62
    7
 10
330.45901509943064
 20
530.18614851185418
 11
327.45901509943053
 21
529.43614851185407
  0
LINE
  8
_4-0_
  6
CONTINUOUS
 62
    7
 10
293.45901509943075
 20
529.43614851185407
 11
327.45901509943053
 21
529.43614851185407
  0
LINE
  8
_4-0_
  6
CONTINUOUS
 62
    7
 10
293.45901509943075
 20
530.93614851185418
 11
327.45901509943053
 21
530.93614851185418
  0
LINE
  8
_4-0_
  6
CONTINUOUS
 62
    7
 10
327.45901509943053
 20
530.93614851185418
 11
327.45901509943053
 21
534.18614851185418
  0
LINE
  8
_4-0_
  6
CONTINUOUS
 62
    4
 10
290.45901509943064
 20
530.18614851185418
 11
330.45901509943064
 21
530.18614851185418
  0
LINE
  8
_4-0_
  6
CONTINUOUS
 62
    7
 10
293.45901509943075
 20
521.18614851185407
 11
293.45901509943075
 21
529.43614851185407
  0
LINE
  8
_4-0_
  6
CONTINUOUS
 62
    7
 10
293.45901509943075
 20
521.18614851185407
 11
327.45901509943053
 21
521.18614851185407
  0
LINE
  8
_4-0_
  6
CONTINUOUS
 62
    7
 10
327.45901509943053
 20
521.18614851185407
 11
327.45901509943053
 21
529.43614851185407
  0
LINE
  8
_4-0_
  6
CONTINUOUS
 62
    7
 10
299.45901509943041
 20
511.18614851185412
 11
321.45901509943087
 21
511.18614851185412
  0
LINE
  8
_4-0_
  6
CONTINUOUS
 62
    7
 10
302.70901509943087
 20
497.18614851185418
 11
302.70901509943087
 21
511.18614851185412
  0
LINE
  8
_4-0_
  6
CONTINUOUS
 62
    7
 10
302.70901509943087
 20
497.18614851185418
 11
318.20901509943041
 21
497.18614851185418
  0
LINE
  8
_4-0_
  6
CONTINUOUS
 62
    7
 10
318.20901509943041
 20
497.18614851185418
 11
318.20901509943041
 21
511.18614851185412
  0
LINE
  8
_4-0_
  6
CONTINUOUS
 62
    7
 10
304.20901509943064
 20
494.49721603274247
 11
305.00901509943048
 21
493.72031315081005
  0
LINE
  8
_4-0_
  6
CONTINUOUS
 62
    7
 10
304.20901509943064
 20
494.49721603274247
 11
305.00901509943048
 21
495.32099982204715
  0
LINE
  8
_4-0_
  6
CONTINUOUS
 62
    7
 10
304.20901509943064
 20
496.09790270397957
 11
305.00901509943048
 21
495.32099982204715
  0
LINE
  8
_4-0_
  6
CONTINUOUS
 62
    7
 10
304.20901509943064
 20
496.09790270397957
 11
305.00901509943048
 21
496.92168649328425
  0
LINE
  8
_4-0_
  6
CONTINUOUS
 62
    7
 10
304.20901509943064
 20
492.89652936150542
 11
305.00901509943048
 21
493.72031315081005
  0
LINE
  8
_4-0_
  6
CONTINUOUS
 62
    7
 10
316.70901509943064
 20
493.21590554298001
 11
315.9090150994308
 21
492.43900266104753
  0
LINE
  8
_4-0_
  6
CONTINUOUS
 62
    7
 10
316.70901509943064
 20
493.21590554298001
 11
315.9090150994308
 21
494.03968933228463
  0
LINE
  8
_4-0_
  6
CONTINUOUS
 62
    7
 10
316.70901509943064
 20
494.81659221421705
 11
315.9090150994308
 21
494.03968933228463
  0
LINE
  8
_4-0_
  6
CONTINUOUS
 62
    7
 10
316.70901509943064
 20
494.81659221421705
 11
315.9090150994308
 21
495.64037600352173
  0
LINE
  8
_4-0_
  6
CONTINUOUS
 62
    7
 10
316.70901509943064
 20
496.41727888545415
 11
315.9090150994308
 21
495.64037600352173
  0
LINE
  8
_4-0_
  6
CONTINUOUS
 62
    7
 10
304.73669069469963
 20
497.18614851185418
 11
305.00901509943048
 21
496.92168649328425
  0
LINE
  8
_4-0_
  6
CONTINUOUS
 62
    7
 10
316.70901509943064
 20
496.41727888545415
 11
315.96234381370493
 21
497.18614851185418
  0
LINE
  8
_4-0_
  6
CONTINUOUS
 62
    7
 10
305.00901509943048
 20
496.92168649328425
 11
314.03484786223202
 21
497.18614851185418
  0
LINE
  8
_4-0_
  6
CONTINUOUS
 62
    7
 10
305.00901509943048
 20
495.32099982204715
 11
315.9090150994308
 21
495.64037600352173
  0
LINE
  8
_4-0_
  6
CONTINUOUS
 62
    7
 10
305.00901509943048
 20
493.72031315081005
 11
315.9090150994308
 21
494.03968933228463
  0
LINE
  8
_4-0_
  6
CONTINUOUS
 62
    7
 10
316.70901509943064
 20
491.61521887174285
 11
315.9090150994308
 21
492.43900266104753
  0
LINE
  8
_4-0_
  6
CONTINUOUS
 62
    7
 10
304.20901509943064
 20
492.89652936150542
 11
305.00901509943048
 21
492.11962647957295
  0
LINE
  8
_4-0_
  6
CONTINUOUS
 62
    7
 10
305.00901509943048
 20
492.11962647957295
 11
315.9090150994308
 21
492.43900266104753
  0
LINE
  8
_4-0_
  6
CONTINUOUS
 62
    7
 10
304.20901509943064
 20
491.29584269026827
 11
305.00901509943048
 21
492.11962647957295
  0
LINE
  8
_4-0_
  6
CONTINUOUS
 62
    7
 10
304.20901509943064
 20
491.29584269026827
 11
304.32197045687928
 21
491.18614851185412
  0
LINE
  8
_4-0_
  6
CONTINUOUS
 62
    7
 10
304.32197045687928
 20
491.18614851185412
 11
316.26718859074628
 21
491.18614851185412
  0
LINE
  8
_4-0_
  6
CONTINUOUS
 62
    7
 10
316.70901509943064
 20
491.61521887174285
 11
316.26718859074628
 21
491.18614851185412
  0
LINE
  8
_4-0_
  6
CONTINUOUS
 62
    4
 10
304.20901509943064
 20
491.29584269026827
 11
316.70901509943064
 21
491.61521887174285
  0
LINE
  8
_4-0_
  6
CONTINUOUS
 62
    4
 10
304.20901509943064
 20
492.89652936150542
 11
316.70901509943064
 21
493.21590554298001
  0
LINE
  8
_4-0_
  6
CONTINUOUS
 62
    4
 10
304.20901509943064
 20
494.49721603274247
 11
316.70901509943064
 21
494.81659221421705
  0
LINE
  8
_4-0_
  6
CONTINUOUS
 62
    4
 10
304.20901509943064
 20
496.09790270397957
 11
316.70901509943064
 21
496.41727888545415
  0
ARC
  8
_4-0_
  6
CONTINUOUS
 62
    7
 10
305.45901509943064
 20
518.68614851185407
 40
2
 50
270
 51
0
  0
ARC
  8
_4-0_
  6
CONTINUOUS
 62
    7
 10
315.45901509943064
 20
518.68614851185407
 40
2
 50
180
 51
270
  0
LINE
  8
_4-0_
  6
CONTINUOUS
 62
    7
 10
307.45901509943053
 20
518.68614851185407
 11
307.45901509943053
 21
521.18614851185407
  0
LINE
  8
_4-0_
  6
CONTINUOUS
 62
    7
 10
313.45901509943075
 20
518.68614851185407
 11
313.45901509943075
 21
521.18614851185407
  0
LINE
  8
_4-0_
  6
CONTINUOUS
 62
    7
 10
299.45901509943041
 20
511.18614851185412
 11
299.45901509943041
 21
516.68614851185418
  0
LINE
  8
_4-0_
  6
CONTINUOUS
 62
    7
 10
305.45901509943064
 20
516.68614851185418
 11
298.95901509943087
 21
516.68614851185418
  0
LINE
  8
_4-0_
  6
CONTINUOUS
 62
    7
 10
298.95901509943087
 20
516.68614851185418
 11
298.95901509943087
 21
521.18614851185407
  0
LINE
  8
_4-0_
  6
CONTINUOUS
 62
    7
 10
321.45901509943087
 20
511.18614851185412
 11
321.45901509943087
 21
516.68614851185418
  0
LINE
  8
_4-0_
  6
CONTINUOUS
 62
    7
 10
315.45901509943064
 20
516.68614851185418
 11
321.95901509943041
 21
516.68614851185418
  0
LINE
  8
_4-0_
  6
CONTINUOUS
 62
    7
 10
321.95901509943041
 20
516.68614851185418
 11
321.95901509943041
 21
521.18614851185407
  0
LINE
  8
_4-0_
  6
CONTINUOUS
 62
    4
 10
383.50967954334004
 20
491.18614851185412
 11
383.50967954334004
 21
537.68614851185418
  0
LINE
  8
_4-0_
  6
CONTINUOUS
 62
    7
 10
383.50967954334004
 20
491.18614851185412
 11
381.95676527272496
 21
496.98170346958852
  0
LINE
  8
_4-0_
  6
CONTINUOUS
 62
    7
 10
383.50967954334004
 20
491.18614851185412
 11
385.06259381395517
 21
496.98170346958852
  0
LINE
  8
_4-0_
  6
CONTINUOUS
 62
    7
 10
383.50967954334004
 20
537.68614851185418
 11
385.06259381395517
 21
531.89059355411973
  0
LINE
  8
_4-0_
  6
CONTINUOUS
 62
    7
 10
383.50967954334004
 20
537.68614851185418
 11
381.95676527272496
 21
531.89059355411973
  0
LINE
  8
_4-0_
  6
CONTINUOUS
 62
    4
 10
383.50967954334004
 20
491.18614851185412
 11
335.58766810740155
 21
491.18614851185412
  0
LINE
  8
_4-0_
  6
CONTINUOUS
 62
    4
 10
383.50967954334004
 20
537.68614851185418
 11
335.58766810740155
 21
537.68614851185418
  0
TEXT
  8
_4-0_
 62
    7
 10
382.50967954334004
 20
507.68614851185412
 40
6
 41
1
 50
90
  1
46.5
  0
LINE
  8
_4-0_
  6
CONTINUOUS
 62
    4
 10
383.50967954334004
 20
389.07133345127567
 11
383.50967954334004
 21
469.07133345127567
  0
LINE
  8
_4-0_
  6
CONTINUOUS
 62
    7
 10
383.50967954334004
 20
389.07133345127567
 11
381.9567652727249
 21
394.86688840901013
  0
LINE
  8
_4-0_
  6
CONTINUOUS
 62
    7
 10
383.50967954334004
 20
389.07133345127567
 11
385.06259381395517
 21
394.86688840901013
  0
LINE
  8
_4-0_
  6
CONTINUOUS
 62
    7
 10
383.50967954334004
 20
469.07133345127567
 11
385.06259381395517
 21
463.27577849354122
  0
LINE
  8
_4-0_
  6
CONTINUOUS
 62
    7
 10
383.50967954334004
 20
469.07133345127567
 11
381.95676527272496
 21
463.27577849354122
  0
LINE
  8
_4-0_
  6
CONTINUOUS
 62
    4
 10
383.50967954334004
 20
389.07133345127567
 11
335.58766810740155
 21
389.07133345127567
  0
LINE
  8
_4-0_
  6
CONTINUOUS
 62
    4
 10
383.50967954334004
 20
469.07133345127567
 11
335.58766810740155
 21
469.07133345127567
  0
TEXT
  8
_4-0_
 62
    7
 10
382.50967954334004
 20
425.82133345127567
 40
6
 41
1
 50
90
  1
80
  0
LINE
  8
_4-0_
  6
CONTINUOUS
 62
    4
 10
383.50967954334004
 20
315.95775974919399
 11
383.50967954334004
 21
358.45775974919399
  0
LINE
  8
_4-0_
  6
CONTINUOUS
 62
    7
 10
383.50967954334004
 20
315.95775974919399
 11
381.9567652727249
 21
321.75331470692844
  0
LINE
  8
_4-0_
  6
CONTINUOUS
 62
    7
 10
383.50967954334004
 20
315.95775974919399
 11
385.06259381395517
 21
321.75331470692844
  0
LINE
  8
_4-0_
  6
CONTINUOUS
 62
    7
 10
383.50967954334004
 20
358.45775974919399
 11
385.06259381395517
 21
352.66220479145954
  0
LINE
  8
_4-0_
  6
CONTINUOUS
 62
    7
 10
383.50967954334004
 20
358.45775974919399
 11
381.9567652727249
 21
352.66220479145954
  0
LINE
  8
_4-0_
  6
CONTINUOUS
 62
    4
 10
383.50967954334004
 20
315.95775974919399
 11
354.64573085994612
 21
315.95775974919399
  0
LINE
  8
_4-0_
  6
CONTINUOUS
 62
    4
 10
383.50967954334004
 20
358.45775974919399
 11
354.64573085994612
 21
358.45775974919399
  0
TEXT
  8
_4-0_
 62
    7
 10
382.50967954334004
 20
330.45775974919399
 40
6
 41
1
 50
90
  1
42.5
  0
CIRCLE
  8
_4-0_
  6
CONTINUOUS
 62
    7
 10
610.45901509943053
 20
358.45775974919399
 40
31.5
  0
CIRCLE
  8
_4-0_
  6
CONTINUOUS
 62
    4
 10
610.45901509943053
 20
358.45775974919399
 40
21.5
  0
CIRCLE
  8
_4-0_
  6
CONTINUOUS
 62
    4
 10
610.45901509943053
 20
358.45775974919399
 40
7.5
  0
CIRCLE
  8
_4-0_
  6
CONTINUOUS
 62
    7
 10
610.45901509943053
 20
358.45775974919399
 40
2.6
  0
LINE
  8
_4-0_
  6
CONTINUOUS
 62
    7
 10
606.23714531109283
 20
376.46958407351837
 11
607.69046332352797
 21
369.61953026574497
  0
LINE
  8
_4-0_
  6
CONTINUOUS
 62
    7
 10
614.68088488776822
 20
376.46958407351837
 11
613.22756687533285
 21
369.61953026574497
  0
LINE
  8
_4-0_
  6
CONTINUOUS
 62
    7
 10
606.23714531109283
 20
340.44593542486973
 11
607.69046332352797
 21
347.29598923264302
  0
LINE
  8
_4-0_
  6
CONTINUOUS
 62
    7
 10
614.68088488776822
 20
340.44593542486973
 11
613.22756687533285
 21
347.29598923264302
  0
LINE
  8
_4-0_
  6
CONTINUOUS
 62
    7
 10
628.47083942375468
 20
354.23588996085629
 11
621.62078561598139
 21
355.68920797329155
  0
LINE
  8
_4-0_
  6
CONTINUOUS
 62
    7
 10
628.47083942375468
 20
362.67962953753169
 11
621.62078561598139
 21
361.22631152509643
  0
LINE
  8
_4-0_
  6
CONTINUOUS
 62
    7
 10
592.44719077510615
 20
354.23588996085629
 11
599.29724458287944
 21
355.68920797329155
  0
LINE
  8
_4-0_
  6
CONTINUOUS
 62
    7
 10
592.44719077510615
 20
362.67962953753169
 11
599.29724458287944
 21
361.22631152509643
  0
ARC
  8
_4-0_
  6
CONTINUOUS
 62
    7
 10
610.45901509943053
 20
358.45775974919399
 40
11.5
 50
193.93043430981811
 51
256.06956569018183
  0
ARC
  8
_4-0_
  6
CONTINUOUS
 62
    7
 10
610.45901509943053
 20
358.45775974919399
 40
18.5
 50
193.19166145053341
 51
256.80833854946649
  0
ARC
  8
_4-0_
  6
CONTINUOUS
 62
    7
 10
610.45901509943053
 20
358.45775974919399
 40
18.5
 50
283.1916614505335
 51
346.80833854946661
  0
ARC
  8
_4-0_
  6
CONTINUOUS
 62
    7
 10
610.45901509943053
 20
358.45775974919399
 40
11.5
 50
283.93043430981816
 51
346.06956569018188
  0
ARC
  8
_4-0_
  6
CONTINUOUS
 62
    7
 10
610.45901509943053
 20
358.45775974919399
 40
18.5
 50
13.191661450533473
 51
76.80833854946654
  0
ARC
  8
_4-0_
  6
CONTINUOUS
 62
    7
 10
610.45901509943053
 20
358.45775974919399
 40
18.5
 50
103.19166145053347
 51
166.80833854946658
  0
ARC
  8
_4-0_
  6
CONTINUOUS
 62
    7
 10
610.45901509943053
 20
358.45775974919399
 40
11.5
 50
103.93043430981815
 51
166.06956569018188
  0
ARC
  8
_4-0_
  6
CONTINUOUS
 62
    7
 10
610.45901509943053
 20
358.45775974919399
 40
11.5
 50
13.930434309818128
 51
76.069565690181846
  0
ARC
  8
_4-0_
  6
CONTINUOUS
 62
    4
 10
610.45901509943053
 20
358.45775974919399
 40
18.5
 50
76.808338549466526
 51
103.19166145053347
  0
ARC
  8
_4-0_
  6
CONTINUOUS
 62
    4
 10
610.45901509943053
 20
358.45775974919399
 40
18.5
 50
346.80833854946644
 51
13.191661450533471
  0
ARC
  8
_4-0_
  6
CONTINUOUS
 62
    4
 10
610.45901509943053
 20
358.45775974919399
 40
18.5
 50
256.80833854946649
 51
283.1916614505335
  0
ARC
  8
_4-0_
  6
CONTINUOUS
 62
    4
 10
610.45901509943053
 20
358.45775974919399
 40
18.5
 50
166.80833854946658
 51
193.19166145053344
  0
ARC
  8
_4-0_
  6
CONTINUOUS
 62
    4
 10
610.45901509943053
 20
358.45775974919399
 40
11.500000000000017
 50
166.06956569018188
 51
193.93043430981808
  0
ARC
  8
_4-0_
  6
CONTINUOUS
 62
    4
 10
610.45901509943053
 20
358.45775974919399
 40
11.500000000000001
 50
256.06956569018183
 51
283.93043430981816
  0
ARC
  8
_4-0_
  6
CONTINUOUS
 62
    4
 10
610.45901509943053
 20
358.45775974919399
 40
11.500000000000017
 50
346.06956569018188
 51
13.930434309818098
  0
ARC
  8
_4-0_
  6
CONTINUOUS
 62
    4
 10
610.45901509943053
 20
358.45775974919399
 40
11.500000000000001
 50
76.069565690181846
 51
103.93043430981815
  0
LINE
  8
_4-0_
  6
CONTINUOUS
 62
    4
 10
641.95901531205538
 20
398.58721433678101
 11
578.95901531205538
 21
398.58721433678101
  0
LINE
  8
_4-0_
  6
CONTINUOUS
 62
    7
 10
641.95901531205538
 20
398.58721433678101
 11
639.06123783318832
 21
397.81075720147339
  0
LINE
  8
_4-0_
  6
CONTINUOUS
 62
    7
 10
641.95901531205538
 20
398.58721433678101
 11
639.06123783318832
 21
399.36367147208852
  0
LINE
  8
_4-0_
  6
CONTINUOUS
 62
    7
 10
578.95901531205538
 20
398.58721433678101
 11
581.85679279092266
 21
399.36367147208852
  0
LINE
  8
_4-0_
  6
CONTINUOUS
 62
    7
 10
578.95901531205538
 20
398.58721433678101
 11
581.85679279092266
 21
397.81075720147339
  0
LINE
  8
_4-0_
  6
CONTINUOUS
 62
    4
 10
641.95901531205538
 20
383.82150127790055
 11
641.95901531205538
 21
398.58721433678101
  0
LINE
  8
_4-0_
  6
CONTINUOUS
 62
    4
 10
578.95901531205538
 20
383.82150127790055
 11
578.95901531205538
 21
398.58721433678101
  0
TEXT
  8
_4-0_
 62
    7
 10
603.70901509943053
 20
398.58721433678101
 40
6
 41
1
 50
0
  1
φ63
  0
LINE
  8
_4-0_
  6
CONTINUOUS
 62
    4
 10
154.52908860003105
 20
232.38974787062448
 11
160.40914459542869
 21
231.52808782278253
  0
LINE
  8
_4-0_
  6
CONTINUOUS
 62
    4
 10
188.08307658648854
 20
229.22306628196719
 11
191.39238469128085
 21
229.24376139021075
  0
LINE
  8
_4-0_
  6
CONTINUOUS
 62
    4
 10
184.7213789445459
 20
229.22033969934392
 11
188.08307658648854
 21
229.22306628196719
  0
LINE
  8
_4-0_
  6
CONTINUOUS
 62
    4
 10
176.59751809667
 20
229.85802716606332
 11
184.7213789445459
 21
229.22033969934392
  0
LINE
  8
_4-0_
  6
CONTINUOUS
 62
    4
 10
168.48919719311766
 20
230.62330520243034
 11
176.59751809667
 21
229.85802716606332
  0
LINE
  8
_4-0_
  6
CONTINUOUS
 62
    4
 10
160.40914459542869
 20
231.52808782278253
 11
168.48919719311766
 21
230.62330520243034
  0
LINE
  8
_4-0_
  6
CONTINUOUS
 62
    4
 10
207.37770820669197
 20
229.51590967268924
 11
210.49307210345659
 21
229.58345593331688
  0
LINE
  8
_4-0_
  6
CONTINUOUS
 62
    4
 10
204.23928919620493
 20
229.44879234223702
 11
207.37770820669197
 21
229.51590967268924
  0
LINE
  8
_4-0_
  6
CONTINUOUS
 62
    4
 10
201.07539690253531
 20
229.38505746690606
 11
204.23928919620493
 21
229.44879234223702
  0
LINE
  8
_4-0_
  6
CONTINUOUS
 62
    4
 10
197.88267350721866
 20
229.32767124167884
 11
201.07539690253531
 21
229.38505746690606
  0
LINE
  8
_4-0_
  6
CONTINUOUS
 62
    4
 10
194.65678500920546
 20
229.2795939513341
 11
197.88267350721866
 21
229.32767124167884
  0
LINE
  8
_4-0_
  6
CONTINUOUS
 62
    4
 10
191.39238469128085
 20
229.24376139021075
 11
194.65678500920546
 21
229.2795939513341
  0
LINE
  8
_4-0_
  6
CONTINUOUS
 62
    4
 10
219.71168727613473
 20
229.75971328233225
 11
222.74149810782205
 21
229.80034372326105
  0
LINE
  8
_4-0_
  6
CONTINUOUS
 62
    4
 10
216.65982819012015
 20
229.70819597692201
 11
219.71168727613473
 21
229.75971328233225
  0
LINE
  8
_4-0_
  6
CONTINUOUS
 62
    4
 10
213.58689594053601
 20
229.64850884944706
 11
216.65982819012015
 21
229.70819597692201
  0
LINE
  8
_4-0_
  6
CONTINUOUS
 62
    4
 10
210.49307210345659
 20
229.58345593331688
 11
213.58689594053601
 21
229.64850884944706
  0
LINE
  8
_4-0_
  6
CONTINUOUS
 62
    4
 10
226.21195897623064
 20
229.73381180029662
 11
230.55200593838716
 21
229.43688482734233
  0
LINE
  8
_4-0_
  6
CONTINUOUS
 62
    4
 10
230.55200593838716
 20
229.43688482734233
 11
234.89198161095427
 21
229.12852563749851
  0
LINE
  8
_4-0_
  6
CONTINUOUS
 62
    4
 10
234.89198161095427
 20
229.12852563749851
 11
239.2318408739402
 21
228.80149865045569
  0
LINE
  8
_4-0_
  6
CONTINUOUS
 62
    4
 10
239.2318408739402
 20
228.80149865045569
 11
243.57153860735078
 21
228.44856828590405
  0
LINE
  8
_4-0_
  6
CONTINUOUS
 62
    4
 10
243.57153860735078
 20
228.44856828590405
 11
247.91102969119435
 21
228.06249896353409
  0
LINE
  8
_4-0_
  6
CONTINUOUS
 62
    4
 10
247.91102969119435
 20
228.06249896353409
 11
250.42782205336834
 21
227.82054329119472
  0
LINE
  8
_4-0_
  6
CONTINUOUS
 62
    4
 10
250.42782205336834
 20
227.82054329119472
 11
251.13107504113085
 21
227.75017672436985
  0
LINE
  8
_4-0_
  6
CONTINUOUS
 62
    4
 10
251.13107504113085
 20
227.75017672436985
 11
252.34298943719122
 21
227.62367549473555
  0
LINE
  8
_4-0_
  6
CONTINUOUS
 62
    4
 10
252.34298943719122
 20
227.62367549473555
 11
253.55328877059318
 21
227.48694386898972
  0
LINE
  8
_4-0_
  6
CONTINUOUS
 62
    4
 10
253.55328877059318
 20
227.48694386898972
 11
254.76096458645884
 21
227.33570976848551
  0
LINE
  8
_4-0_
  6
CONTINUOUS
 62
    4
 10
222.74149810782205
 20
229.80034372326105
 11
226.21195897623064
 21
229.73381180029662
  0
LINE
  8
_4-0_
  6
CONTINUOUS
 62
    4
 10
473.75510974758071
 20
233.46918194479525
 11
460.5088856034319
 21
231.52808782278253
  0
LINE
  8
_4-0_
  6
CONTINUOUS
 62
    4
 10
432.8349536123722
 20
229.22306628196719
 11
429.52564550757978
 21
229.24376139021075
  0
LINE
  8
_4-0_
  6
CONTINUOUS
 62
    4
 10
436.19665125431481
 20
229.22033969934392
 11
432.8349536123722
 21
229.22306628196719
  0
LINE
  8
_4-0_
  6
CONTINUOUS
 62
    4
 10
444.32051210219071
 20
229.85802716606332
 11
436.19665125431481
 21
229.22033969934392
  0
LINE
  8
_4-0_
  6
CONTINUOUS
 62
    4
 10
452.42883300574305
 20
230.62330520243034
 11
444.32051210219071
 21
229.85802716606332
  0
LINE
  8
_4-0_
  6
CONTINUOUS
 62
    4
 10
460.5088856034319
 20
231.52808782278253
 11
452.42883300574305
 21
230.62330520243034
  0
LINE
  8
_4-0_
  6
CONTINUOUS
 62
    4
 10
413.54032199216874
 20
229.51590967268924
 11
410.42495809540412
 21
229.58345593331688
  0
LINE
  8
_4-0_
  6
CONTINUOUS
 62
    4
 10
416.67874100265578
 20
229.44879234223702
 11
413.54032199216874
 21
229.51590967268924
  0
LINE
  8
_4-0_
  6
CONTINUOUS
 62
    4
 10
419.8426332963254
 20
229.38505746690606
 11
416.67874100265578
 21
229.44879234223702
  0
LINE
  8
_4-0_
  6
CONTINUOUS
 62
    4
 10
423.03535669164205
 20
229.32767124167884
 11
419.8426332963254
 21
229.38505746690606
  0
LINE
  8
_4-0_
  6
CONTINUOUS
 62
    4
 10
426.26124518965525
 20
229.2795939513341
 11
423.03535669164205
 21
229.32767124167884
  0
LINE
  8
_4-0_
  6
CONTINUOUS
 62
    4
 10
429.52564550757978
 20
229.24376139021075
 11
426.26124518965525
 21
229.2795939513341
  0
LINE
  8
_4-0_
  6
CONTINUOUS
 62
    4
 10
401.20634292272598
 20
229.75971328233225
 11
398.17653209103866
 21
229.80034372326105
  0
LINE
  8
_4-0_
  6
CONTINUOUS
 62
    4
 10
404.25820200874056
 20
229.70819597692201
 11
401.20634292272598
 21
229.75971328233225
  0
LINE
  8
_4-0_
  6
CONTINUOUS
 62
    4
 10
407.33113425832465
 20
229.64850884944706
 11
404.25820200874056
 21
229.70819597692201
  0
LINE
  8
_4-0_
  6
CONTINUOUS
 62
    4
 10
410.42495809540412
 20
229.58345593331688
 11
407.33113425832465
 21
229.64850884944706
  0
LINE
  8
_4-0_
  6
CONTINUOUS
 62
    4
 10
394.70607122262947
 20
229.73381180029679
 11
390.36602426047352
 21
229.43688482734233
  0
LINE
  8
_4-0_
  6
CONTINUOUS
 62
    4
 10
390.36602426047352
 20
229.43688482734233
 11
386.02604858790584
 21
229.12852563749862
  0
LINE
  8
_4-0_
  6
CONTINUOUS
 62
    4
 10
386.02604858790584
 20
229.12852563749862
 11
381.68618932492051
 21
228.80149865045581
  0
LINE
  8
_4-0_
  6
CONTINUOUS
 62
    4
 10
381.68618932492051
 20
228.80149865045581
 11
377.34649159150933
 21
228.44856828590422
  0
LINE
  8
_4-0_
  6
CONTINUOUS
 62
    4
 10
377.34649159150933
 20
228.44856828590422
 11
373.00700050766636
 21
228.06249896353409
  0
LINE
  8
_4-0_
  6
CONTINUOUS
 62
    4
 10
373.00700050766636
 20
228.06249896353409
 11
370.49020814549237
 21
227.82054329119489
  0
LINE
  8
_4-0_
  6
CONTINUOUS
 62
    4
 10
370.49020814549237
 20
227.82054329119489
 11
369.78695515772983
 21
227.75017672437002
  0
LINE
  8
_4-0_
  6
CONTINUOUS
 62
    4
 10
369.78695515772983
 20
227.75017672437002
 11
368.57504076167003
 21
227.62367549473555
  0
LINE
  8
_4-0_
  6
CONTINUOUS
 62
    4
 10
368.57504076167003
 20
227.62367549473555
 11
367.3647414282675
 21
227.48694386898972
  0
LINE
  8
_4-0_
  6
CONTINUOUS
 62
    4
 10
367.3647414282675
 20
227.48694386898972
 11
366.15706561240187
 21
227.33570976848568
  0
LINE
  8
_4-0_
  6
CONTINUOUS
 62
    4
 10
366.15706561240187
 20
227.33570976848568
 11
364.95302176895165
 21
227.16570111457616
  0
LINE
  8
_4-0_
  6
CONTINUOUS
 62
    4
 10
364.95302176895165
 20
227.16570111457616
 11
363.75361835279534
 21
226.97264582861424
  0
LINE
  8
_4-0_
  6
CONTINUOUS
 62
    4
 10
363.75361835279534
 20
226.97264582861424
 11
363.06048799887264
 21
226.84843037481488
  0
LINE
  8
_4-0_
  6
CONTINUOUS
 62
    4
 10
363.06048799887264
 20
226.84843037481488
 11
361.85442594009657
 21
226.60808924556835
  0
LINE
  8
_4-0_
  6
CONTINUOUS
 62
    4
 10
398.17653209103866
 20
229.80034372326105
 11
394.70607122262947
 21
229.73381180029679
  0
LINE
  8
_4-0_
  6
CONTINUOUS
 62
    4
 10
254.76096458645884
 20
227.33570976848551
 11
255.96500842990906
 21
227.16570111457616
  0
LINE
  8
_4-0_
  6
CONTINUOUS
 62
    4
 10
255.96500842990906
 20
227.16570111457616
 11
257.16441184606537
 21
226.97264582861407
  0
LINE
  8
_4-0_
  6
CONTINUOUS
 62
    4
 10
257.16441184606537
 20
226.97264582861407
 11
257.8575421999875
 21
226.84843037481468
  0
LINE
  8
_4-0_
  6
CONTINUOUS
 62
    4
 10
257.8575421999875
 20
226.84843037481468
 11
259.06360425876414
 21
226.60808924556835
  0
LINE
  8
_4-0_
  6
CONTINUOUS
 62
    4
 10
259.06360425876414
 20
226.60808924556835
 11
261.12974735013494
 21
226.13025915528152
  0
LINE
  8
_4-0_
  6
CONTINUOUS
 62
    4
 10
261.12974735013494
 20
226.13025915528152
 11
263.18174392457478
 21
225.58481093976621
  0
LINE
  8
_4-0_
  6
CONTINUOUS
 62
    4
 10
263.18174392457478
 20
225.58481093976621
 11
265.22268274123746
 21
224.98650838182328
  0
LINE
  8
_4-0_
  6
CONTINUOUS
 62
    4
 10
265.22268274123746
 20
224.98650838182328
 11
267.25565255927961
 21
224.35011526425381
  0
LINE
  8
_4-0_
  6
CONTINUOUS
 62
    4
 10
267.25565255927961
 20
224.35011526425381
 11
269.28374213785616
 21
223.69039536985877
  0
LINE
  8
_4-0_
  6
CONTINUOUS
 62
    4
 10
269.28374213785616
 20
223.69039536985877
 11
270.45901509943007
 21
223.30288720010872
  0
LINE
  8
_4-0_
  6
CONTINUOUS
 62
    4
 10
361.85442594009657
 20
226.60808924556835
 11
359.78828284872577
 21
226.13025915528152
  0
LINE
  8
_4-0_
  6
CONTINUOUS
 62
    4
 10
359.78828284872577
 20
226.13025915528152
 11
357.73628627428649
 21
225.58481093976621
  0
LINE
  8
_4-0_
  6
CONTINUOUS
 62
    4
 10
357.73628627428649
 20
225.58481093976621
 11
355.69534745762325
 21
224.98650838182339
  0
LINE
  8
_4-0_
  6
CONTINUOUS
 62
    4
 10
355.69534745762325
 20
224.98650838182339
 11
353.6623776395811
 21
224.35011526425381
  0
LINE
  8
_4-0_
  6
CONTINUOUS
 62
    4
 10
353.6623776395811
 20
224.35011526425381
 11
351.63428806100455
 21
223.69039536985891
  0
LINE
  8
_4-0_
  6
CONTINUOUS
 62
    4
 10
351.63428806100455
 20
223.69039536985891
 11
350.45901509943007
 21
223.30288720010872
  0
LINE
  8
_4-0_
  6
CONTINUOUS
 62
    4
 10
270.45901509943007
 20
223.36672644022388
 11
350.45901509943007
 21
223.36672644022388
  0
LINE
  8
_4-0_
  6
CONTINUOUS
 62
    4
 10
270.45901509943007
 20
223.30288720010872
 11
270.45901509943007
 21
213.36672644022388
  0
LINE
  8
_4-0_
  6
CONTINUOUS
 62
    4
 10
350.45901509943007
 20
223.30288720010872
 11
350.45901509943007
 21
213.36672644022388
  0
LINE
  8
_4-0_
  6
CONTINUOUS
 62
    4
 10
270.45901509943007
 20
213.36672644022388
 11
350.45901509943007
 21
213.36672644022388
  0
LINE
  8
_4-0_
  6
DASHED1
 62
    4
 10
287.95901509943007
 20
213.36672644022388
 11
277.95901509943007
 21
223.36672644022388
  0
LINE
  8
_4-0_
  6
DASHED1
 62
    4
 10
332.95901509943007
 20
213.36672644022388
 11
342.95901509943007
 21
223.36672644022388
  0
LINE
  8
_4-0_
  6
CONTINUOUS
 62
    4
 10
472.30520030560512
 20
243.36351176596411
 11
459.22715161877306
 21
241.44706197943236
  0
LINE
  8
_4-0_
  6
CONTINUOUS
 62
    4
 10
459.22715161877306
 20
241.44706197943236
 11
451.40252502219937
 21
240.57088127766934
  0
LINE
  8
_4-0_
  6
CONTINUOUS
 62
    4
 10
451.40252502219937
 20
240.57088127766934
 11
443.45936292885141
 21
239.82119122942759
  0
LINE
  8
_4-0_
  6
CONTINUOUS
 62
    4
 10
443.45936292885141
 20
239.82119122942759
 11
435.80882508687409
 21
239.22065754392434
  0
LINE
  8
_4-0_
  6
CONTINUOUS
 62
    4
 10
435.80882508687409
 20
239.22065754392434
 11
432.87027665568638
 21
239.2230409215935
  0
LINE
  8
_4-0_
  6
CONTINUOUS
 62
    4
 10
432.87027665568638
 20
239.2230409215935
 11
429.61179393337545
 21
239.24341818793209
  0
LINE
  8
_4-0_
  6
CONTINUOUS
 62
    4
 10
429.61179393337545
 20
239.24341818793209
 11
426.39063584655161
 21
239.27877608916759
  0
LINE
  8
_4-0_
  6
CONTINUOUS
 62
    4
 10
426.39063584655161
 20
239.27877608916759
 11
423.19972253210437
 21
239.32633212403288
  0
LINE
  8
_4-0_
  6
CONTINUOUS
 62
    4
 10
423.19972253210437
 20
239.32633212403288
 11
420.03319117157161
 21
239.38324757186393
  0
LINE
  8
_4-0_
  6
CONTINUOUS
 62
    4
 10
420.03319117157161
 20
239.38324757186393
 11
416.88634703558591
 21
239.44663902140672
  0
LINE
  8
_4-0_
  6
CONTINUOUS
 62
    4
 10
416.88634703558591
 20
239.44663902140672
 11
413.75560894967463
 21
239.51359208980494
  0
LINE
  8
_4-0_
  6
CONTINUOUS
 62
    4
 10
413.75560894967463
 20
239.51359208980494
 11
410.63845122952727
 21
239.58117724350103
  0
LINE
  8
_4-0_
  6
CONTINUOUS
 62
    4
 10
410.63845122952727
 20
239.58117724350103
 11
407.53334390258032
 21
239.64646741422581
  0
LINE
  8
_4-0_
  6
CONTINUOUS
 62
    4
 10
407.53334390258032
 20
239.64646741422581
 11
404.43969266187309
 21
239.70655697721309
  0
LINE
  8
_4-0_
  6
CONTINUOUS
 62
    4
 10
404.43969266187309
 20
239.70655697721309
 11
401.35777959786025
 21
239.75858161271941
  0
LINE
  8
_4-0_
  6
CONTINUOUS
 62
    4
 10
401.35777959786025
 20
239.75858161271941
 11
398.14773255678005
 21
239.80162906152958
  0
LINE
  8
_4-0_
  6
CONTINUOUS
 62
    4
 10
398.14773255678005
 20
239.80162906152958
 11
394.26868996291034
 21
239.72726425154718
  0
LINE
  8
_4-0_
  6
CONTINUOUS
 62
    4
 10
394.26868996291034
 20
239.72726425154718
 11
389.67038159035041
 21
239.41266816591013
  0
LINE
  8
_4-0_
  6
CONTINUOUS
 62
    4
 10
389.67038159035041
 20
239.41266816591013
 11
385.29597780302708
 21
239.10186282743001
  0
LINE
  8
_4-0_
  6
CONTINUOUS
 62
    4
 10
385.29597780302708
 20
239.10186282743001
 11
380.90518415087444
 21
238.77099771596493
  0
LINE
  8
_4-0_
  6
CONTINUOUS
 62
    4
 10
380.90518415087444
 20
238.77099771596493
 11
376.49810490484469
 21
238.41258748086164
  0
LINE
  8
_4-0_
  6
CONTINUOUS
 62
    4
 10
376.49810490484469
 20
238.41258748086164
 11
372.08542981209063
 21
238.02000723355052
  0
LINE
  8
_4-0_
  6
CONTINUOUS
 62
    4
 10
372.08542981209063
 20
238.02000723355052
 11
369.51392019245304
 21
237.7727912342105
  0
LINE
  8
_4-0_
  6
CONTINUOUS
 62
    4
 10
369.51392019245304
 20
237.7727912342105
 11
368.77005641149764
 21
237.69836120495784
  0
LINE
  8
_4-0_
  6
CONTINUOUS
 62
    4
 10
368.77005641149764
 20
237.69836120495784
 11
367.49463841906617
 21
237.56523138583446
  0
LINE
  8
_4-0_
  6
CONTINUOUS
 62
    4
 10
367.49463841906617
 20
237.56523138583446
 11
366.18211735978718
 21
237.416951424582
  0
LINE
  8
_4-0_
  6
CONTINUOUS
 62
    4
 10
366.18211735978718
 20
237.416951424582
 11
364.83664366644802
 21
237.24846125438006
  0
LINE
  8
_4-0_
  6
CONTINUOUS
 62
    4
 10
364.83664366644802
 20
237.24846125438006
 11
363.45925608848176
 21
237.05397680157904
  0
LINE
  8
_4-0_
  6
CONTINUOUS
 62
    4
 10
363.45925608848176
 20
237.05397680157904
 11
362.07692069196241
 21
236.83147688897616
  0
LINE
  8
_4-0_
  6
CONTINUOUS
 62
    4
 10
362.07692069196241
 20
236.83147688897616
 11
361.20114359956971
 21
236.67452942831033
  0
LINE
  8
_4-0_
  6
CONTINUOUS
 62
    4
 10
361.20114359956971
 20
236.67452942831033
 11
359.75016185208062
 21
236.38538129603131
  0
LINE
  8
_4-0_
  6
CONTINUOUS
 62
    4
 10
359.75016185208062
 20
236.38538129603131
 11
357.37658297082418
 21
235.83645154577806
  0
LINE
  8
_4-0_
  6
CONTINUOUS
 62
    4
 10
357.37658297082418
 20
235.83645154577806
 11
355.04482944651499
 21
235.2166401802529
  0
LINE
  8
_4-0_
  6
CONTINUOUS
 62
    4
 10
355.04482944651499
 20
235.2166401802529
 11
352.79484051697977
 21
234.55705444407459
  0
LINE
  8
_4-0_
  6
CONTINUOUS
 62
    4
 10
352.79484051697977
 20
234.55705444407459
 11
350.62189490099285
 21
233.87684383662016
  0
LINE
  8
_4-0_
  6
CONTINUOUS
 62
    4
 10
350.62189490099285
 20
233.87684383662016
 11
348.52191469366516
 21
233.19373854618135
  0
LINE
  8
_4-0_
  6
CONTINUOUS
 62
    4
 10
270.29613529786274
 20
233.8768438366219
 11
268.12318968188321
 21
234.55705444407385
  0
LINE
  8
_4-0_
  6
CONTINUOUS
 62
    4
 10
268.12318968188321
 20
234.55705444407385
 11
265.8732007523497
 21
235.21664018025202
  0
LINE
  8
_4-0_
  6
CONTINUOUS
 62
    4
 10
265.8732007523497
 20
235.21664018025202
 11
263.54144722803596
 21
235.83645154577826
  0
LINE
  8
_4-0_
  6
CONTINUOUS
 62
    4
 10
263.54144722803596
 20
235.83645154577826
 11
261.16786834678407
 21
236.38538129603034
  0
LINE
  8
_4-0_
  6
CONTINUOUS
 62
    4
 10
261.16786834678407
 20
236.38538129603034
 11
259.71688659928588
 21
236.6745294283109
  0
LINE
  8
_4-0_
  6
CONTINUOUS
 62
    4
 10
259.71688659928588
 20
236.6745294283109
 11
258.84110950690057
 21
236.8314768889756
  0
LINE
  8
_4-0_
  6
CONTINUOUS
 62
    4
 10
258.84110950690057
 20
236.8314768889756
 11
257.45877411036701
 21
237.05397680158085
  0
LINE
  8
_4-0_
  6
CONTINUOUS
 62
    4
 10
257.45877411036701
 20
237.05397680158085
 11
256.08138653242008
 21
237.24846125437892
  0
LINE
  8
_4-0_
  6
CONTINUOUS
 62
    4
 10
256.08138653242008
 20
237.24846125437892
 11
254.73591283908035
 21
237.4169514245811
  0
LINE
  8
_4-0_
  6
CONTINUOUS
 62
    4
 10
254.73591283908035
 20
237.4169514245811
 11
253.42339177977351
 21
237.56523138583685
  0
LINE
  8
_4-0_
  6
CONTINUOUS
 62
    4
 10
253.42339177977351
 20
237.56523138583685
 11
252.14797378738694
 21
237.69836120495537
  0
LINE
  8
_4-0_
  6
CONTINUOUS
 62
    4
 10
252.14797378738694
 20
237.69836120495537
 11
251.40411000642984
 21
237.77279123420822
  0
LINE
  8
_4-0_
  6
CONTINUOUS
 62
    4
 10
251.40411000642984
 20
237.77279123420822
 11
248.83260038676496
 21
238.02000723355095
  0
LINE
  8
_4-0_
  6
CONTINUOUS
 62
    4
 10
248.83260038676496
 20
238.02000723355095
 11
244.41992529400863
 21
238.41258748086201
  0
LINE
  8
_4-0_
  6
CONTINUOUS
 62
    4
 10
244.41992529400863
 20
238.41258748086201
 11
240.01284604798627
 21
238.77099771596476
  0
LINE
  8
_4-0_
  6
CONTINUOUS
 62
    4
 10
240.01284604798627
 20
238.77099771596476
 11
235.62205239583306
 21
239.10186282742984
  0
LINE
  8
_4-0_
  6
CONTINUOUS
 62
    4
 10
235.62205239583306
 20
239.10186282742984
 11
231.2476486084563
 21
239.41266816591397
  0
LINE
  8
_4-0_
  6
CONTINUOUS
 62
    4
 10
231.2476486084563
 20
239.41266816591397
 11
226.64934023595264
 21
239.72726425154706
  0
LINE
  8
_4-0_
  6
CONTINUOUS
 62
    4
 10
226.64934023595264
 20
239.72726425154706
 11
222.77029764208123
 21
239.80162906152958
  0
LINE
  8
_4-0_
  6
CONTINUOUS
 62
    4
 10
222.77029764208123
 20
239.80162906152958
 11
219.56025060100046
 21
239.75858161271941
  0
LINE
  8
_4-0_
  6
CONTINUOUS
 62
    4
 10
219.56025060100046
 20
239.75858161271941
 11
216.47833753698759
 21
239.70655697721309
  0
LINE
  8
_4-0_
  6
CONTINUOUS
 62
    4
 10
216.47833753698759
 20
239.70655697721309
 11
213.38468629628039
 21
239.64646741422581
  0
LINE
  8
_4-0_
  6
CONTINUOUS
 62
    4
 10
213.38468629628039
 20
239.64646741422581
 11
210.27957896933344
 21
239.58117724350103
  0
LINE
  8
_4-0_
  6
CONTINUOUS
 62
    4
 10
210.27957896933344
 20
239.58117724350103
 11
207.16242124918608
 21
239.51359208980494
  0
LINE
  8
_4-0_
  6
CONTINUOUS
 62
    4
 10
207.16242124918608
 20
239.51359208980494
 11
204.0316831632748
 21
239.44663902140672
  0
LINE
  8
_4-0_
  6
CONTINUOUS
 62
    4
 10
204.0316831632748
 20
239.44663902140672
 11
200.8848390272891
 21
239.38324757186393
  0
LINE
  8
_4-0_
  6
CONTINUOUS
 62
    4
 10
200.8848390272891
 20
239.38324757186393
 11
197.71830766675574
 21
239.32633212403288
  0
LINE
  8
_4-0_
  6
CONTINUOUS
 62
    4
 10
197.71830766675574
 20
239.32633212403288
 11
194.5273943523091
 21
239.27877608916759
  0
LINE
  8
_4-0_
  6
CONTINUOUS
 62
    4
 10
194.5273943523091
 20
239.27877608916759
 11
191.30623626548526
 21
239.24341818793209
  0
LINE
  8
_4-0_
  6
CONTINUOUS
 62
    4
 10
191.30623626548526
 20
239.24341818793209
 11
188.04775354317425
 21
239.2230409215935
  0
LINE
  8
_4-0_
  6
CONTINUOUS
 62
    4
 10
188.04775354317425
 20
239.2230409215935
 11
185.10920511198662
 21
239.22065754392434
  0
LINE
  8
_4-0_
  6
CONTINUOUS
 62
    4
 10
185.10920511198662
 20
239.22065754392434
 11
177.4586672700093
 21
239.82119122942759
  0
LINE
  8
_4-0_
  6
CONTINUOUS
 62
    4
 10
177.4586672700093
 20
239.82119122942759
 11
169.51550517666134
 21
240.57088127766934
  0
LINE
  8
_4-0_
  6
CONTINUOUS
 62
    4
 10
169.51550517666134
 20
240.57088127766934
 11
161.69087858008765
 21
241.44706197943236
  0
LINE
  8
_4-0_
  6
CONTINUOUS
 62
    4
 10
161.69087858008765
 20
241.44706197943236
 11
155.97899804200665
 21
242.28407769179324
  0
LINE
  8
_4-0_
  6
CONTINUOUS
 62
    4
 10
272.25978277011847
 20
233.23808639873033
 11
270.29613529786274
 21
233.8768438366219
  0
LINE
  8
_4-0_
  6
CONTINUOUS
 62
    4
 10
277.95901509943007
 20
223.36672644022388
 11
272.25978277011847
 21
233.23808639873033
  0
LINE
  8
_4-0_
  6
CONTINUOUS
 62
    4
 10
342.95901509943007
 20
223.36672644022388
 11
345.30823422164701
 21
232.1341315624507
  0
LINE
  8
_4-0_
  6
CONTINUOUS
 62
    4
 10
348.52191469366516
 20
233.19373854618135
 11
345.30823422164701
 21
232.1341315624507
  0
LINE
  8
_4-0_
  6
CONTINUOUS
 62
    4
 10
165.65985250838991
 20
238.46910451056345
 11
116.65695122283523
 21
266.76094275885117
  0
LINE
  8
_4-0_
  6
CONTINUOUS
 62
    7
 10
280.45901509943064
 20
263.58399489770829
 11
340.45901509943064
 21
263.58399489770829
  0
CIRCLE
  8
_4-0_
  6
CONTINUOUS
 62
    7
 10
610.45901509943053
 20
514.43614851185418
 40
20
  0
LINE
  8
_4-0_
  6
CONTINUOUS
 62
    4
 10
630.45901531205538
 20
540.18890867145216
 11
590.45901531205538
 21
540.18890867145216
  0
LINE
  8
_4-0_
  6
CONTINUOUS
 62
    7
 10
630.45901531205538
 20
540.18890867145216
 11
627.56123783318832
 21
539.41245153614465
  0
LINE
  8
_4-0_
  6
CONTINUOUS
 62
    7
 10
630.45901531205538
 20
540.18890867145216
 11
627.56123783318832
 21
540.96536580675979
  0
LINE
  8
_4-0_
  6
CONTINUOUS
 62
    7
 10
590.45901531205538
 20
540.18890867145216
 11
593.35679279092266
 21
540.96536580675979
  0
LINE
  8
_4-0_
  6
CONTINUOUS
 62
    7
 10
590.45901531205538
 20
540.18890867145216
 11
593.35679279092266
 21
539.41245153614465
  0
LINE
  8
_4-0_
  6
CONTINUOUS
 62
    4
 10
630.45901531205538
 20
528.62109159239037
 11
630.45901531205538
 21
540.18890867145216
  0
LINE
  8
_4-0_
  6
CONTINUOUS
 62
    4
 10
590.45901531205538
 20
528.62109159239037
 11
590.45901531205538
 21
540.18890867145216
  0
TEXT
  8
_4-0_
 62
    7
 10
603.70901531205538
 20
540.18890867145216
 40
6
 41
1
 50
0
  1
φ40
  0
CIRCLE
  8
_4-0_
  6
CONTINUOUS
 62
    7
 10
610.45901509943053
 20
181.33990117272674
 40
30
  0
LINE
  8
_4-0_
  6
CONTINUOUS
 62
    7
 10
611.20901509943053
 20
201.83990117272668
 11
609.70901509943053
 21
201.83990117272668
  0
LINE
  8
_4-0_
  6
CONTINUOUS
 62
    7
 10
593.08049432184941
 20
170.44038211988839
 11
592.33049432184941
 21
171.73942022556508
  0
LINE
  8
_4-0_
  6
CONTINUOUS
 62
    7
 10
627.83753587701141
 20
170.44038211988839
 11
628.58753587701141
 21
171.73942022556508
  0
LINE
  8
_4-0_
  6
CONTINUOUS
 62
    7
 10
611.20901509943053
 20
202.82681579535227
 11
611.20901509943053
 21
201.83990117272668
  0
LINE
  8
_4-0_
  6
CONTINUOUS
 62
    7
 10
609.70901509943053
 20
201.83990117272668
 11
609.70901509943053
 21
202.82681579535227
  0
LINE
  8
_4-0_
  6
CONTINUOUS
 62
    7
 10
592.33049432184941
 20
171.73942022556508
 11
591.47580118728944
 21
171.24596291425228
  0
ARC
  8
_4-0_
  6
CONTINUOUS
 62
    7
 10
610.45901509943053
 20
181.33990117272674
 40
21.5
 50
91.999095564121631
 51
208.00090443587828
  0
LINE
  8
_4-0_
  6
CONTINUOUS
 62
    7
 10
592.22580118728944
 20
169.9469248085756
 11
593.08049432184941
 21
170.44038211988839
  0
LINE
  8
_4-0_
  6
CONTINUOUS
 62
    7
 10
628.69222901157161
 20
169.9469248085756
 11
627.83753587701141
 21
170.44038211988839
  0
ARC
  8
_4-0_
  6
CONTINUOUS
 62
    7
 10
610.45901509943053
 20
181.33990117272674
 40
21.5
 50
211.9990955641216
 51
328.00090443587839
  0
LINE
  8
_4-0_
  6
CONTINUOUS
 62
    7
 10
628.58753587701141
 20
171.73942022556508
 11
629.44222901157161
 21
171.24596291425228
  0
ARC
  8
_4-0_
  6
CONTINUOUS
 62
    7
 10
610.45901509943053
 20
181.33990117272674
 40
21.5
 50
331.99909556412171
 51
88.000904435878368
  0
CIRCLE
  8
_4-0_
  6
CONTINUOUS
 62
    4
 10
610.45901509943053
 20
181.33990117272674
 40
27.5
  0
LINE
  8
_4-0_
  6
CONTINUOUS
 62
    4
 10
640.45901531205538
 20
216.53135550560597
 11
580.45901531205538
 21
216.53135550560597
  0
LINE
  8
_4-0_
  6
CONTINUOUS
 62
    7
 10
640.45901531205538
 20
216.53135550560597
 11
637.56123783318832
 21
215.75489837029834
  0
LINE
  8
_4-0_
  6
CONTINUOUS
 62
    7
 10
640.45901531205538
 20
216.53135550560597
 11
637.56123783318832
 21
217.30781264091348
  0
LINE
  8
_4-0_
  6
CONTINUOUS
 62
    7
 10
580.45901531205538
 20
216.53135550560597
 11
583.35679279092266
 21
217.30781264091348
  0
LINE
  8
_4-0_
  6
CONTINUOUS
 62
    7
 10
580.45901531205538
 20
216.53135550560597
 11
583.35679279092266
 21
215.75489837029834
  0
LINE
  8
_4-0_
  6
CONTINUOUS
 62
    4
 10
640.45901531205538
 20
198.7429920253848
 11
640.45901531205538
 21
216.53135550560597
  0
LINE
  8
_4-0_
  6
CONTINUOUS
 62
    4
 10
580.45901531205538
 20
198.7429920253848
 11
580.45901531205538
 21
216.53135550560597
  0
TEXT
  8
_4-0_
 62
    7
 10
603.70901509943053
 20
216.53135550560597
 40
6
 41
1
 50
0
  1
φ60
  0
LINE
  8
_4-0_
  6
CONTINUOUS
 62
    7
 10
285.45901509943064
 20
91.854280684321452
 11
335.45901509943064
 21
91.854280684321452
  0
LINE
  8
_4-0_
  6
CONTINUOUS
 62
    7
 10
278.95901509943087
 20
113.8542806843215
 11
341.95901509943041
 21
113.8542806843215
  0
LINE
  8
_4-0_
  6
CONTINUOUS
 62
    7
 10
278.95901509943087
 20
107.85428068432156
 11
278.95901509943087
 21
113.8542806843215
  0
LINE
  8
_4-0_
  6
CONTINUOUS
 62
    7
 10
278.95901509943087
 20
107.85428068432156
 11
341.95901509943041
 21
107.85428068432156
  0
LINE
  8
_4-0_
  6
CONTINUOUS
 62
    7
 10
341.95901509943041
 20
107.85428068432156
 11
341.95901509943041
 21
113.8542806843215
  0
LINE
  8
_4-0_
  6
CONTINUOUS
 62
    7
 10
285.45901509943064
 20
91.854280684321452
 11
285.45901509943064
 21
107.85428068432156
  0
LINE
  8
_4-0_
  6
CONTINUOUS
 62
    7
 10
335.45901509943064
 20
91.854280684321452
 11
335.45901509943064
 21
107.85428068432156
  0
LINE
  8
_4-0_
  6
CONTINUOUS
 62
    7
 10
289.45901509943041
 20
79.354280684321452
 11
331.45901509943087
 21
79.354280684321452
  0
LINE
  8
_4-0_
  6
CONTINUOUS
 62
    7
 10
304.45901509943041
 20
75.354280684321565
 11
304.45901509943041
 21
79.354280684321452
  0
LINE
  8
_4-0_
  6
CONTINUOUS
 62
    7
 10
304.45901509943041
 20
75.354280684321565
 11
316.45901509943087
 21
75.354280684321565
  0
LINE
  8
_4-0_
  6
CONTINUOUS
 62
    7
 10
316.45901509943087
 20
75.354280684321565
 11
316.45901509943087
 21
79.354280684321452
  0
LINE
  8
_4-0_
  6
CONTINUOUS
 62
    7
 10
289.45901509943041
 20
86.851015673997238
 11
290.95901509943075
 21
85.654416288885101
  0
LINE
  8
_4-0_
  6
CONTINUOUS
 62
    7
 10
290.95901509943075
 20
85.654416288885101
 11
289.45901509943041
 21
84.349383168835174
  0
LINE
  8
_4-0_
  6
CONTINUOUS
 62
    7
 10
289.45901509943041
 20
84.349383168835174
 11
290.95901509943075
 21
83.152783783722981
  0
LINE
  8
_4-0_
  6
CONTINUOUS
 62
    7
 10
289.45901509943041
 20
91.854280684321452
 11
290.95901509943075
 21
90.657681299209286
  0
LINE
  8
_4-0_
  6
CONTINUOUS
 62
    7
 10
290.95901509943075
 20
90.657681299209286
 11
289.45901509943041
 21
89.352648179159359
  0
LINE
  8
_4-0_
  6
CONTINUOUS
 62
    7
 10
289.45901509943041
 20
89.352648179159359
 11
290.95901509943075
 21
88.156048794047165
  0
LINE
  8
_4-0_
  6
CONTINUOUS
 62
    7
 10
290.95901509943075
 20
88.156048794047165
 11
289.45901509943041
 21
86.851015673997238
  0
LINE
  8
_4-0_
  6
CONTINUOUS
 62
    4
 10
289.45901509943041
 20
89.352648179159359
 11
331.45901509943087
 21
90.760980302806956
  0
LINE
  8
_4-0_
  6
CONTINUOUS
 62
    7
 10
331.4590150994303
 20
90.760980302806501
 11
329.95901509943053
 21
89.564380917694279
  0
LINE
  8
_4-0_
  6
CONTINUOUS
 62
    7
 10
329.95901509943053
 20
89.564380917694279
 11
331.4590150994303
 21
88.25934779764438
  0
LINE
  8
_4-0_
  6
CONTINUOUS
 62
    7
 10
331.4590150994303
 20
88.25934779764438
 11
329.95901509943053
 21
87.062748412532158
  0
LINE
  8
_4-0_
  6
CONTINUOUS
 62
    7
 10
329.95901509943053
 20
87.062748412532158
 11
331.4590150994303
 21
85.757715292482316
  0
LINE
  8
_4-0_
  6
CONTINUOUS
 62
    7
 10
331.4590150994303
 20
85.757715292482316
 11
329.95901509943053
 21
84.561115907370094
  0
LINE
  8
_4-0_
  6
CONTINUOUS
 62
    7
 10
329.95901509943053
 20
84.561115907370094
 11
290.95901509943075
 21
83.152783783722725
  0
LINE
  8
_4-0_
  6
CONTINUOUS
 62
    7
 10
329.95901509943053
 20
87.062748412532158
 11
290.95901509943075
 21
85.654416288884817
  0
LINE
  8
_4-0_
  6
CONTINUOUS
 62
    7
 10
329.95901509943053
 20
89.564380917694279
 11
290.95901509943075
 21
88.15604879404691
  0
LINE
  8
_4-0_
  6
CONTINUOUS
 62
    4
 10
289.45901509943041
 20
86.851015673997238
 11
331.4590150994303
 21
88.259347797644693
  0
LINE
  8
_4-0_
  6
CONTINUOUS
 62
    4
 10
289.45901509943041
 20
84.349383168835174
 11
331.4590150994303
 21
85.757715292482572
  0
LINE
  8
_4-0_
  6
CONTINUOUS
 62
    7
 10
324.09564191905076
 20
91.854280684321452
 11
290.95901509943075
 21
90.657681299208974
  0
LINE
  8
_4-0_
  6
CONTINUOUS
 62
    7
 10
330.20237988682367
 20
91.854280684321452
 11
331.4590150994303
 21
90.760980302806501
  0
LINE
  8
_4-0_
  6
CONTINUOUS
 62
    7
 10
289.45901509943041
 20
81.847750663673082
 11
290.95901509943075
 21
80.651151278560917
  0
LINE
  8
_4-0_
  6
CONTINUOUS
 62
    7
 10
290.95901509943075
 20
80.651151278560917
 11
289.45901509943041
 21
79.346118158510989
  0
LINE
  8
_4-0_
  6
CONTINUOUS
 62
    7
 10
290.95901509943075
 20
83.152783783722981
 11
289.45901509943041
 21
81.847750663673082
  0
LINE
  8
_4-0_
  6
CONTINUOUS
 62
    7
 10
329.95901509943053
 20
84.561115907370094
 11
331.4590150994303
 21
83.256082787320224
  0
LINE
  8
_4-0_
  6
CONTINUOUS
 62
    7
 10
331.4590150994303
 20
83.256082787320224
 11
329.95901509943053
 21
82.059483402208002
  0
LINE
  8
_4-0_
  6
CONTINUOUS
 62
    7
 10
329.95901509943053
 20
82.059483402207888
 11
331.4590150994303
 21
80.754450282158131
  0
LINE
  8
_4-0_
  6
CONTINUOUS
 62
    7
 10
331.4590150994303
 20
80.754450282158131
 11
329.95901509943053
 21
79.557850897045767
  0
LINE
  8
_4-0_
  6
CONTINUOUS
 62
    7
 10
329.95901509943053
 20
82.059483402208002
 11
290.95901509943075
 21
80.651151278560604
  0
LINE
  8
_4-0_
  6
CONTINUOUS
 62
    4
 10
289.45901509943041
 20
81.847750663673082
 11
331.4590150994303
 21
83.256082787320508
  0
LINE
  8
_4-0_
  6
CONTINUOUS
 62
    4
 10
289.7024421137587
 20
79.354280684321452
 11
331.4590150994303
 21
80.754450282158387
  0
LINE
  8
_4-0_
  6
CONTINUOUS
 62
    7
 10
329.95901509943053
 20
79.557850897045909
 11
324.32168128949854
 21
79.354280684321452
  0
LINE
  8
_4-0_
  6
CONTINUOUS
 62
    4
 10
383.50967954334004
 20
75.354280684321565
 11
383.50967954334004
 21
113.8542806843215
  0
LINE
  8
_4-0_
  6
CONTINUOUS
 62
    7
 10
383.50967954334004
 20
75.354280684321565
 11
381.9567652727249
 21
81.149835642055933
  0
LINE
  8
_4-0_
  6
CONTINUOUS
 62
    7
 10
383.50967954334004
 20
75.354280684321565
 11
385.06259381395517
 21
81.149835642055933
  0
LINE
  8
_4-0_
  6
CONTINUOUS
 62
    7
 10
383.50967954334004
 20
113.8542806843215
 11
385.06259381395517
 21
108.05872572658711
  0
LINE
  8
_4-0_
  6
CONTINUOUS
 62
    7
 10
383.50967954334004
 20
113.8542806843215
 11
381.9567652727249
 21
108.05872572658711
  0
LINE
  8
_4-0_
  6
CONTINUOUS
 62
    4
 10
383.50967954334004
 20
75.354280684321565
 11
354.64573085994612
 21
75.354280684321565
  0
LINE
  8
_4-0_
  6
CONTINUOUS
 62
    4
 10
383.50967954334004
 20
113.8542806843215
 11
354.64573085994612
 21
113.8542806843215
  0
TEXT
  8
_4-0_
 62
    7
 10
382.50967954334004
 20
87.854280684321565
 40
6
 41
1
 50
90
  1
38.5
  0
CIRCLE
  8
_4-0_
  6
CONTINUOUS
 62
    7
 10
610.45901509943053
 20
94.604280684321565
 40
31.5
  0
CIRCLE
  8
_4-0_
  6
CONTINUOUS
 62
    7
 10
610.45901509943053
 20
94.604280684321565
 40
3
  0
CIRCLE
  8
_4-0_
  6
CONTINUOUS
 62
    4
 10
610.45901509943053
 20
94.604280684321565
 40
23.5
  0
CIRCLE
  8
_4-0_
  6
CONTINUOUS
 62
    4
 10
610.45901509943053
 20
94.604280684321565
 40
4
  0
ARC
  8
_4-0_
  6
CONTINUOUS
 62
    7
 10
610.45901509943053
 20
94.604280684321565
 40
7
 50
20.924832427638289
 51
159.07516757236169
  0
ARC
  8
_4-0_
  6
CONTINUOUS
 62
    7
 10
610.45901509943053
 20
94.604280684321565
 40
7
 50
200.9248324276383
 51
339.07516757236169
  0
LINE
  8
_4-0_
  6
CONTINUOUS
 62
    7
 10
594.07876784854931
 20
97.104280684321565
 11
603.92066668411951
 21
97.104280684321565
  0
ARC
  8
_4-0_
  6
CONTINUOUS
 62
    7
 10
594.07876784854931
 20
98.104280684321565
 40
1
 50
167.93886727087772
 51
270
  0
LINE
  8
_4-0_
  6
CONTINUOUS
 62
    7
 10
594.07876784854931
 20
92.104280684321565
 11
603.92066668411951
 21
92.104280684321565
  0
ARC
  8
_4-0_
  6
CONTINUOUS
 62
    7
 10
594.07876784854931
 20
91.104280684321565
 40
1
 50
90
 51
192.06113272912227
  0
LINE
  8
_4-0_
  6
CONTINUOUS
 62
    7
 10
616.99736351474155
 20
97.104280684321565
 11
626.83926235031151
 21
97.104280684321565
  0
ARC
  8
_4-0_
  6
CONTINUOUS
 62
    7
 10
610.45901509943053
 20
94.604280684321565
 40
17.75
 50
12.061132729122371
 51
167.93886727087763
  0
ARC
  8
_4-0_
  6
CONTINUOUS
 62
    7
 10
626.83926235031151
 20
98.104280684321565
 40
1
 50
270
 51
12.061132729122274
  0
LINE
  8
_4-0_
  6
CONTINUOUS
 62
    7
 10
616.99736351474155
 20
92.104280684321565
 11
626.83926235031151
 21
92.104280684321565
  0
ARC
  8
_4-0_
  6
CONTINUOUS
 62
    7
 10
610.45901509943053
 20
94.604280684321565
 40
17.75
 50
192.06113272912239
 51
347.9388672708776
  0
ARC
  8
_4-0_
  6
CONTINUOUS
 62
    7
 10
626.83926235031151
 20
91.104280684321565
 40
1
 50
347.93886727087772
 51
90
  0
LINE
  8
_4-0_
  6
CONTINUOUS
 62
    4
 10
641.95901531205538
 20
132.69168193335738
 11
578.95901531205538
 21
132.69168193335738
  0
LINE
  8
_4-0_
  6
CONTINUOUS
 62
    7
 10
641.95901531205538
 20
132.69168193335738
 11
639.06123783318832
 21
131.91522479804984
  0
LINE
  8
_4-0_
  6
CONTINUOUS
 62
    7
 10
641.95901531205538
 20
132.69168193335738
 11
639.06123783318832
 21
133.46813906866498
  0
LINE
  8
_4-0_
  6
CONTINUOUS
 62
    7
 10
578.95901531205538
 20
132.69168193335738
 11
581.85679279092266
 21
133.46813906866498
  0
LINE
  8
_4-0_
  6
CONTINUOUS
 62
    7
 10
578.95901531205538
 20
132.69168193335738
 11
581.85679279092266
 21
131.91522479804984
  0
LINE
  8
_4-0_
  6
CONTINUOUS
 62
    4
 10
641.95901531205538
 20
116.71830422953047
 11
641.95901531205538
 21
132.69168193335738
  0
LINE
  8
_4-0_
  6
CONTINUOUS
 62
    4
 10
578.95901531205538
 20
116.71830422953047
 11
578.95901531205538
 21
132.69168193335738
  0
TEXT
  8
_4-0_
 62
    7
 10
603.70901509943053
 20
132.69168193335738
 40
6
 41
1
 50
0
  1
φ63
  0
CIRCLE
  8
_4-0_
  6
CONTINUOUS
 62
    7
 10
610.45901509943064
 20
437.73755644604244
 40
5.75
  0
LINE
  8
_4-0_
  6
CONTINUOUS
 62
    7
 10
609.33401509943064
 20
435.78899928752741
 11
611.58401509943064
 21
435.78899928752741
  0
LINE
  8
_4-0_
  6
CONTINUOUS
 62
    7
 10
611.58401509943064
 20
435.78899928752741
 11
612.70901509943064
 21
437.73755644604244
  0
LINE
  8
_4-0_
  6
CONTINUOUS
 62
    7
 10
612.70901509943064
 20
437.73755644604244
 11
611.58401509943064
 21
439.68611360455736
  0
LINE
  8
_4-0_
  6
CONTINUOUS
 62
    7
 10
611.58401509943064
 20
439.68611360455736
 11
609.33401509943064
 21
439.68611360455736
  0
LINE
  8
_4-0_
  6
CONTINUOUS
 62
    7
 10
609.33401509943064
 20
439.68611360455736
 11
608.20901509943064
 21
437.73755644604244
  0
LINE
  8
_4-0_
  6
CONTINUOUS
 62
    7
 10
608.20901509943064
 20
437.73755644604244
 11
609.33401509943064
 21
435.78899928752741
  0
LINE
  8
_4-0_
  6
CONTINUOUS
 62
    4
 10
604.70901509943064
 20
459.33838129675177
 11
594.70901509943064
 21
459.33838129675177
  0
LINE
  8
_4-0_
  6
CONTINUOUS
 62
    4
 10
616.20901509943064
 20
459.33838129675177
 11
626.20901509943064
 21
459.33838129675177
  0
LINE
  8
_4-0_
  6
CONTINUOUS
 62
    4
 10
604.70901509943064
 20
459.33838129675177
 11
616.20901509943064
 21
459.33838129675177
  0
LINE
  8
_4-0_
  6
CONTINUOUS
 62
    7
 10
604.70901509943064
 20
459.33838129675177
 11
598.9134601416963
 21
457.78546702613664
  0
LINE
  8
_4-0_
  6
CONTINUOUS
 62
    7
 10
604.70901509943064
 20
459.33838129675177
 11
598.9134601416963
 21
460.89129556736691
  0
LINE
  8
_4-0_
  6
CONTINUOUS
 62
    7
 10
616.20901509943064
 20
459.33838129675177
 11
622.00457005716498
 21
460.89129556736691
  0
LINE
  8
_4-0_
  6
CONTINUOUS
 62
    7
 10
616.20901509943064
 20
459.33838129675177
 11
622.00457005716498
 21
457.78546702613664
  0
TEXT
  8
_4-0_
 62
    7
 10
603.70901509943064
 20
460.33838129675177
 40
6
 41
1
 50
0
  1
11.5
  0
LINE
  8
_4-0_
  6
CONTINUOUS
 62
    4
 10
604.70901509943064
 20
459.33838129675177
 11
604.70901509943064
 21
448.31433741698845
  0
LINE
  8
_4-0_
  6
CONTINUOUS
 62
    4
 10
616.20901509943064
 20
459.33838129675177
 11
616.20901509943064
 21
448.31433741698845
  0
CIRCLE
  8
_4-0_
  6
CONTINUOUS
 62
    7
 10
610.45901509943053
 20
264.58399489770829
 40
30
  0
CIRCLE
  8
_4-0_
  6
CONTINUOUS
 62
    7
 10
610.45901509943053
 20
264.58399489770829
 40
20
  0
LINE
  8
_4-0_
  6
CONTINUOUS
 62
    4
 10
640.45901693475582
 20
303.94121576026202
 11
580.45901693475582
 21
303.94121576026202
  0
LINE
  8
_4-0_
  6
CONTINUOUS
 62
    7
 10
640.45901693475582
 20
303.94121576026202
 11
637.56123945588899
 21
303.16475862495451
  0
LINE
  8
_4-0_
  6
CONTINUOUS
 62
    7
 10
640.45901693475582
 20
303.94121576026202
 11
637.56123945588899
 21
304.71767289556953
  0
LINE
  8
_4-0_
  6
CONTINUOUS
 62
    7
 10
580.45901693475582
 20
303.94121576026202
 11
583.3567944136231
 21
304.71767289556953
  0
LINE
  8
_4-0_
  6
CONTINUOUS
 62
    7
 10
580.45901693475582
 20
303.94121576026202
 11
583.3567944136231
 21
303.16475862495451
  0
LINE
  8
_4-0_
  6
CONTINUOUS
 62
    4
 10
640.45901693475582
 20
282.72528912370069
 11
640.45901693475582
 21
303.94121576026202
  0
LINE
  8
_4-0_
  6
CONTINUOUS
 62
    4
 10
580.45901693475582
 20
282.72528912370069
 11
580.45901693475582
 21
303.94121576026202
  0
TEXT
  8
_4-0_
 62
    7
 10
603.70901693475582
 20
303.94121576026202
 40
6
 41
1
 50
0
  1
φ60
  0
LINE
  8
_4-0_
  6
CENTER1
 62
    4
 10
497.06927716153967
 20
514.43614851185418
 11
723.84875303732155
 21
514.43614851185418
  0
LINE
  8
_4-0_
  6
CENTER1
 62
    4
 10
497.06927716153967
 20
94.604280684321565
 11
723.84875303732155
 21
94.604280684321565
  0
LINE
  8
_4-0_
  6
CENTER1
 62
    4
 10
497.06927716153967
 20
437.73755644604244
 11
723.84875303732155
 21
437.73755644604244
  0
LINE
  8
_4-0_
  6
CENTER1
 62
    4
 10
497.06927716153967
 20
358.45775974919399
 11
723.84875303732155
 21
358.45775974919399
  0
LINE
  8
_4-0_
  6
CENTER1
 62
    4
 10
497.06927716153967
 20
264.58399489770829
 11
723.84875303732155
 21
264.58399489770829
  0
LINE
  8
_4-0_
  6
CENTER1
 62
    4
 10
497.06927716153967
 20
181.33990117272674
 11
723.84875303732155
 21
181.33990117272674
  0
TEXT
  8
_4-0_
 62
    7
 10
64.659641210921506
 20
267.43350083599261
 40
6
 41
1
 50
0
  1
洗面ボウル本体
  0
LINE
  8
_4-0_
  6
CONTINUOUS
 62
    7
 10
280.45901509943064
 20
167.36020726008814
 11
340.45901509943064
 21
167.36020726008814
  0
LINE
  8
_4-0_
  6
CONTINUOUS
 62
    7
 10
280.45901509943064
 20
172.29351155639267
 11
282.95901509943064
 21
173.36020726008814
  0
LINE
  8
_4-0_
  6
CONTINUOUS
 62
    7
 10
280.45901509943064
 20
167.36020726008814
 11
280.45901509943064
 21
172.29351155639267
  0
LINE
  8
_4-0_
  6
CONTINUOUS
 62
    7
 10
282.95901509943064
 20
173.36020726008814
 11
337.95901509943064
 21
173.36020726008814
  0
LINE
  8
_4-0_
  6
CONTINUOUS
 62
    7
 10
340.45901509943064
 20
172.29351155639267
 11
337.95901509943064
 21
173.36020726008814
  0
LINE
  8
_4-0_
  6
CONTINUOUS
 62
    7
 10
340.45901509943064
 20
167.36020726008814
 11
340.45901509943064
 21
172.29351155639267
  0
LINE
  8
_4-0_
  6
DASHED2
 62
    4
 10
287.95901509943064
 20
167.36020726008814
 11
287.95901509943064
 21
173.36020726008814
  0
LINE
  8
_4-0_
  6
DASHED2
 62
    4
 10
332.95901509943064
 20
167.36020726008814
 11
332.95901509943064
 21
173.36020726008814
  0
LINE
  8
_4-0_
  6
CONTINUOUS
 62
    4
 10
383.50967954334004
 20
167.36020726008814
 11
383.50967954334004
 21
157.36020726008814
  0
LINE
  8
_4-0_
  6
CONTINUOUS
 62
    4
 10
383.50967954334004
 20
173.36020726008814
 11
383.50967954334004
 21
183.36020726008814
  0
LINE
  8
_4-0_
  6
CONTINUOUS
 62
    4
 10
383.50967954334004
 20
167.36020726008814
 11
383.50967954334004
 21
173.36020726008814
  0
LINE
  8
_4-0_
  6
CONTINUOUS
 62
    7
 10
383.50967954334004
 20
167.36020726008814
 11
385.06259381395517
 21
161.56465230235374
  0
LINE
  8
_4-0_
  6
CONTINUOUS
 62
    7
 10
383.50967954334004
 20
167.36020726008814
 11
381.9567652727249
 21
161.56465230235374
  0
LINE
  8
_4-0_
  6
CONTINUOUS
 62
    7
 10
383.50967954334004
 20
173.36020726008814
 11
381.9567652727249
 21
179.15576221782254
  0
LINE
  8
_4-0_
  6
CONTINUOUS
 62
    7
 10
383.50967954334004
 20
173.36020726008814
 11
385.06259381395517
 21
179.15576221782254
  0
LINE
  8
_4-0_
  6
CONTINUOUS
 62
    4
 10
383.50967954334004
 20
167.36020726008814
 11
354.64573085994612
 21
167.36020726008814
  0
LINE
  8
_4-0_
  6
CONTINUOUS
 62
    4
 10
383.50967954334004
 20
173.36020726008814
 11
354.64573085994612
 21
173.36020726008814
  0
TEXT
  8
_4-0_
 62
    7
 10
382.50967954334004
 20
168.86020726008814
 40
6
 41
1
 50
90
  1
6
  0
TEXT
  8
_4-0_
 62
    7
 10
24.454436993489252
 20
564.42425068442662
 40
12
 41
1
 50
0
  1
Majestic専用ボトムケースカバー排水栓取付手順
  0
LINE
  8
_4-0_
  6
CONTINUOUS
 62
    7
 10
698.97404832923439
 20
496.21529924891802
 11
653.97404832923427
 21
496.21529924891802
  0
LINE
  8
_4-0_
  6
CONTINUOUS
 62
    7
 10
653.97404832923427
 20
496.21529924891802
 11
653.97404832923427
 21
489.21529924891802
  0
LINE
  8
_4-0_
  6
CONTINUOUS
 62
    7
 10
653.97404832923427
 20
489.21529924891802
 11
698.97404832923439
 21
489.21529924891802
  0
LINE
  8
_4-0_
  6
CONTINUOUS
 62
    7
 10
698.97404832923439
 20
489.21529924891802
 11
698.97404832923439
 21
496.21529924891802
  0
TEXT
  8
_4-0_
 62
    7
 10
700.97404832923439
 20
490.71529924891802
 40
4
 41
1
 50
0
  1
S=1/2
  0
LINE
  8
_4-0_
  6
CONTINUOUS
 62
    7
 10
698.97404832923439
 20
431.06045851151066
 11
653.97404832923427
 21
431.06045851151066
  0
LINE
  8
_4-0_
  6
CONTINUOUS
 62
    7
 10
653.97404832923427
 20
431.06045851151066
 11
653.97404832923427
 21
424.06045851151066
  0
LINE
  8
_4-0_
  6
CONTINUOUS
 62
    7
 10
653.97404832923427
 20
424.06045851151066
 11
698.97404832923439
 21
424.06045851151066
  0
LINE
  8
_4-0_
  6
CONTINUOUS
 62
    7
 10
698.97404832923439
 20
424.06045851151066
 11
698.97404832923439
 21
431.06045851151066
  0
TEXT
  8
_4-0_
 62
    7
 10
700.97404832923439
 20
425.56045851151066
 40
4
 41
1
 50
0
  1
S=1/2
  0
LINE
  8
_4-0_
  6
CONTINUOUS
 62
    7
 10
698.97404832923439
 20
335.87718626203343
 11
653.97404832923427
 21
335.87718626203343
  0
LINE
  8
_4-0_
  6
CONTINUOUS
 62
    7
 10
653.97404832923427
 20
335.87718626203343
 11
653.97404832923427
 21
328.87718626203343
  0
LINE
  8
_4-0_
  6
CONTINUOUS
 62
    7
 10
653.97404832923427
 20
328.87718626203343
 11
698.97404832923439
 21
328.87718626203343
  0
LINE
  8
_4-0_
  6
CONTINUOUS
 62
    7
 10
698.97404832923439
 20
328.87718626203343
 11
698.97404832923439
 21
335.87718626203343
  0
TEXT
  8
_4-0_
 62
    7
 10
700.97404832923439
 20
330.37718626203343
 40
4
 41
1
 50
0
  1
S=1/2
  0
LINE
  8
_4-0_
  6
CONTINUOUS
 62
    7
 10
698.97404832923439
 20
250.02022887273551
 11
653.97404832923427
 21
250.02022887273551
  0
LINE
  8
_4-0_
  6
CONTINUOUS
 62
    7
 10
653.97404832923427
 20
250.02022887273551
 11
653.97404832923427
 21
243.02022887273551
  0
LINE
  8
_4-0_
  6
CONTINUOUS
 62
    7
 10
653.97404832923427
 20
243.02022887273551
 11
698.97404832923439
 21
243.02022887273551
  0
LINE
  8
_4-0_
  6
CONTINUOUS
 62
    7
 10
698.97404832923439
 20
243.02022887273551
 11
698.97404832923439
 21
250.02022887273551
  0
TEXT
  8
_4-0_
 62
    7
 10
700.97404832923439
 20
244.52022887273551
 40
4
 41
1
 50
0
  1
S=1/2
  0
LINE
  8
_4-0_
  6
CONTINUOUS
 62
    7
 10
698.97404832923439
 20
165.53478837464038
 11
653.97404832923427
 21
165.53478837464038
  0
LINE
  8
_4-0_
  6
CONTINUOUS
 62
    7
 10
653.97404832923427
 20
165.53478837464038
 11
653.97404832923427
 21
158.53478837464038
  0
LINE
  8
_4-0_
  6
CONTINUOUS
 62
    7
 10
653.97404832923427
 20
158.53478837464038
 11
698.97404832923439
 21
158.53478837464038
  0
LINE
  8
_4-0_
  6
CONTINUOUS
 62
    7
 10
698.97404832923439
 20
158.53478837464038
 11
698.97404832923439
 21
165.53478837464038
  0
TEXT
  8
_4-0_
 62
    7
 10
700.97404832923439
 20
160.03478837464038
 40
4
 41
1
 50
0
  1
S=1/2
  0
LINE
  8
_4-0_
  6
CONTINUOUS
 62
    7
 10
698.97404832923439
 20
79.403527607101835
 11
653.97404832923427
 21
79.403527607101835
  0
LINE
  8
_4-0_
  6
CONTINUOUS
 62
    7
 10
653.97404832923427
 20
79.403527607101835
 11
653.97404832923427
 21
72.403527607101835
  0
LINE
  8
_4-0_
  6
CONTINUOUS
 62
    7
 10
653.97404832923427
 20
72.403527607101835
 11
698.97404832923439
 21
72.403527607101835
  0
LINE
  8
_4-0_
  6
CONTINUOUS
 62
    7
 10
698.97404832923439
 20
72.403527607101835
 11
698.97404832923439
 21
79.403527607101835
  0
TEXT
  8
_4-0_
 62
    7
 10
700.97404832923439
 20
73.903527607101835
 40
4
 41
1
 50
0
  1
S=1/2
  0
TEXT
  8
_4-0_
 62
    7
 10
666.47404832923427
 20
425.56045851151066
 40
4
 41
1.0000000000000013
 50
0
  1
通しボルト
  0
TEXT
  8
_4-0_
 62
    7
 10
672.47404832923427
 20
330.37718626203343
 40
4
 41
1.0000000000000035
 50
0
  1
目皿
  0
TEXT
  8
_4-0_
 62
    7
 10
660.47404832923427
 20
244.52022887273551
 40
4
 41
1.0000000000000008
 50
0
  1
スリップパッキン
  0
TEXT
  8
_4-0_
 62
    7
 10
664.47404832923427
 20
160.03478837464038
 40
4
 41
1.0000000000000011
 50
0
  1
樹脂パッキン
  0
TEXT
  8
_4-0_
 62
    7
 10
660.47404832923427
 20
490.71529924891802
 40
4
 41
1.0000000000000008
 50
0
  1
排水化粧キャップ
  0
TEXT
  8
_4-0_
 62
    7
 10
668.47404832923427
 20
73.903527607101835
 40
4
 41
1.0000000000000017
 50
0
  1
目皿受け
  0
LINE
  8
_0-0_
  6
CONTINUOUS
 62
    4
 10
302.68680659439183
 20
514.16948447484412
 11
235.98801365840915
 21
514.16948447484412
  0
TEXT
  8
_0-0_
 62
    7
 10
178.8819167939678
 20
510.1485845829668
 40
6
 41
1
 50
0
  1
排水化粧キャップ
  0
LINE
  8
_0-0_
  6
CONTINUOUS
 62
    4
 10
302.68680659439183
 20
441.34529218759769
 11
235.98801365840915
 21
441.34529218759769
  0
TEXT
  8
_4-0_
 62
    7
 10
200.61181560461795
 20
438.34529218759769
 40
6
 41
1
 50
0
  1
通しボルト
  0
TEXT
  8
_4-0_
 62
    7
 10
220.29991463151353
 20
344.08220217092821
 40
6
 41
1
 50
0
  1
目皿
  0
TEXT
  8
_4-0_
 62
    7
 10
206.89549646628665
 20
108.39294324888476
 40
6
 41
1
 50
0
  1
目皿受け
  0
TEXT
  8
_4-0_
 62
    7
 10
192.66458092940865
 20
166.60181332075291
 40
6
 41
1
 50
0
  1
樹脂パッキン
  0
LINE
  8
_0-0_
  6
CONTINUOUS
 62
    4
 10
293.50105220986603
 20
346.74190220696914
 11
235.98801365840915
 21
346.74190220696914
  0
LINE
  8
_0-0_
  6
CONTINUOUS
 62
    4
 10
283.12230032406137
 20
169.60181332075291
 11
235.98801365840915
 21
169.60181332075291
  0
LINE
  8
_0-0_
  6
CONTINUOUS
 62
    4
 10
283.09390224142453
 20
111.39294324888476
 11
235.98801365840915
 21
111.39294324888476
  0
TEXT
  8
_4-0_
 62
    7
 10
179.30347682971972
 20
261.6078861796613
 40
6.0000000000000035
 41
0.9999999999999994
 50
0
  1
スリップパッキン
  0
LINE
  8
_0-0_
  6
CONTINUOUS
 62
    4
 10
284.51113319841215
 20
264.6078861796613
 11
235.98801365840915
 21
264.6078861796613
  0
TEXT
  8
_4-0_
 62
    7
 10
25.423466148883278
 20
549.63877666837345
 40
8
 41
1
 50
0
  1
※埋め込み（オーバーカウンター／ドロップイン）取付専用
  0
LINE
  8
_4-0_
  6
CENTER1
 62
    4
 10
610.45901509943064
 20
544.63040722181381
 11
610.45901509943064
 21
60.342252251881745
  0
ENDSEC
  0
EOF
