  0
SECTION
  2
HEADER
  9
$ACADVER
  1
AC1009
  9
$INSBASE
 10
0
 20
0
 30
0
  9
$EXTMIN
 10
0
 20
0
  9
$EXTMAX
 10
594
 20
420
  9
$LIMMIN
 10
0
 20
0
  9
$LIMMAX
 10
594
 20
420
  9
$LTSCALE
 40
2
  0
ENDSEC
  0
SECTION
  2
TABLES
  0
TABLE
  2
LTYPE
 70
     9
  0
LTYPE
  2
CONTINUOUS
 70
    64
  3
実線
 72
    65
 73
     0
 40
0.0
  0
LTYPE
  2
DASHED1
 70
    64
  3
--  --  --  --  --  --  --  --  
 72
    65
 73
     2
 40
2.5
 49
1.25
 49
-1.25
  0
LTYPE
  2
DASHED2
 70
    64
  3
----    ----    ----    ----    
 72
    65
 73
     2
 40
5.0
 49
2.5
 49
-2.5
  0
LTYPE
  2
DASHED3
 70
    64
  3
------  ------  ------  ------  
 72
    65
 73
     2
 40
5.0
 49
3.75
 49
-1.25
  0
LTYPE
  2
CENTER1
 70
    64
  3
----- - ----- - ----- - ----- - 
 72
    65
 73
     4
 40
10.0
 49
6.25
 49
-1.25
 49
1.25
 49
-1.25
  0
LTYPE
  2
CENTER2
 70
    64
  3
----------  --  ----------  --  
 72
    65
 73
     4
 40
20.0
 49
12.5
 49
-2.5
 49
2.5
 49
-2.5
  0
LTYPE
  2
PHANTOM1
 70
    64
  3
--- - - --- - - --- - - --- - - 
 72
    65
 73
     6
 40
10.0
 49
3.25
 49
-1.25
 49
1.25
 49
-1.25
 49
1.25
 49
-1.25
  0
LTYPE
  2
PHANTOM2
 70
    64
  3
--------  -  -  --------  -  -  
 72
    65
 73
     6
 40
20.0
 49
10.0
 49
-2.5
 49
1.25
 49
-2.5
 49
1.25
 49
-2.5
  0
LTYPE
  2
DOT
 70
    64
  3
-   -   -   -   -   -   -   -   
 72
    65
 73
     2
 40
2.5
 49
0.625
 49
-1.875
  0
LTYPE
  2
DUMMY
 70
    64
  3
ダミー
 72
    65
 73
     0
 40
0.0
  0
LTYPE
  2
RAND1
 70
    64
  3
ランダム線1
 72
    65
 73
     4
 40
10.0
 49
1.0
 49
-2.0
 49
3.0
 49
-4.0
  0
LTYPE
  2
RAND2
 70
    64
  3
ランダム線2
 72
    65
 73
     4
 40
14.0
 49
2.0
 49
-3.0
 49
4.0
 49
-5.0
  0
LTYPE
  2
RAND3
 70
    64
  3
ランダム線3
 72
    65
 73
     4
 40
18.0
 49
3.0
 49
-4.0
 49
5.0
 49
-6.0
  0
LTYPE
  2
RAND4
 70
    64
  3
ランダム線4
 72
    65
 73
     4
 40
22.0
 49
4.0
 49
-5.0
 49
6.0
 49
-7.0
  0
LTYPE
  2
RAND5
 70
    64
  3
ランダム線5
 72
    65
 73
     4
 40
26.0
 49
5.0
 49
-6.0
 49
7.0
 49
-8.0
  0
LTYPE
  2
LONG1
 70
    64
  3
----------  --  ----------  --  
 72
    65
 73
     4
 40
40.0
 49
32.5
 49
-2.5
 49
2.5
 49
-2.5
  0
LTYPE
  2
LONG2
 70
    64
  3
--------  -  -  --------  -  -  
 72
    65
 73
     6
 40
40.0
 49
30.0
 49
-2.5
 49
1.25
 49
-2.5
 49
1.25
 49
-2.5
  0
LTYPE
  2
LONG3
 70
    64
  3
+++++++++++++++..+++++++++++++++
 72
    65
 73
     2
 40
40.0
 49
37.5
 49
-2.5
  0
LTYPE
  2
LONG4
 70
    64
  3
+++++++++++++++..+++++++++++++++
 72
    65
 73
     2
 40
80.0
 49
75.0
 49
-5.0
  0
LTYPE
  2
LONG5
 70
    64
  3
----------  --  ----------  --  
 72
    65
 73
     4
 40
60.0
 49
37.5
 49
-7.5
 49
7.5
 49
-7.5
  0
LTYPE
  2
dashed
 70
   64
  3
-------   -------------   ------
 72
   65
 73
    2
 40
7.5
 49
6
 49
-1.5
  0
LTYPE
  2
dashed_spaced
 70
   64
  3
----        --------        ----
 72
   65
 73
    2
 40
12
 49
6
 49
-6
  0
LTYPE
  2
long_dashed_dotted
 70
   64
  3
------------- --- --------------
 72
   65
 73
    4
 40
15.25
 49
12
 49
-1.5
 49
0.25
 49
-1.5
  0
LTYPE
  2
long_dashed_double-dotted
 70
   64
  3
----------- --- --- ------------
 72
   65
 73
    6
 40
17
 49
12
 49
-1.5
 49
0.25
 49
-1.5
 49
0.25
 49
-1.5
  0
LTYPE
  2
long_dashed_triplicate-dotted
 70
   64
  3
--------- --- --- --- ----------
 72
   65
 73
    8
 40
18.75
 49
12
 49
-1.5
 49
0.25
 49
-1.5
 49
0.25
 49
-1.5
 49
0.25
 49
-1.5
  0
LTYPE
  2
dotted
 70
   64
  3
   -       -       -       -    
 72
   65
 73
    2
 40
1.75
 49
0.25
 49
-1.5
  0
LTYPE
  2
chain
 70
   64
  3
-------------- -- --------------
 72
   65
 73
    4
 40
18.5
 49
12
 49
-1.5
 49
3.5
 49
-1.5
  0
LTYPE
  2
chain_double_dash
 70
   64
  3
------------ -- -- -------------
 72
   65
 73
    6
 40
23.5
 49
12
 49
-1.5
 49
3.5
 49
-1.5
 49
3.5
 49
-1.5
  0
LTYPE
  2
dashed_dotted
 70
   64
  3
-----------     -     ----------
 72
   65
 73
    4
 40
9.25
 49
6
 49
-1.5
 49
0.25
 49
-1.5
  0
LTYPE
  2
double-dashed_dotted
 70
   64
  3
------   -----------   -   -----
 72
   65
 73
    6
 40
16.75
 49
6
 49
-1.5
 49
6
 49
-1.5
 49
0.25
 49
-1.5
  0
LTYPE
  2
dashed_double-dotted
 70
   64
  3
---------    -    -    ---------
 72
   65
 73
    6
 40
11
 49
6
 49
-1.5
 49
0.25
 49
-1.5
 49
0.25
 49
-1.5
  0
LTYPE
  2
double-dashed_double-dotted
 70
   64
  3
-----   ---------   -   -   ----
 72
   65
 73
    8
 40
18.5
 49
6
 49
-1.5
 49
6
 49
-1.5
 49
0.25
 49
-1.5
 49
0.25
 49
-1.5
  0
LTYPE
  2
dashed_triplicate-dotted
 70
   64
  3
-------    -    -    -    ------
 72
   65
 73
    8
 40
12.75
 49
6
 49
-1.5
 49
0.25
 49
-1.5
 49
0.25
 49
-1.5
 49
0.25
 49
-1.5
  0
LTYPE
  2
double-dashed_triplicate-dotted
 70
   64
  3
-----  ---------  -  -  -  -----
 72
   65
 73
   10
 40
20.25
 49
6
 49
-1.5
 49
6
 49
-1.5
 49
0.25
 49
-1.5
 49
0.25
 49
-1.5
 49
0.25
 49
-1.5
  0
LTYPE
  2
undefined
 70
   64
  3
--------------------------------
 72
   65
 73
    0
 40
0
  0
LTYPE
  2
_
 70
   64
  3
                                
 72
   65
 73
    0
 40
0
  0
LTYPE
  2
__18
 70
   64
  3
                                
 72
   65
 73
    0
 40
0
  0
LTYPE
  2
__19
 70
   64
  3
                                
 72
   65
 73
    0
 40
0
  0
LTYPE
  2
__20
 70
   64
  3
                                
 72
   65
 73
    0
 40
0
  0
LTYPE
  2
__21
 70
   64
  3
                                
 72
   65
 73
    0
 40
0
  0
LTYPE
  2
__22
 70
   64
  3
                                
 72
   65
 73
    0
 40
0
  0
LTYPE
  2
__23
 70
   64
  3
                                
 72
   65
 73
    0
 40
0
  0
LTYPE
  2
__24
 70
   64
  3
                                
 72
   65
 73
    0
 40
0
  0
LTYPE
  2
__25
 70
   64
  3
                                
 72
   65
 73
    0
 40
0
  0
LTYPE
  2
__26
 70
   64
  3
                                
 72
   65
 73
    0
 40
0
  0
LTYPE
  2
__27
 70
   64
  3
                                
 72
   65
 73
    0
 40
0
  0
LTYPE
  2
__28
 70
   64
  3
                                
 72
   65
 73
    0
 40
0
  0
LTYPE
  2
__29
 70
   64
  3
                                
 72
   65
 73
    0
 40
0
  0
LTYPE
  2
__30
 70
   64
  3
                                
 72
   65
 73
    0
 40
0
  0
LTYPE
  2
__31
 70
   64
  3
                                
 72
   65
 73
    0
 40
0
  0
LTYPE
  2
__32
 70
   64
  3
                                
 72
   65
 73
    0
 40
0
  0
ENDTAB
  0
TABLE
  2
STYLE
  5
3
100
AcDbSymbolTable
 70
     1
  0
STYLE
  5
10
100
AcDbSymbolTableRecord
100
AcDbTextStyleTableRecord
  2
STANDARD
 70
     0
 40
0.0
 41
1.0
 50
0.0
 71
     0
 42
0.2
  3
txt
  4
bigfont.shx
  0
STYLE
  5
26
100
AcDbSymbolTableRecord
100
AcDbTextStyleTableRecord
  2
TATEGAKI
 70
    68
 40
0.0
 41
1.0
 50
0.0
 71
     0
 42
1.0
  3
txt
  4
bigfont.shx
  0
ENDTAB
  0
TABLE
  2
LAYER
 70
    2
  0
LAYER
  2
_0-0_
 70
   64
 62
    7
  6
CONTINUOUS
  0
LAYER
  2
ADD_LINE
 70
   64
 62
    7
  6
CONTINUOUS
  0
ENDTAB
  0
ENDSEC
  0
SECTION
  2
BLOCKS
  0
BLOCK
  2
-000-_None
 70
   64
 10
0
 20
0
 30
0
  0
ENDBLK
  0
BLOCK
  2
-001-_None_2_
 70
   64
 10
0
 20
0
 30
0
  0
ENDBLK
  0
BLOCK
  2
-002-_None_1_
 70
   64
 10
0
 20
0
 30
0
  0
ENDBLK
  0
ENDSEC
  0
SECTION
  2
ENTITIES
  0
LINE
  8
_0-0_
  6
CONTINUOUS
 62
    4
 10
426.80000149281642
 20
141.41359630207659
 11
453.19999920399806
 21
141.41359630207659
  0
CIRCLE
  8
_0-0_
  6
CONTINUOUS
 62
    7
 10
440
 20
300.70924493823304
 40
26.849999999999997
  0
CIRCLE
  8
_0-0_
  6
CONTINUOUS
 62
    7
 10
440
 20
300.70924493823304
 40
4.9999999999994999
  0
CIRCLE
  8
_0-0_
  6
CONTINUOUS
 62
    7
 10
434.53630531766452
 20
307.22062270474509
 40
2.5000000000005
  0
CIRCLE
  8
_0-0_
  6
CONTINUOUS
 62
    7
 10
431.62913409939653
 20
302.18525444840258
 40
2.5000000000005
  0
CIRCLE
  8
_0-0_
  6
CONTINUOUS
 62
    7
 10
432.63878406783203
 20
296.45924493823355
 40
2.5000000000005
  0
CIRCLE
  8
_0-0_
  6
CONTINUOUS
 62
    7
 10
437.092828781732
 20
292.72185766155308
 40
2.5000000000005
  0
CIRCLE
  8
_0-0_
  6
CONTINUOUS
 62
    7
 10
442.90717121826804
 20
292.72185766155308
 40
2.5000000000005
  0
CIRCLE
  8
_0-0_
  6
CONTINUOUS
 62
    7
 10
447.36121593216802
 20
296.45924493823355
 40
2.5000000000005
  0
CIRCLE
  8
_0-0_
  6
CONTINUOUS
 62
    7
 10
448.37086590060351
 20
302.18525444840258
 40
2.5000000000005
  0
CIRCLE
  8
_0-0_
  6
CONTINUOUS
 62
    7
 10
445.46369468233552
 20
307.22062270474509
 40
2.5000000000005
  0
CIRCLE
  8
_0-0_
  6
CONTINUOUS
 62
    7
 10
440
 20
309.2092449382336
 40
2.5000000000005
  0
INSERT
  2
-000-_None
  8
_0-0_
 10
427.53303382633555
 20
293.30487093196654
 41
0.375
 42
0.375
 50
210.70690126177498
  0
INSERT
  2
-000-_None
  8
_0-0_
 10
445.25102852613355
 20
306.53440516905908
 41
0.375
 42
0.375
 50
47.967257976598993
  0
INSERT
  2
-000-_None
  8
_0-0_
 10
443.58140798947403
 20
300.22500788423258
 41
0.375
 42
0.375
 50
135.10664774295298
  0
CIRCLE
  8
_0-0_
  6
CONTINUOUS
 62
    4
 10
440
 20
300.70924493823304
 40
19.133442981194999
  0
CIRCLE
  8
_0-0_
  6
CONTINUOUS
 62
    4
 10
440
 20
300.70924493823304
 40
14.260146210643501
  0
CIRCLE
  8
_0-0_
  6
CONTINUOUS
 62
    4
 10
440
 20
300.70924493823304
 40
12.1000000000005
  0
CIRCLE
  8
_0-0_
  6
CONTINUOUS
 62
    4
 10
440
 20
300.70924493823304
 40
26.237524472827498
  0
LINE
  8
_0-0_
  6
CONTINUOUS
 62
    7
 10
454.65000000000003
 20
239.27203507759566
 11
455.90000000000003
 21
238.30442468706627
  0
LINE
  8
_0-0_
  6
CONTINUOUS
 62
    7
 10
455.90000000000003
 20
238.30442468706627
 11
454.65000000000003
 21
237.27134949261397
  0
INSERT
  2
-000-_None
  8
_0-0_
 10
412.17382243718452
 20
263.52615995370501
 41
0.375
 42
0.375
 50
227.96725797660204
  0
LINE
  8
_0-0_
  6
CONTINUOUS
 62
    7
 10
424.85000000000002
 20
240.19550749281944
 11
424.10000000000002
 21
240.94550749281944
  0
LINE
  8
_0-0_
  6
CONTINUOUS
 62
    7
 10
455.15000000000003
 20
240.19550749281944
 11
455.90000000000003
 21
240.94550749281944
  0
ARC
  8
_0-0_
  6
CONTINUOUS
 62
    7
 10
413.65000000000105
 20
257.45778953448643
 40
0.4999999999995
 50
77.00000000000098
 51
179.99999999998402
  0
ARC
  8
_0-0_
  6
CONTINUOUS
 62
    7
 10
413.65000000000105
 20
257.25252871292741
 40
0.4999999999995
 50
179.99999999998698
 51
256.99999999999698
  0
LINE
  8
_0-0_
  6
CONTINUOUS
 62
    7
 10
413.15000000000003
 20
257.25252871292741
 11
413.15000000000003
 21
257.45778953448643
  0
LINE
  8
_0-0_
  6
CONTINUOUS
 62
    7
 10
413.53752447282801
 20
256.76534368053495
 11
418.41563018331203
 21
255.10912612781595
  0
ARC
  8
_0-0_
  6
CONTINUOUS
 62
    7
 10
416.80815106497499
 20
250.37457114512596
 40
4.9999999999994999
 50
12.250000000000001
 51
71.246589897256001
  0
LINE
  8
_0-0_
  6
CONTINUOUS
 62
    7
 10
413.76247552717251
 20
257.94497456687895
 11
466.23752447282902
 21
257.94497456687895
  0
ARC
  8
_0-0_
  6
CONTINUOUS
 62
    7
 10
466.35000000000053
 20
257.45778953448643
 40
0.4999999999995
 50
0.0000000000160045
 51
102.99999999999698
  0
ARC
  8
_0-0_
  6
CONTINUOUS
 62
    7
 10
466.35000000000053
 20
257.25252871292741
 40
0.4999999999995
 50
283.00000000000397
 51
0.0000000000130148
  0
LINE
  8
_0-0_
  6
CONTINUOUS
 62
    7
 10
466.85000000000002
 20
257.25252871292741
 11
466.85000000000002
 21
257.45778953448643
  0
LINE
  8
_0-0_
  6
CONTINUOUS
 62
    7
 10
466.46247552717198
 20
256.76534368053495
 11
461.5843698166895
 21
255.10912612781595
  0
ARC
  8
_0-0_
  6
CONTINUOUS
 62
    7
 10
463.19184893502648
 20
250.37457114512591
 40
4.9999999999994999
 50
108.75341010274402
 51
167.75000000000002
  0
LINE
  8
_0-0_
  6
CONTINUOUS
 62
    7
 10
424.10000000000002
 20
240.94550749281944
 11
421.694306597288
 21
251.43545950590794
  0
LINE
  8
_0-0_
  6
CONTINUOUS
 62
    7
 10
455.90000000000003
 20
240.94550749281944
 11
458.30569340271205
 21
251.43545950590794
  0
LINE
  8
_0-0_
  6
CONTINUOUS
 62
    4
 10
418.41563018331203
 20
255.10912612781595
 11
461.5843698166895
 21
255.10912612781595
  0
LINE
  8
_0-0_
  6
CONTINUOUS
 62
    4
 10
413.53752447282801
 20
256.76534368053495
 11
466.46247552717198
 21
256.76534368053495
  0
LINE
  8
_0-0_
  6
CONTINUOUS
 62
    4
 10
455.90000000000003
 20
240.94550749281944
 11
424.10000000000002
 21
240.94550749281944
  0
LINE
  8
_0-0_
  6
CONTINUOUS
 62
    4
 10
424.10000000000002
 20
159.44497456687844
 11
455.90000000000003
 21
160.27768687277858
  0
LINE
  8
_0-0_
  6
CONTINUOUS
 62
    4
 10
424.10000000000002
 20
239.47239796614786
 11
451.71443872659102
 21
240.1955074928195
  0
LINE
  8
_0-0_
  6
CONTINUOUS
 62
    7
 10
424.10000000000002
 20
239.47239796614786
 11
425.35000000000002
 21
238.50478757561847
  0
LINE
  8
_0-0_
  6
CONTINUOUS
 62
    7
 10
425.35000000000002
 20
238.50478757561847
 11
424.10000000000002
 21
237.47171238116612
  0
LINE
  8
_0-0_
  6
CONTINUOUS
 62
    7
 10
424.10000000000002
 20
237.47171238116612
 11
425.35000000000002
 21
236.50410199063679
  0
LINE
  8
_0-0_
  6
CONTINUOUS
 62
    7
 10
425.35000000000002
 20
236.50410199063679
 11
424.10000000000002
 21
235.47102679618444
  0
LINE
  8
_0-0_
  6
CONTINUOUS
 62
    7
 10
424.10000000000002
 20
235.47102679618444
 11
425.35000000000002
 21
234.50341640565505
  0
LINE
  8
_0-0_
  6
CONTINUOUS
 62
    7
 10
425.35000000000002
 20
234.50341640565505
 11
424.10000000000002
 21
233.4703412112027
  0
LINE
  8
_0-0_
  6
CONTINUOUS
 62
    7
 10
424.10000000000002
 20
233.4703412112027
 11
425.35000000000002
 21
232.50273082067337
  0
LINE
  8
_0-0_
  6
CONTINUOUS
 62
    7
 10
425.35000000000002
 20
232.50273082067337
 11
424.10000000000002
 21
231.46965562622102
  0
LINE
  8
_0-0_
  6
CONTINUOUS
 62
    7
 10
424.10000000000002
 20
231.46965562622102
 11
425.35000000000002
 21
230.50204523569163
  0
LINE
  8
_0-0_
  6
CONTINUOUS
 62
    7
 10
425.35000000000002
 20
230.50204523569163
 11
424.10000000000002
 21
229.46897004123928
  0
LINE
  8
_0-0_
  6
CONTINUOUS
 62
    7
 10
424.10000000000002
 20
229.46897004123928
 11
425.35000000000002
 21
228.50135965070995
  0
LINE
  8
_0-0_
  6
CONTINUOUS
 62
    7
 10
425.35000000000002
 20
228.50135965070995
 11
424.10000000000002
 21
227.4682844562576
  0
LINE
  8
_0-0_
  6
CONTINUOUS
 62
    7
 10
424.10000000000002
 20
227.4682844562576
 11
425.35000000000002
 21
226.50067406572821
  0
LINE
  8
_0-0_
  6
CONTINUOUS
 62
    7
 10
425.35000000000002
 20
226.50067406572821
 11
424.10000000000002
 21
225.46759887127586
  0
LINE
  8
_0-0_
  6
CONTINUOUS
 62
    7
 10
424.10000000000002
 20
225.46759887127586
 11
425.35000000000002
 21
224.49998848074653
  0
LINE
  8
_0-0_
  6
CONTINUOUS
 62
    7
 10
425.35000000000002
 20
224.49998848074653
 11
424.10000000000002
 21
223.46691328629418
  0
LINE
  8
_0-0_
  6
CONTINUOUS
 62
    7
 10
424.10000000000002
 20
223.46691328629418
 11
425.35000000000002
 21
222.49930289576479
  0
LINE
  8
_0-0_
  6
CONTINUOUS
 62
    7
 10
425.35000000000002
 20
222.49930289576479
 11
424.10000000000002
 21
221.46622770131244
  0
LINE
  8
_0-0_
  6
CONTINUOUS
 62
    7
 10
424.10000000000002
 20
221.46622770131244
 11
425.35000000000002
 21
220.49861731078311
  0
LINE
  8
_0-0_
  6
CONTINUOUS
 62
    7
 10
425.35000000000002
 20
220.49861731078311
 11
424.10000000000002
 21
219.46554211633076
  0
LINE
  8
_0-0_
  6
CONTINUOUS
 62
    7
 10
424.10000000000002
 20
219.46554211633076
 11
425.35000000000002
 21
218.49793172580137
  0
LINE
  8
_0-0_
  6
CONTINUOUS
 62
    7
 10
425.35000000000002
 20
218.49793172580137
 11
424.10000000000002
 21
217.46485653134902
  0
LINE
  8
_0-0_
  6
CONTINUOUS
 62
    7
 10
424.10000000000002
 20
217.46485653134902
 11
425.35000000000002
 21
216.49724614081969
  0
LINE
  8
_0-0_
  6
CONTINUOUS
 62
    7
 10
425.35000000000002
 20
216.49724614081969
 11
424.10000000000002
 21
215.46417094636734
  0
LINE
  8
_0-0_
  6
CONTINUOUS
 62
    7
 10
424.10000000000002
 20
215.46417094636734
 11
425.35000000000002
 21
214.49656055583795
  0
LINE
  8
_0-0_
  6
CONTINUOUS
 62
    7
 10
425.35000000000002
 20
214.49656055583795
 11
424.10000000000002
 21
213.4634853613856
  0
LINE
  8
_0-0_
  6
CONTINUOUS
 62
    7
 10
424.10000000000002
 20
213.4634853613856
 11
425.35000000000002
 21
212.49587497085627
  0
LINE
  8
_0-0_
  6
CONTINUOUS
 62
    7
 10
425.35000000000002
 20
212.49587497085627
 11
424.10000000000002
 21
211.46279977640392
  0
LINE
  8
_0-0_
  6
CONTINUOUS
 62
    7
 10
424.10000000000002
 20
211.46279977640392
 11
425.35000000000002
 21
210.49518938587453
  0
LINE
  8
_0-0_
  6
CONTINUOUS
 62
    7
 10
425.35000000000002
 20
210.49518938587453
 11
424.10000000000002
 21
209.46211419142218
  0
LINE
  8
_0-0_
  6
CONTINUOUS
 62
    7
 10
424.10000000000002
 20
209.46211419142218
 11
425.35000000000002
 21
208.49450380089285
  0
LINE
  8
_0-0_
  6
CONTINUOUS
 62
    7
 10
425.35000000000002
 20
208.49450380089285
 11
424.10000000000002
 21
207.4614286064405
  0
LINE
  8
_0-0_
  6
CONTINUOUS
 62
    7
 10
424.10000000000002
 20
207.4614286064405
 11
425.35000000000002
 21
206.49381821591111
  0
LINE
  8
_0-0_
  6
CONTINUOUS
 62
    7
 10
425.35000000000002
 20
206.49381821591111
 11
424.10000000000002
 21
205.46074302145876
  0
LINE
  8
_0-0_
  6
CONTINUOUS
 62
    7
 10
424.10000000000002
 20
205.46074302145876
 11
425.35000000000002
 21
204.49313263092943
  0
LINE
  8
_0-0_
  6
CONTINUOUS
 62
    7
 10
425.35000000000002
 20
204.49313263092943
 11
424.10000000000002
 21
203.46005743647708
  0
LINE
  8
_0-0_
  6
CONTINUOUS
 62
    7
 10
424.10000000000002
 20
203.46005743647708
 11
425.35000000000002
 21
202.49244704594769
  0
LINE
  8
_0-0_
  6
CONTINUOUS
 62
    7
 10
425.35000000000002
 20
202.49244704594769
 11
424.10000000000002
 21
201.45937185149534
  0
LINE
  8
_0-0_
  6
CONTINUOUS
 62
    7
 10
424.10000000000002
 20
201.45937185149534
 11
425.35000000000002
 21
200.49176146096601
  0
LINE
  8
_0-0_
  6
CONTINUOUS
 62
    7
 10
425.35000000000002
 20
200.49176146096601
 11
424.10000000000002
 21
199.45868626651366
  0
LINE
  8
_0-0_
  6
CONTINUOUS
 62
    7
 10
424.10000000000002
 20
199.45868626651366
 11
425.35000000000002
 21
198.49107587598427
  0
LINE
  8
_0-0_
  6
CONTINUOUS
 62
    7
 10
425.35000000000002
 20
198.49107587598427
 11
424.10000000000002
 21
197.45800068153192
  0
LINE
  8
_0-0_
  6
CONTINUOUS
 62
    7
 10
424.10000000000002
 20
197.45800068153192
 11
425.35000000000002
 21
196.49039029100259
  0
LINE
  8
_0-0_
  6
CONTINUOUS
 62
    7
 10
425.35000000000002
 20
196.49039029100259
 11
424.10000000000002
 21
195.45731509655024
  0
LINE
  8
_0-0_
  6
CONTINUOUS
 62
    7
 10
424.10000000000002
 20
195.45731509655024
 11
425.35000000000002
 21
194.48970470602085
  0
LINE
  8
_0-0_
  6
CONTINUOUS
 62
    7
 10
425.35000000000002
 20
194.48970470602085
 11
424.10000000000002
 21
193.4566295115685
  0
LINE
  8
_0-0_
  6
CONTINUOUS
 62
    7
 10
424.10000000000002
 20
193.4566295115685
 11
425.35000000000002
 21
192.48901912103917
  0
LINE
  8
_0-0_
  6
CONTINUOUS
 62
    7
 10
425.35000000000002
 20
192.48901912103917
 11
424.10000000000002
 21
191.45594392658682
  0
LINE
  8
_0-0_
  6
CONTINUOUS
 62
    7
 10
424.10000000000002
 20
191.45594392658682
 11
425.35000000000002
 21
190.48833353605743
  0
LINE
  8
_0-0_
  6
CONTINUOUS
 62
    7
 10
425.35000000000002
 20
190.48833353605743
 11
424.10000000000002
 21
189.45525834160508
  0
LINE
  8
_0-0_
  6
CONTINUOUS
 62
    7
 10
424.10000000000002
 20
189.45525834160508
 11
425.35000000000002
 21
188.48764795107575
  0
LINE
  8
_0-0_
  6
CONTINUOUS
 62
    7
 10
425.35000000000002
 20
188.48764795107575
 11
424.10000000000002
 21
187.4545727566234
  0
LINE
  8
_0-0_
  6
CONTINUOUS
 62
    7
 10
424.10000000000002
 20
187.4545727566234
 11
425.35000000000002
 21
186.48696236609401
  0
LINE
  8
_0-0_
  6
CONTINUOUS
 62
    7
 10
425.35000000000002
 20
186.48696236609401
 11
424.10000000000002
 21
185.45388717164166
  0
LINE
  8
_0-0_
  6
CONTINUOUS
 62
    7
 10
424.10000000000002
 20
185.45388717164166
 11
425.35000000000002
 21
184.48627678111233
  0
LINE
  8
_0-0_
  6
CONTINUOUS
 62
    7
 10
425.35000000000002
 20
184.48627678111233
 11
424.10000000000002
 21
183.45320158665998
  0
LINE
  8
_0-0_
  6
CONTINUOUS
 62
    7
 10
424.10000000000002
 20
183.45320158665998
 11
425.35000000000002
 21
182.48559119613059
  0
LINE
  8
_0-0_
  6
CONTINUOUS
 62
    7
 10
425.35000000000002
 20
182.48559119613059
 11
424.10000000000002
 21
181.45251600167824
  0
LINE
  8
_0-0_
  6
CONTINUOUS
 62
    7
 10
424.10000000000002
 20
181.45251600167824
 11
425.35000000000002
 21
180.48490561114891
  0
LINE
  8
_0-0_
  6
CONTINUOUS
 62
    7
 10
425.35000000000002
 20
180.48490561114891
 11
424.10000000000002
 21
179.45183041669656
  0
LINE
  8
_0-0_
  6
CONTINUOUS
 62
    7
 10
424.10000000000002
 20
179.45183041669656
 11
425.35000000000002
 21
178.48422002616717
  0
LINE
  8
_0-0_
  6
CONTINUOUS
 62
    7
 10
425.35000000000002
 20
178.48422002616717
 11
424.10000000000002
 21
177.45114483171482
  0
LINE
  8
_0-0_
  6
CONTINUOUS
 62
    7
 10
424.10000000000002
 20
177.45114483171482
 11
425.35000000000002
 21
176.48353444118549
  0
LINE
  8
_0-0_
  6
CONTINUOUS
 62
    7
 10
425.35000000000002
 20
176.48353444118549
 11
424.10000000000002
 21
175.45045924673314
  0
LINE
  8
_0-0_
  6
CONTINUOUS
 62
    7
 10
424.10000000000002
 20
175.45045924673314
 11
425.35000000000002
 21
174.48284885620375
  0
LINE
  8
_0-0_
  6
CONTINUOUS
 62
    7
 10
425.35000000000002
 20
174.48284885620375
 11
424.10000000000002
 21
173.4497736617514
  0
LINE
  8
_0-0_
  6
CONTINUOUS
 62
    7
 10
424.10000000000002
 20
173.4497736617514
 11
425.35000000000002
 21
172.48216327122207
  0
LINE
  8
_0-0_
  6
CONTINUOUS
 62
    7
 10
425.35000000000002
 20
172.48216327122207
 11
424.10000000000002
 21
171.44908807676972
  0
LINE
  8
_0-0_
  6
CONTINUOUS
 62
    7
 10
424.10000000000002
 20
171.44908807676972
 11
425.35000000000002
 21
170.48147768624033
  0
LINE
  8
_0-0_
  6
CONTINUOUS
 62
    7
 10
425.35000000000002
 20
170.48147768624033
 11
424.10000000000002
 21
169.44840249178798
  0
LINE
  8
_0-0_
  6
CONTINUOUS
 62
    7
 10
424.10000000000002
 20
169.44840249178798
 11
425.35000000000002
 21
168.48079210125865
  0
LINE
  8
_0-0_
  6
CONTINUOUS
 62
    7
 10
425.35000000000002
 20
168.48079210125865
 11
424.10000000000002
 21
167.4477169068063
  0
LINE
  8
_0-0_
  6
CONTINUOUS
 62
    7
 10
424.10000000000002
 20
167.4477169068063
 11
425.35000000000002
 21
166.48010651627691
  0
LINE
  8
_0-0_
  6
CONTINUOUS
 62
    7
 10
425.35000000000002
 20
166.48010651627691
 11
424.10000000000002
 21
165.44703132182456
  0
LINE
  8
_0-0_
  6
CONTINUOUS
 62
    7
 10
424.10000000000002
 20
165.44703132182456
 11
425.35000000000002
 21
164.47942093129523
  0
LINE
  8
_0-0_
  6
CONTINUOUS
 62
    7
 10
425.35000000000002
 20
164.47942093129523
 11
424.10000000000002
 21
163.44634573684288
  0
LINE
  8
_0-0_
  6
CONTINUOUS
 62
    7
 10
424.10000000000002
 20
163.44634573684288
 11
425.35000000000002
 21
162.47873534631349
  0
LINE
  8
_0-0_
  6
CONTINUOUS
 62
    7
 10
425.35000000000002
 20
162.47873534631349
 11
424.10000000000002
 21
161.44566015186114
  0
LINE
  8
_0-0_
  6
CONTINUOUS
 62
    7
 10
424.10000000000002
 20
161.44566015186114
 11
425.35000000000002
 21
160.47804976133181
  0
LINE
  8
_0-0_
  6
CONTINUOUS
 62
    7
 10
454.65000000000003
 20
237.27134949261397
 11
455.90000000000003
 21
236.30373910208459
  0
LINE
  8
_0-0_
  6
CONTINUOUS
 62
    7
 10
455.90000000000003
 20
236.30373910208459
 11
454.65000000000003
 21
235.27066390763224
  0
LINE
  8
_0-0_
  6
CONTINUOUS
 62
    7
 10
454.65000000000003
 20
235.27066390763224
 11
455.90000000000003
 21
234.30305351710285
  0
LINE
  8
_0-0_
  6
CONTINUOUS
 62
    7
 10
455.90000000000003
 20
234.30305351710285
 11
454.65000000000003
 21
233.26997832265055
  0
LINE
  8
_0-0_
  6
CONTINUOUS
 62
    7
 10
454.65000000000003
 20
233.26997832265055
 11
455.90000000000003
 21
232.30236793212117
  0
LINE
  8
_0-0_
  6
CONTINUOUS
 62
    7
 10
455.90000000000003
 20
232.30236793212117
 11
454.64999999999997
 21
231.26929273766882
  0
LINE
  8
_0-0_
  6
CONTINUOUS
 62
    7
 10
454.64999999999997
 20
231.26929273766882
 11
455.89999999999997
 21
230.30168234713943
  0
LINE
  8
_0-0_
  6
CONTINUOUS
 62
    7
 10
455.89999999999997
 20
230.30168234713943
 11
454.64999999999997
 21
229.26860715268713
  0
LINE
  8
_0-0_
  6
CONTINUOUS
 62
    7
 10
454.64999999999997
 20
229.26860715268713
 11
455.89999999999997
 21
228.30099676215775
  0
LINE
  8
_0-0_
  6
CONTINUOUS
 62
    7
 10
455.89999999999997
 20
228.30099676215775
 11
454.64999999999997
 21
227.2679215677054
  0
LINE
  8
_0-0_
  6
CONTINUOUS
 62
    7
 10
454.64999999999992
 20
227.2679215677054
 11
455.89999999999997
 21
226.30031117717601
  0
LINE
  8
_0-0_
  6
CONTINUOUS
 62
    7
 10
455.89999999999997
 20
226.30031117717601
 11
454.64999999999992
 21
225.26723598272371
  0
LINE
  8
_0-0_
  6
CONTINUOUS
 62
    7
 10
454.64999999999992
 20
225.26723598272371
 11
455.89999999999992
 21
224.29962559219433
  0
LINE
  8
_0-0_
  6
CONTINUOUS
 62
    7
 10
455.89999999999992
 20
224.29962559219433
 11
454.64999999999992
 21
223.26655039774198
  0
LINE
  8
_0-0_
  6
CONTINUOUS
 62
    7
 10
454.64999999999992
 20
223.26655039774198
 11
455.89999999999992
 21
222.29894000721259
  0
LINE
  8
_0-0_
  6
CONTINUOUS
 62
    7
 10
455.89999999999992
 20
222.29894000721259
 11
454.64999999999992
 21
221.26586481276029
  0
LINE
  8
_0-0_
  6
CONTINUOUS
 62
    7
 10
454.64999999999992
 20
221.26586481276029
 11
455.89999999999992
 21
220.29825442223091
  0
LINE
  8
_0-0_
  6
CONTINUOUS
 62
    7
 10
455.89999999999992
 20
220.29825442223091
 11
454.64999999999992
 21
219.26517922777856
  0
LINE
  8
_0-0_
  6
CONTINUOUS
 62
    7
 10
454.64999999999992
 20
219.26517922777856
 11
455.89999999999992
 21
218.29756883724917
  0
LINE
  8
_0-0_
  6
CONTINUOUS
 62
    7
 10
455.89999999999992
 20
218.29756883724917
 11
454.64999999999992
 21
217.26449364279687
  0
LINE
  8
_0-0_
  6
CONTINUOUS
 62
    7
 10
454.64999999999992
 20
217.26449364279687
 11
455.89999999999992
 21
216.29688325226749
  0
LINE
  8
_0-0_
  6
CONTINUOUS
 62
    7
 10
455.89999999999992
 20
216.29688325226749
 11
454.64999999999992
 21
215.26380805781514
  0
LINE
  8
_0-0_
  6
CONTINUOUS
 62
    7
 10
454.64999999999992
 20
215.26380805781514
 11
455.89999999999992
 21
214.29619766728575
  0
LINE
  8
_0-0_
  6
CONTINUOUS
 62
    7
 10
455.89999999999992
 20
214.29619766728575
 11
454.64999999999992
 21
213.26312247283345
  0
LINE
  8
_0-0_
  6
CONTINUOUS
 62
    7
 10
454.64999999999992
 20
213.26312247283345
 11
455.89999999999992
 21
212.29551208230407
  0
LINE
  8
_0-0_
  6
CONTINUOUS
 62
    7
 10
455.89999999999992
 20
212.29551208230407
 11
454.64999999999992
 21
211.26243688785172
  0
LINE
  8
_0-0_
  6
CONTINUOUS
 62
    7
 10
454.64999999999986
 20
211.26243688785172
 11
455.89999999999992
 21
210.29482649732233
  0
LINE
  8
_0-0_
  6
CONTINUOUS
 62
    7
 10
455.89999999999992
 20
210.29482649732233
 11
454.64999999999986
 21
209.26175130287003
  0
LINE
  8
_0-0_
  6
CONTINUOUS
 62
    7
 10
454.64999999999986
 20
209.26175130287003
 11
455.89999999999986
 21
208.29414091234065
  0
LINE
  8
_0-0_
  6
CONTINUOUS
 62
    7
 10
455.89999999999986
 20
208.29414091234065
 11
454.64999999999986
 21
207.2610657178883
  0
LINE
  8
_0-0_
  6
CONTINUOUS
 62
    7
 10
454.64999999999986
 20
207.2610657178883
 11
455.89999999999986
 21
206.29345532735891
  0
LINE
  8
_0-0_
  6
CONTINUOUS
 62
    7
 10
455.89999999999986
 20
206.29345532735891
 11
454.64999999999986
 21
205.26038013290661
  0
LINE
  8
_0-0_
  6
CONTINUOUS
 62
    7
 10
454.6499999999998
 20
205.26038013290661
 11
455.8999999999998
 21
204.29276974237723
  0
LINE
  8
_0-0_
  6
CONTINUOUS
 62
    7
 10
455.8999999999998
 20
204.29276974237723
 11
454.6499999999998
 21
203.25969454792488
  0
LINE
  8
_0-0_
  6
CONTINUOUS
 62
    7
 10
454.6499999999998
 20
203.25969454792488
 11
455.8999999999998
 21
202.29208415739549
  0
LINE
  8
_0-0_
  6
CONTINUOUS
 62
    7
 10
455.8999999999998
 20
202.29208415739549
 11
454.6499999999998
 21
201.25900896294319
  0
LINE
  8
_0-0_
  6
CONTINUOUS
 62
    7
 10
454.6499999999998
 20
201.25900896294319
 11
455.8999999999998
 21
200.29139857241381
  0
LINE
  8
_0-0_
  6
CONTINUOUS
 62
    7
 10
455.8999999999998
 20
200.29139857241381
 11
454.6499999999998
 21
199.25832337796146
  0
LINE
  8
_0-0_
  6
CONTINUOUS
 62
    7
 10
454.6499999999998
 20
199.25832337796146
 11
455.8999999999998
 21
198.29071298743207
  0
LINE
  8
_0-0_
  6
CONTINUOUS
 62
    7
 10
455.8999999999998
 20
198.29071298743207
 11
454.6499999999998
 21
197.25763779297977
  0
LINE
  8
_0-0_
  6
CONTINUOUS
 62
    7
 10
454.6499999999998
 20
197.25763779297977
 11
455.8999999999998
 21
196.29002740245039
  0
LINE
  8
_0-0_
  6
CONTINUOUS
 62
    7
 10
455.8999999999998
 20
196.29002740245039
 11
454.6499999999998
 21
195.25695220799804
  0
LINE
  8
_0-0_
  6
CONTINUOUS
 62
    7
 10
454.6499999999998
 20
195.25695220799804
 11
455.8999999999998
 21
194.28934181746865
  0
LINE
  8
_0-0_
  6
CONTINUOUS
 62
    7
 10
455.8999999999998
 20
194.28934181746865
 11
454.6499999999998
 21
193.25626662301635
  0
LINE
  8
_0-0_
  6
CONTINUOUS
 62
    7
 10
454.6499999999998
 20
193.25626662301635
 11
455.8999999999998
 21
192.28865623248697
  0
LINE
  8
_0-0_
  6
CONTINUOUS
 62
    7
 10
455.8999999999998
 20
192.28865623248697
 11
454.6499999999998
 21
191.25558103803462
  0
LINE
  8
_0-0_
  6
CONTINUOUS
 62
    7
 10
454.6499999999998
 20
191.25558103803462
 11
455.8999999999998
 21
190.28797064750523
  0
LINE
  8
_0-0_
  6
CONTINUOUS
 62
    7
 10
455.8999999999998
 20
190.28797064750523
 11
454.6499999999998
 21
189.25489545305293
  0
LINE
  8
_0-0_
  6
CONTINUOUS
 62
    7
 10
454.64999999999974
 20
189.25489545305293
 11
455.89999999999974
 21
188.28728506252355
  0
LINE
  8
_0-0_
  6
CONTINUOUS
 62
    7
 10
455.89999999999974
 20
188.28728506252355
 11
454.64999999999974
 21
187.2542098680712
  0
LINE
  8
_0-0_
  6
CONTINUOUS
 62
    7
 10
454.64999999999974
 20
187.2542098680712
 11
455.89999999999974
 21
186.28659947754181
  0
LINE
  8
_0-0_
  6
CONTINUOUS
 62
    7
 10
455.89999999999974
 20
186.28659947754181
 11
454.64999999999974
 21
185.25352428308951
  0
LINE
  8
_0-0_
  6
CONTINUOUS
 62
    7
 10
454.64999999999974
 20
185.25352428308951
 11
455.89999999999974
 21
184.28591389256013
  0
LINE
  8
_0-0_
  6
CONTINUOUS
 62
    7
 10
455.89999999999974
 20
184.28591389256013
 11
454.64999999999969
 21
183.25283869810778
  0
LINE
  8
_0-0_
  6
CONTINUOUS
 62
    7
 10
454.64999999999969
 20
183.25283869810778
 11
455.89999999999969
 21
182.28522830757839
  0
LINE
  8
_0-0_
  6
CONTINUOUS
 62
    7
 10
455.89999999999969
 20
182.28522830757839
 11
454.64999999999969
 21
181.25215311312609
  0
LINE
  8
_0-0_
  6
CONTINUOUS
 62
    7
 10
454.64999999999969
 20
181.25215311312609
 11
455.89999999999969
 21
180.28454272259671
  0
LINE
  8
_0-0_
  6
CONTINUOUS
 62
    7
 10
455.89999999999969
 20
180.28454272259671
 11
454.64999999999969
 21
179.25146752814436
  0
LINE
  8
_0-0_
  6
CONTINUOUS
 62
    7
 10
454.64999999999969
 20
179.25146752814436
 11
455.89999999999969
 21
178.28385713761497
  0
LINE
  8
_0-0_
  6
CONTINUOUS
 62
    7
 10
455.89999999999969
 20
178.28385713761497
 11
454.64999999999969
 21
177.25078194316267
  0
LINE
  8
_0-0_
  6
CONTINUOUS
 62
    7
 10
454.64999999999969
 20
177.25078194316267
 11
455.89999999999969
 21
176.28317155263329
  0
LINE
  8
_0-0_
  6
CONTINUOUS
 62
    7
 10
455.89999999999969
 20
176.28317155263329
 11
454.64999999999969
 21
175.25009635818094
  0
LINE
  8
_0-0_
  6
CONTINUOUS
 62
    7
 10
454.64999999999969
 20
175.25009635818094
 11
455.89999999999969
 21
174.28248596765155
  0
LINE
  8
_0-0_
  6
CONTINUOUS
 62
    7
 10
455.89999999999969
 20
174.28248596765155
 11
454.64999999999969
 21
173.24941077319925
  0
LINE
  8
_0-0_
  6
CONTINUOUS
 62
    7
 10
454.64999999999969
 20
173.24941077319925
 11
455.89999999999969
 21
172.28180038266987
  0
LINE
  8
_0-0_
  6
CONTINUOUS
 62
    7
 10
455.89999999999969
 20
172.28180038266987
 11
454.64999999999969
 21
171.24872518821752
  0
LINE
  8
_0-0_
  6
CONTINUOUS
 62
    7
 10
454.64999999999969
 20
171.24872518821752
 11
455.89999999999969
 21
170.28111479768813
  0
LINE
  8
_0-0_
  6
CONTINUOUS
 62
    7
 10
455.89999999999969
 20
170.28111479768813
 11
454.64999999999969
 21
169.24803960323583
  0
LINE
  8
_0-0_
  6
CONTINUOUS
 62
    7
 10
454.64999999999969
 20
169.24803960323583
 11
455.89999999999969
 21
168.28042921270645
  0
LINE
  8
_0-0_
  6
CONTINUOUS
 62
    7
 10
455.89999999999969
 20
168.28042921270645
 11
454.64999999999963
 21
167.2473540182541
  0
LINE
  8
_0-0_
  6
CONTINUOUS
 62
    7
 10
454.64999999999963
 20
167.2473540182541
 11
455.89999999999963
 21
166.27974362772471
  0
LINE
  8
_0-0_
  6
CONTINUOUS
 62
    7
 10
455.89999999999963
 20
166.27974362772471
 11
454.64999999999963
 21
165.24666843327241
  0
LINE
  8
_0-0_
  6
CONTINUOUS
 62
    7
 10
454.64999999999963
 20
165.24666843327241
 11
455.89999999999963
 21
164.27905804274303
  0
LINE
  8
_0-0_
  6
CONTINUOUS
 62
    7
 10
455.89999999999963
 20
164.27905804274303
 11
454.64999999999963
 21
163.24598284829068
  0
LINE
  8
_0-0_
  6
CONTINUOUS
 62
    7
 10
454.64999999999957
 20
163.24598284829068
 11
455.89999999999963
 21
162.27837245776129
  0
LINE
  8
_0-0_
  6
CONTINUOUS
 62
    7
 10
455.89999999999963
 20
162.27837245776129
 11
454.64999999999957
 21
161.24529726330899
  0
LINE
  8
_0-0_
  6
CONTINUOUS
 62
    7
 10
454.64999999999957
 20
161.24529726330899
 11
455.89999999999957
 21
160.27768687277961
  0
LINE
  8
_0-0_
  6
CONTINUOUS
 62
    7
 10
424.10000000000002
 20
239.47239796614786
 11
424.85000000000002
 21
240.09224308280789
  0
LINE
  8
_0-0_
  6
CONTINUOUS
 62
    7
 10
425.35000000000002
 20
238.50478757561847
 11
454.65000000000003
 21
239.27203507759566
  0
LINE
  8
_0-0_
  6
CONTINUOUS
 62
    7
 10
425.35000000000002
 20
236.50410199063679
 11
454.65000000000003
 21
237.27134949261397
  0
LINE
  8
_0-0_
  6
CONTINUOUS
 62
    7
 10
425.35000000000002
 20
234.503416405655
 11
454.65000000000003
 21
235.27066390763218
  0
LINE
  8
_0-0_
  6
CONTINUOUS
 62
    7
 10
425.35000000000002
 20
232.50273082067326
 11
454.65000000000003
 21
233.26997832265044
  0
LINE
  8
_0-0_
  6
CONTINUOUS
 62
    7
 10
425.35000000000002
 20
230.50204523569152
 11
454.65000000000003
 21
231.2692927376687
  0
LINE
  8
_0-0_
  6
CONTINUOUS
 62
    7
 10
425.35000000000002
 20
228.50135965070984
 11
454.65000000000003
 21
229.26860715268702
  0
LINE
  8
_0-0_
  6
CONTINUOUS
 62
    7
 10
425.35000000000002
 20
226.50067406572804
 11
454.65000000000003
 21
227.26792156770522
  0
LINE
  8
_0-0_
  6
CONTINUOUS
 62
    7
 10
425.35000000000002
 20
224.49998848074631
 11
454.65000000000003
 21
225.26723598272349
  0
LINE
  8
_0-0_
  6
CONTINUOUS
 62
    7
 10
425.35000000000002
 20
222.49930289576462
 11
454.65000000000003
 21
223.2665503977418
  0
LINE
  8
_0-0_
  6
CONTINUOUS
 62
    7
 10
425.35000000000002
 20
220.49861731078283
 11
454.65000000000003
 21
221.26586481276001
  0
LINE
  8
_0-0_
  6
CONTINUOUS
 62
    7
 10
425.35000000000002
 20
218.49793172580109
 11
454.65000000000003
 21
219.26517922777827
  0
LINE
  8
_0-0_
  6
CONTINUOUS
 62
    7
 10
425.35000000000002
 20
216.49724614081941
 11
454.65000000000003
 21
217.26449364279659
  0
LINE
  8
_0-0_
  6
CONTINUOUS
 62
    7
 10
425.35000000000002
 20
214.49656055583767
 11
454.65000000000003
 21
215.26380805781485
  0
LINE
  8
_0-0_
  6
CONTINUOUS
 62
    7
 10
425.35000000000002
 20
212.49587497085587
 11
454.65000000000003
 21
213.26312247283306
  0
LINE
  8
_0-0_
  6
CONTINUOUS
 62
    7
 10
425.35000000000002
 20
210.49518938587419
 11
454.65000000000003
 21
211.26243688785137
  0
LINE
  8
_0-0_
  6
CONTINUOUS
 62
    7
 10
425.35000000000002
 20
208.49450380089245
 11
454.65000000000003
 21
209.26175130286964
  0
LINE
  8
_0-0_
  6
CONTINUOUS
 62
    7
 10
425.35000000000002
 20
206.49381821591072
 11
454.65000000000003
 21
207.2610657178879
  0
LINE
  8
_0-0_
  6
CONTINUOUS
 62
    7
 10
425.35000000000002
 20
204.49313263092898
 11
454.65000000000003
 21
205.26038013290616
  0
LINE
  8
_0-0_
  6
CONTINUOUS
 62
    7
 10
425.35000000000002
 20
202.49244704594724
 11
454.65000000000003
 21
203.25969454792442
  0
LINE
  8
_0-0_
  6
CONTINUOUS
 62
    7
 10
425.35000000000002
 20
200.4917614609655
 11
454.65000000000003
 21
201.25900896294263
  0
LINE
  8
_0-0_
  6
CONTINUOUS
 62
    7
 10
425.35000000000002
 20
198.49107587598376
 11
454.65000000000003
 21
199.25832337796094
  0
LINE
  8
_0-0_
  6
CONTINUOUS
 62
    7
 10
425.35000000000002
 20
196.49039029100208
 11
454.65000000000003
 21
197.25763779297926
  0
LINE
  8
_0-0_
  6
CONTINUOUS
 62
    7
 10
425.35000000000002
 20
194.48970470602029
 11
454.65000000000003
 21
195.25695220799747
  0
LINE
  8
_0-0_
  6
CONTINUOUS
 62
    7
 10
425.35000000000002
 20
192.48901912103849
 11
454.65000000000003
 21
193.25626662301567
  0
LINE
  8
_0-0_
  6
CONTINUOUS
 62
    7
 10
425.35000000000002
 20
190.48833353605681
 11
454.65000000000003
 21
191.25558103803399
  0
LINE
  8
_0-0_
  6
CONTINUOUS
 62
    7
 10
425.35000000000002
 20
188.48764795107513
 11
454.65000000000003
 21
189.25489545305231
  0
LINE
  8
_0-0_
  6
CONTINUOUS
 62
    7
 10
425.35000000000002
 20
186.48696236609333
 11
454.65000000000003
 21
187.25420986807051
  0
LINE
  8
_0-0_
  6
CONTINUOUS
 62
    7
 10
425.35000000000002
 20
184.48627678111159
 11
454.65000000000003
 21
185.25352428308877
  0
LINE
  8
_0-0_
  6
CONTINUOUS
 62
    7
 10
425.35000000000002
 20
182.48559119612986
 11
454.65000000000003
 21
183.25283869810704
  0
LINE
  8
_0-0_
  6
CONTINUOUS
 62
    7
 10
425.35000000000002
 20
180.48490561114817
 11
454.65000000000003
 21
181.2521531131253
  0
LINE
  8
_0-0_
  6
CONTINUOUS
 62
    7
 10
425.35000000000002
 20
178.48422002616644
 11
454.65000000000003
 21
179.25146752814362
  0
LINE
  8
_0-0_
  6
CONTINUOUS
 62
    7
 10
425.35000000000002
 20
176.4835344411847
 11
454.65000000000003
 21
177.25078194316188
  0
LINE
  8
_0-0_
  6
CONTINUOUS
 62
    7
 10
425.35000000000002
 20
174.4828488562029
 11
454.65000000000003
 21
175.25009635818008
  0
LINE
  8
_0-0_
  6
CONTINUOUS
 62
    7
 10
425.35000000000002
 20
172.48216327122116
 11
454.65000000000003
 21
173.24941077319834
  0
LINE
  8
_0-0_
  6
CONTINUOUS
 62
    7
 10
425.35000000000002
 20
170.48147768623948
 11
454.65000000000003
 21
171.24872518821666
  0
LINE
  8
_0-0_
  6
CONTINUOUS
 62
    7
 10
425.35000000000002
 20
168.48079210125774
 11
454.65000000000003
 21
169.24803960323492
  0
LINE
  8
_0-0_
  6
CONTINUOUS
 62
    7
 10
425.35000000000002
 20
166.48010651627595
 11
454.65000000000003
 21
167.24735401825313
  0
LINE
  8
_0-0_
  6
CONTINUOUS
 62
    7
 10
425.35000000000002
 20
164.47942093129421
 11
454.65000000000003
 21
165.24666843327139
  0
LINE
  8
_0-0_
  6
CONTINUOUS
 62
    7
 10
425.35000000000002
 20
162.47873534631253
 11
454.65000000000003
 21
163.24598284828971
  0
LINE
  8
_0-0_
  6
CONTINUOUS
 62
    4
 10
424.85000000000002
 20
240.19550749281944
 11
455.15000000000003
 21
240.19550749281944
  0
LINE
  8
_0-0_
  6
CONTINUOUS
 62
    7
 10
455.90000000000003
 20
240.30511027204801
 11
454.65000000000003
 21
239.27203507759566
  0
LINE
  8
_0-0_
  6
CONTINUOUS
 62
    7
 10
455.53902742817996
 20
240.58453492099937
 11
455.90000000000003
 21
240.30511027204801
  0
LINE
  8
_0-0_
  6
CONTINUOUS
 62
    7
 10
454.51123985949101
 20
159.12993195101677
 11
453.98932680759975
 21
157.94497456687844
  0
LINE
  8
_0-0_
  6
CONTINUOUS
 62
    7
 10
455.89999999999957
 20
160.27768687277961
 11
454.51123985949101
 21
159.12993195101677
  0
LINE
  8
_0-0_
  6
CONTINUOUS
 62
    7
 10
425.35000000000002
 20
160.47804976133181
 11
424.09999999999882
 21
159.44497456687844
  0
LINE
  8
_0-0_
  6
CONTINUOUS
 62
    7
 10
454.89243502509162
 20
159.44497456687844
 11
424.09999999999882
 21
159.44497456687844
  0
LINE
  8
_0-0_
  6
CONTINUOUS
 62
    7
 10
425.34999999999996
 20
159.44497456687844
 11
426.0106731924003
 21
157.94497456687844
  0
LINE
  8
_0-0_
  6
CONTINUOUS
 62
    7
 10
453.98932680759975
 20
157.94497456687844
 11
426.0106731924003
 21
157.94497456687844
  0
LINE
  8
_0-0_
  6
CONTINUOUS
 62
    7
 10
425.34999999999871
 20
160.47804976133073
 11
454.65000000000003
 21
161.24529726330797
  0
LINE
  8
_0-0_
  6
CONTINUOUS
 62
    4
 10
424.10000000000002
 20
237.47171238116612
 11
455.90000000000003
 21
238.30442468706627
  0
LINE
  8
_0-0_
  6
CONTINUOUS
 62
    4
 10
424.10000000000002
 20
161.44566015186012
 11
455.89999999999963
 21
162.27837245776026
  0
LINE
  8
_0-0_
  6
CONTINUOUS
 62
    4
 10
424.10000000000002
 20
163.44634573684191
 11
455.89999999999963
 21
164.27905804274206
  0
LINE
  8
_0-0_
  6
CONTINUOUS
 62
    4
 10
424.10000000000002
 20
165.44703132182371
 11
455.89999999999963
 21
166.27974362772386
  0
LINE
  8
_0-0_
  6
CONTINUOUS
 62
    4
 10
424.10000000000002
 20
167.44771690680539
 11
455.89999999999969
 21
168.28042921270554
  0
LINE
  8
_0-0_
  6
CONTINUOUS
 62
    4
 10
424.10000000000002
 20
169.44840249178707
 11
455.89999999999969
 21
170.28111479768722
  0
LINE
  8
_0-0_
  6
CONTINUOUS
 62
    4
 10
424.10000000000002
 20
171.44908807676887
 11
455.89999999999969
 21
172.28180038266901
  0
LINE
  8
_0-0_
  6
CONTINUOUS
 62
    4
 10
424.10000000000002
 20
173.44977366175055
 11
455.89999999999969
 21
174.2824859676507
  0
LINE
  8
_0-0_
  6
CONTINUOUS
 62
    4
 10
424.10000000000002
 20
175.45045924673235
 11
455.89999999999969
 21
176.28317155263249
  0
LINE
  8
_0-0_
  6
CONTINUOUS
 62
    4
 10
424.10000000000002
 20
177.45114483171408
 11
455.89999999999969
 21
178.28385713761423
  0
LINE
  8
_0-0_
  6
CONTINUOUS
 62
    4
 10
424.10000000000002
 20
179.45183041669577
 11
455.89999999999969
 21
180.28454272259591
  0
LINE
  8
_0-0_
  6
CONTINUOUS
 62
    4
 10
424.10000000000002
 20
181.4525160016775
 11
455.89999999999969
 21
182.28522830757765
  0
LINE
  8
_0-0_
  6
CONTINUOUS
 62
    4
 10
424.10000000000002
 20
183.4532015866593
 11
455.89999999999974
 21
184.28591389255939
  0
LINE
  8
_0-0_
  6
CONTINUOUS
 62
    4
 10
424.10000000000002
 20
185.45388717164104
 11
455.89999999999974
 21
186.28659947754118
  0
LINE
  8
_0-0_
  6
CONTINUOUS
 62
    4
 10
424.10000000000002
 20
187.45457275662272
 11
455.89999999999974
 21
188.28728506252286
  0
LINE
  8
_0-0_
  6
CONTINUOUS
 62
    4
 10
424.10000000000002
 20
189.45525834160446
 11
455.8999999999998
 21
190.2879706475046
  0
LINE
  8
_0-0_
  6
CONTINUOUS
 62
    4
 10
424.10000000000002
 20
191.45594392658625
 11
455.8999999999998
 21
192.2886562324864
  0
LINE
  8
_0-0_
  6
CONTINUOUS
 62
    4
 10
424.10000000000002
 20
193.45662951156793
 11
455.8999999999998
 21
194.28934181746808
  0
LINE
  8
_0-0_
  6
CONTINUOUS
 62
    4
 10
424.10000000000002
 20
195.45731509654967
 11
455.8999999999998
 21
196.29002740244982
  0
LINE
  8
_0-0_
  6
CONTINUOUS
 62
    4
 10
424.10000000000002
 20
197.45800068153147
 11
455.8999999999998
 21
198.29071298743156
  0
LINE
  8
_0-0_
  6
CONTINUOUS
 62
    4
 10
424.10000000000002
 20
199.45868626651315
 11
455.8999999999998
 21
200.29139857241329
  0
LINE
  8
_0-0_
  6
CONTINUOUS
 62
    4
 10
424.10000000000002
 20
201.45937185149489
 11
455.8999999999998
 21
202.29208415739503
  0
LINE
  8
_0-0_
  6
CONTINUOUS
 62
    4
 10
424.10000000000002
 20
203.46005743647657
 11
455.8999999999998
 21
204.29276974237671
  0
LINE
  8
_0-0_
  6
CONTINUOUS
 62
    4
 10
424.10000000000002
 20
205.46074302145837
 11
455.89999999999986
 21
206.29345532735851
  0
LINE
  8
_0-0_
  6
CONTINUOUS
 62
    4
 10
424.10000000000002
 20
207.4614286064401
 11
455.89999999999986
 21
208.29414091234025
  0
LINE
  8
_0-0_
  6
CONTINUOUS
 62
    4
 10
424.10000000000002
 20
209.46211419142184
 11
455.89999999999992
 21
210.29482649732199
  0
LINE
  8
_0-0_
  6
CONTINUOUS
 62
    4
 10
424.10000000000002
 20
211.46279977640358
 11
455.89999999999992
 21
212.29551208230373
  0
LINE
  8
_0-0_
  6
CONTINUOUS
 62
    4
 10
424.10000000000002
 20
213.46348536138526
 11
455.89999999999992
 21
214.29619766728541
  0
LINE
  8
_0-0_
  6
CONTINUOUS
 62
    4
 10
424.10000000000002
 20
215.46417094636706
 11
455.89999999999992
 21
216.2968832522672
  0
LINE
  8
_0-0_
  6
CONTINUOUS
 62
    4
 10
424.10000000000002
 20
217.4648565313488
 11
455.89999999999992
 21
218.29756883724894
  0
LINE
  8
_0-0_
  6
CONTINUOUS
 62
    4
 10
424.10000000000002
 20
219.46554211633053
 11
455.89999999999992
 21
220.29825442223068
  0
LINE
  8
_0-0_
  6
CONTINUOUS
 62
    4
 10
424.10000000000002
 20
221.46622770131222
 11
455.89999999999992
 21
222.29894000721236
  0
LINE
  8
_0-0_
  6
CONTINUOUS
 62
    4
 10
424.10000000000002
 20
223.46691328629395
 11
455.89999999999992
 21
224.2996255921941
  0
LINE
  8
_0-0_
  6
CONTINUOUS
 62
    4
 10
424.10000000000002
 20
225.46759887127575
 11
455.89999999999997
 21
226.30031117717589
  0
LINE
  8
_0-0_
  6
CONTINUOUS
 62
    4
 10
424.10000000000002
 20
227.46828445625749
 11
455.89999999999997
 21
228.30099676215763
  0
LINE
  8
_0-0_
  6
CONTINUOUS
 62
    4
 10
424.10000000000002
 20
229.46897004123917
 11
455.89999999999997
 21
230.30168234713931
  0
LINE
  8
_0-0_
  6
CONTINUOUS
 62
    4
 10
424.10000000000002
 20
231.46965562622091
 11
455.90000000000003
 21
232.30236793212105
  0
LINE
  8
_0-0_
  6
CONTINUOUS
 62
    4
 10
424.10000000000002
 20
233.47034121120265
 11
455.90000000000003
 21
234.30305351710279
  0
LINE
  8
_0-0_
  6
CONTINUOUS
 62
    4
 10
424.10000000000002
 20
235.47102679618444
 11
455.90000000000003
 21
236.30373910208459
  0
LINE
  8
_0-0_
  6
CONTINUOUS
 62
    4
 10
486.59604868814489
 20
257.94497456687895
 11
486.59604868814489
 21
157.94497456687844
  0
LINE
  8
_0-0_
  6
CONTINUOUS
 62
    7
 10
486.59604868814489
 20
257.94497456687895
 11
487.37250582345245
 21
255.04719708801172
  0
LINE
  8
_0-0_
  6
CONTINUOUS
 62
    7
 10
486.59604868814489
 20
257.94497456687895
 11
485.81959155283732
 21
255.04719708801172
  0
LINE
  8
_0-0_
  6
CONTINUOUS
 62
    7
 10
486.59604868814489
 20
157.94497456687844
 11
485.81959155283732
 21
160.84275204574566
  0
LINE
  8
_0-0_
  6
CONTINUOUS
 62
    7
 10
486.59604868814489
 20
157.94497456687844
 11
487.37250582345245
 21
160.84275204574566
  0
LINE
  8
_0-0_
  6
CONTINUOUS
 62
    4
 10
486.59604868814489
 20
257.94497456687895
 11
470.15329504921595
 21
257.94497456687895
  0
LINE
  8
_0-0_
  6
CONTINUOUS
 62
    4
 10
486.59604868814489
 20
157.94497456687844
 11
470.15329504921595
 21
157.94497456687844
  0
LINE
  8
_0-0_
  6
CONTINUOUS
 62
    4
 10
475.34574356677245
 20
240.94550749281944
 11
475.34574356677245
 21
157.94497456687844
  0
LINE
  8
_0-0_
  6
CONTINUOUS
 62
    7
 10
475.34574356677245
 20
240.94550749281944
 11
476.12220070208002
 21
238.04773001395227
  0
LINE
  8
_0-0_
  6
CONTINUOUS
 62
    7
 10
475.34574356677245
 20
240.94550749281944
 11
474.56928643146488
 21
238.04773001395227
  0
LINE
  8
_0-0_
  6
CONTINUOUS
 62
    7
 10
475.34574356677245
 20
157.94497456687844
 11
474.56928643146488
 21
160.84275204574566
  0
LINE
  8
_0-0_
  6
CONTINUOUS
 62
    7
 10
475.34574356677245
 20
157.94497456687844
 11
476.12220070208002
 21
160.84275204574566
  0
LINE
  8
_0-0_
  6
CONTINUOUS
 62
    4
 10
475.34574356677245
 20
240.94550749281944
 11
464.96084653165945
 21
240.94550749281944
  0
LINE
  8
_0-0_
  6
CONTINUOUS
 62
    4
 10
475.34574356677245
 20
157.94497456687844
 11
464.96084653165945
 21
157.94497456687844
  0
LINE
  8
_0-0_
  6
CONTINUOUS
 62
    7
 10
426.80000149281642
 20
141.41359630207659
 11
429.69777897168359
 21
142.19005343738416
  0
LINE
  8
_0-0_
  6
CONTINUOUS
 62
    7
 10
426.80000149281642
 20
141.41359630207659
 11
429.69777897168359
 21
140.63713916676903
  0
LINE
  8
_0-0_
  6
CONTINUOUS
 62
    7
 10
453.19999920399806
 20
141.41359630207659
 11
450.30222172513089
 21
140.63713916676903
  0
LINE
  8
_0-0_
  6
CONTINUOUS
 62
    7
 10
453.19999920399806
 20
141.41359630207659
 11
450.30222172513089
 21
142.19005343738416
  0
LINE
  8
_0-0_
  6
CONTINUOUS
 62
    4
 10
426.80000149281642
 20
153.29127975184837
 11
426.80000149281642
 21
141.41359630207659
  0
LINE
  8
_0-0_
  6
CONTINUOUS
 62
    4
 10
453.19999920399806
 20
153.29127975184837
 11
453.19999920399806
 21
141.41359630207659
  0
LINE
  8
_0-0_
  6
CENTER1
 62
    4
 10
440
 20
332.55344570369948
 11
440
 21
150.87862530111345
  0
TEXT
  8
_0-0_
 62
    7
 10
417
 20
125.60216721056984
 40
4
 41
1
 50
0
  1
排水栓（排水目皿）100mm
  0
LINE
  8
_0-0_
  6
CONTINUOUS
 62
    7
 10
467.5
 20
131.10216721056985
 11
412.5
 21
131.10216721056985
  0
LINE
  8
_0-0_
  6
CONTINUOUS
 62
    7
 10
467.5
 20
124.10216721056984
 11
467.5
 21
131.10216721056985
  0
LINE
  8
_0-0_
  6
CONTINUOUS
 62
    7
 10
412.5
 20
124.10216721056984
 11
467.5
 21
124.10216721056984
  0
LINE
  8
_0-0_
  6
CONTINUOUS
 62
    7
 10
412.5
 20
131.10216721056985
 11
412.5
 21
124.10216721056984
  0
TEXT
  8
_0-0_
 62
    4
 10
432.50000034840724
 20
142.41359630207659
 40
5
 41
1
 50
0
  1
φ26.4
  0
TEXT
  8
_0-0_
 62
    4
 10
474.34574356677245
 20
196.94524102984894
 40
5
 41
1
 50
90
  1
83
  0
TEXT
  8
_0-0_
 62
    4
 10
485.59604868814489
 20
204.19497456687872
 40
5
 41
1
 50
90
  1
100
  0
LINE
  8
_0-0_
  6
CONTINUOUS
 62
    4
 10
466.85000072987696
 20
346.54103117834733
 11
413.14999996693751
 21
346.54103117834733
  0
LINE
  8
_0-0_
  6
CONTINUOUS
 62
    7
 10
466.85000072987696
 20
346.54103117834733
 11
463.95222325100979
 21
345.76457404303971
  0
LINE
  8
_0-0_
  6
CONTINUOUS
 62
    7
 10
466.85000072987696
 20
346.54103117834733
 11
463.95222325100979
 21
347.31748831365484
  0
LINE
  8
_0-0_
  6
CONTINUOUS
 62
    7
 10
413.14999996693751
 20
346.54103117834733
 11
416.04777744580468
 21
347.31748831365484
  0
LINE
  8
_0-0_
  6
CONTINUOUS
 62
    7
 10
413.14999996693751
 20
346.54103117834733
 11
416.04777744580468
 21
345.76457404303971
  0
LINE
  8
_0-0_
  6
CONTINUOUS
 62
    4
 10
466.85000072987696
 20
319.74941030433524
 11
466.85000072987696
 21
346.54103117834733
  0
LINE
  8
_0-0_
  6
CONTINUOUS
 62
    4
 10
413.14999996693751
 20
319.74941030433524
 11
413.14999996693751
 21
346.54103117834733
  0
TEXT
  8
_0-0_
 62
    4
 10
432.50000034840724
 20
347.54103117834733
 40
5
 41
1
 50
0
  1
φ53.7
  0
TEXT
  8
_0-0_
 62
    7
 10
469.5
 20
125.60216721056984
 40
4
 41
1
 50
0
  1
S=1/2
  0
LINE
  8
_0-0_
  6
CENTER1
 62
    4
 10
154
 20
315.50176538937506
 11
154
 21
159.58223035814529
  0
LINE
  8
_0-0_
  6
CENTER1
 62
    4
 10
399.11681576274179
 20
300.70924493823304
 11
482.52868874456555
 21
300.70924493823304
  0
CIRCLE
  8
_0-0_
  6
CONTINUOUS
 62
    7
 10
154
 20
300.70924493823304
 40
26.849999999999997
  0
CIRCLE
  8
_0-0_
  6
CONTINUOUS
 62
    7
 10
154
 20
300.70924493823304
 40
4.9999999999994999
  0
CIRCLE
  8
_0-0_
  6
CONTINUOUS
 62
    7
 10
148.53630531766452
 20
307.22062270474509
 40
2.5000000000005
  0
CIRCLE
  8
_0-0_
  6
CONTINUOUS
 62
    7
 10
145.62913409939653
 20
302.18525444840258
 40
2.5000000000005
  0
CIRCLE
  8
_0-0_
  6
CONTINUOUS
 62
    7
 10
146.63878406783203
 20
296.45924493823349
 40
2.5000000000005
  0
CIRCLE
  8
_0-0_
  6
CONTINUOUS
 62
    7
 10
151.092828781732
 20
292.72185766155303
 40
2.5000000000005
  0
CIRCLE
  8
_0-0_
  6
CONTINUOUS
 62
    7
 10
156.9071712182681
 20
292.72185766155303
 40
2.5000000000005
  0
CIRCLE
  8
_0-0_
  6
CONTINUOUS
 62
    7
 10
161.36121593216807
 20
296.45924493823349
 40
2.5000000000005
  0
CIRCLE
  8
_0-0_
  6
CONTINUOUS
 62
    7
 10
162.37086590060357
 20
302.18525444840258
 40
2.5000000000005
  0
CIRCLE
  8
_0-0_
  6
CONTINUOUS
 62
    7
 10
159.46369468233547
 20
307.22062270474509
 40
2.5000000000005
  0
CIRCLE
  8
_0-0_
  6
CONTINUOUS
 62
    7
 10
154
 20
309.2092449382336
 40
2.5000000000005
  0
INSERT
  2
-001-_None_2_
  8
_0-0_
 10
141.53303382633555
 20
293.30487093196654
 41
0.375
 42
0.375
 50
210.70690126177498
  0
INSERT
  2
-001-_None_2_
  8
_0-0_
 10
159.25102852613349
 20
306.53440516905902
 41
0.375
 42
0.375
 50
47.967257976598993
  0
INSERT
  2
-001-_None_2_
  8
_0-0_
 10
157.58140798947408
 20
300.22500788423258
 41
0.375
 42
0.375
 50
135.10664774295298
  0
CIRCLE
  8
_0-0_
  6
CONTINUOUS
 62
    4
 10
154
 20
300.70924493823304
 40
19.133442981194999
  0
CIRCLE
  8
_0-0_
  6
CONTINUOUS
 62
    4
 10
154
 20
300.70924493823304
 40
14.260146210643501
  0
CIRCLE
  8
_0-0_
  6
CONTINUOUS
 62
    4
 10
154
 20
300.70924493823304
 40
12.1000000000005
  0
CIRCLE
  8
_0-0_
  6
CONTINUOUS
 62
    4
 10
154
 20
300.70924493823304
 40
26.237524472827498
  0
LINE
  8
_0-0_
  6
CONTINUOUS
 62
    4
 10
180.85000072987691
 20
346.54103117834733
 11
127.14999996693751
 21
346.54103117834733
  0
LINE
  8
_0-0_
  6
CONTINUOUS
 62
    7
 10
180.85000072987691
 20
346.54103117834733
 11
177.95222325100974
 21
345.76457404303971
  0
LINE
  8
_0-0_
  6
CONTINUOUS
 62
    7
 10
180.85000072987691
 20
346.54103117834733
 11
177.95222325100974
 21
347.31748831365484
  0
LINE
  8
_0-0_
  6
CONTINUOUS
 62
    7
 10
127.14999996693751
 20
346.54103117834733
 11
130.04777744580474
 21
347.31748831365484
  0
LINE
  8
_0-0_
  6
CONTINUOUS
 62
    7
 10
127.14999996693751
 20
346.54103117834733
 11
130.04777744580474
 21
345.76457404303971
  0
LINE
  8
_0-0_
  6
CONTINUOUS
 62
    4
 10
180.85000072987691
 20
319.74941030433524
 11
180.85000072987691
 21
346.54103117834733
  0
LINE
  8
_0-0_
  6
CONTINUOUS
 62
    4
 10
127.14999996693751
 20
319.74941030433524
 11
127.14999996693751
 21
346.54103117834733
  0
TEXT
  8
_0-0_
 62
    4
 10
146.50000034840718
 20
347.54103117834733
 40
5
 41
1
 50
0
  1
φ53.7
  0
LINE
  8
_0-0_
  6
CENTER1
 62
    4
 10
113.11681576274179
 20
300.70924493823304
 11
195.01672327994049
 21
300.70924493823304
  0
LINE
  8
_0-0_
  6
CONTINUOUS
 62
    7
 10
181.5
 20
131.10216721056985
 11
126.5
 21
131.10216721056985
  0
LINE
  8
_0-0_
  6
CONTINUOUS
 62
    7
 10
181.5
 20
124.10216721056984
 11
181.5
 21
131.10216721056985
  0
LINE
  8
_0-0_
  6
CONTINUOUS
 62
    7
 10
126.5
 20
124.10216721056984
 11
181.5
 21
124.10216721056984
  0
LINE
  8
_0-0_
  6
CONTINUOUS
 62
    7
 10
126.5
 20
131.10216721056985
 11
126.5
 21
124.10216721056984
  0
TEXT
  8
_0-0_
 62
    7
 10
183.5
 20
125.60216721056984
 40
4
 41
1
 50
0
  1
S=1/2
  0
INSERT
  2
-001-_None_2_
  8
_0-0_
 10
126.17382243718452
 20
263.52615995370501
 41
0.375
 42
0.375
 50
227.96725797660204
  0
LINE
  8
_0-0_
  6
CONTINUOUS
 62
    7
 10
127.76247552717251
 20
257.94497456687895
 11
180.23752447282902
 21
257.94497456687895
  0
LINE
  8
_0-0_
  6
CONTINUOUS
 62
    7
 10
200.59604868814494
 20
257.94497456687895
 11
201.37250582345245
 21
255.04719708801167
  0
LINE
  8
_0-0_
  6
CONTINUOUS
 62
    7
 10
200.59604868814494
 20
257.94497456687895
 11
199.81959155283732
 21
255.04719708801167
  0
LINE
  8
_0-0_
  6
CONTINUOUS
 62
    4
 10
200.59604868814494
 20
257.94497456687895
 11
184.15329504921601
 21
257.94497456687895
  0
LINE
  8
_0-0_
  6
CONTINUOUS
 62
    7
 10
189.34574356677239
 20
240.94550749281938
 11
190.12220070208002
 21
238.04773001395233
  0
LINE
  8
_0-0_
  6
CONTINUOUS
 62
    7
 10
189.34574356677239
 20
240.94550749281938
 11
188.56928643146488
 21
238.04773001395233
  0
LINE
  8
_0-0_
  6
CONTINUOUS
 62
    4
 10
189.34574356677239
 20
240.94550749281938
 11
178.96084653165939
 21
240.94550749281938
  0
LINE
  8
_0-0_
  6
CONTINUOUS
 62
    7
 10
168.65000000000009
 20
239.27203507759566
 11
169.90000000000009
 21
238.30442468706633
  0
LINE
  8
_0-0_
  6
CONTINUOUS
 62
    7
 10
169.90000000000009
 20
238.30442468706633
 11
168.64999999999997
 21
237.27134949261403
  0
INSERT
  2
-002-_None_1_
  8
_0-0_
 10
126.17382243718452
 20
263.52615995370501
 41
0.375
 42
0.375
 50
227.96725797660204
  0
LINE
  8
_0-0_
  6
CONTINUOUS
 62
    7
 10
138.85000000000002
 20
240.19550749281938
 11
138.10000000000002
 21
240.94550749281938
  0
LINE
  8
_0-0_
  6
CONTINUOUS
 62
    7
 10
169.15000000000009
 20
240.19550749281938
 11
169.90000000000009
 21
240.94550749281938
  0
ARC
  8
_0-0_
  6
CONTINUOUS
 62
    7
 10
127.650000000001
 20
257.45778953448643
 40
0.4999999999995
 50
77.00000000000098
 51
179.99999999998402
  0
ARC
  8
_0-0_
  6
CONTINUOUS
 62
    7
 10
127.650000000001
 20
257.25252871292741
 40
0.4999999999995
 50
179.99999999998698
 51
256.99999999999698
  0
LINE
  8
_0-0_
  6
CONTINUOUS
 62
    7
 10
127.15000000000003
 20
257.25252871292741
 11
127.15000000000003
 21
257.45778953448643
  0
LINE
  8
_0-0_
  6
CONTINUOUS
 62
    7
 10
127.53752447282801
 20
256.76534368053489
 11
132.41563018331203
 21
255.10912612781589
  0
ARC
  8
_0-0_
  6
CONTINUOUS
 62
    7
 10
130.80815106497499
 20
250.37457114512596
 40
4.9999999999994999
 50
12.250000000000001
 51
71.246589897256001
  0
LINE
  8
_0-0_
  6
CONTINUOUS
 62
    7
 10
127.76247552717251
 20
257.94497456687895
 11
180.23752447282902
 21
257.94497456687895
  0
ARC
  8
_0-0_
  6
CONTINUOUS
 62
    7
 10
180.35000000000059
 20
257.45778953448643
 40
0.4999999999995
 50
0.0000000000160045
 51
102.99999999999698
  0
ARC
  8
_0-0_
  6
CONTINUOUS
 62
    7
 10
180.35000000000059
 20
257.25252871292741
 40
0.4999999999995
 50
283.00000000000397
 51
0.0000000000130148
  0
LINE
  8
_0-0_
  6
CONTINUOUS
 62
    7
 10
180.85000000000002
 20
257.25252871292741
 11
180.85000000000002
 21
257.45778953448643
  0
LINE
  8
_0-0_
  6
CONTINUOUS
 62
    7
 10
180.46247552717204
 20
256.76534368053489
 11
175.58436981668955
 21
255.10912612781589
  0
ARC
  8
_0-0_
  6
CONTINUOUS
 62
    7
 10
177.19184893502642
 20
250.37457114512585
 40
4.9999999999994999
 50
108.75341010274402
 51
167.75000000000002
  0
LINE
  8
_0-0_
  6
CONTINUOUS
 62
    7
 10
138.10000000000002
 20
240.94550749281938
 11
135.694306597288
 21
251.43545950590794
  0
LINE
  8
_0-0_
  6
CONTINUOUS
 62
    7
 10
169.90000000000009
 20
240.94550749281938
 11
172.30569340271199
 21
251.43545950590794
  0
LINE
  8
_0-0_
  6
CONTINUOUS
 62
    4
 10
132.41563018331203
 20
255.10912612781589
 11
175.58436981668955
 21
255.10912612781589
  0
LINE
  8
_0-0_
  6
CONTINUOUS
 62
    4
 10
127.53752447282801
 20
256.76534368053489
 11
180.46247552717204
 21
256.76534368053489
  0
LINE
  8
_0-0_
  6
CONTINUOUS
 62
    4
 10
169.90000000000009
 20
240.94550749281938
 11
138.10000000000002
 21
240.94550749281938
  0
LINE
  8
_0-0_
  6
CONTINUOUS
 62
    4
 10
138.10000000000002
 20
239.4723979661478
 11
165.71443872659096
 21
240.1955074928195
  0
LINE
  8
_0-0_
  6
CONTINUOUS
 62
    7
 10
138.10000000000002
 20
239.4723979661478
 11
139.35000000000002
 21
238.50478757561847
  0
LINE
  8
_0-0_
  6
CONTINUOUS
 62
    7
 10
139.35000000000002
 20
238.50478757561847
 11
138.10000000000002
 21
237.47171238116607
  0
LINE
  8
_0-0_
  6
CONTINUOUS
 62
    7
 10
138.10000000000002
 20
237.47171238116607
 11
139.35000000000002
 21
236.50410199063685
  0
LINE
  8
_0-0_
  6
CONTINUOUS
 62
    7
 10
139.35000000000002
 20
236.50410199063685
 11
138.10000000000002
 21
235.47102679618444
  0
LINE
  8
_0-0_
  6
CONTINUOUS
 62
    7
 10
138.10000000000002
 20
235.47102679618444
 11
139.35000000000002
 21
234.50341640565511
  0
LINE
  8
_0-0_
  6
CONTINUOUS
 62
    7
 10
139.35000000000002
 20
234.50341640565511
 11
138.10000000000002
 21
233.4703412112027
  0
LINE
  8
_0-0_
  6
CONTINUOUS
 62
    7
 10
138.10000000000002
 20
233.4703412112027
 11
139.35000000000002
 21
232.50273082067337
  0
LINE
  8
_0-0_
  6
CONTINUOUS
 62
    7
 10
139.35000000000002
 20
232.50273082067337
 11
138.10000000000002
 21
231.46965562622108
  0
LINE
  8
_0-0_
  6
CONTINUOUS
 62
    7
 10
138.10000000000002
 20
231.46965562622108
 11
139.35000000000002
 21
230.50204523569163
  0
LINE
  8
_0-0_
  6
CONTINUOUS
 62
    7
 10
139.35000000000002
 20
230.50204523569163
 11
138.10000000000002
 21
229.46897004123934
  0
LINE
  8
_0-0_
  6
CONTINUOUS
 62
    7
 10
138.10000000000002
 20
229.46897004123934
 11
139.35000000000002
 21
228.5013596507099
  0
LINE
  8
_0-0_
  6
CONTINUOUS
 62
    7
 10
139.35000000000002
 20
228.5013596507099
 11
138.10000000000002
 21
227.4682844562576
  0
LINE
  8
_0-0_
  6
CONTINUOUS
 62
    7
 10
138.10000000000002
 20
227.4682844562576
 11
139.35000000000002
 21
226.50067406572816
  0
LINE
  8
_0-0_
  6
CONTINUOUS
 62
    7
 10
139.35000000000002
 20
226.50067406572816
 11
138.10000000000002
 21
225.46759887127586
  0
LINE
  8
_0-0_
  6
CONTINUOUS
 62
    7
 10
138.10000000000002
 20
225.46759887127586
 11
139.35000000000002
 21
224.49998848074653
  0
LINE
  8
_0-0_
  6
CONTINUOUS
 62
    7
 10
139.35000000000002
 20
224.49998848074653
 11
138.10000000000002
 21
223.46691328629412
  0
LINE
  8
_0-0_
  6
CONTINUOUS
 62
    7
 10
138.10000000000002
 20
223.46691328629412
 11
139.35000000000002
 21
222.49930289576479
  0
LINE
  8
_0-0_
  6
CONTINUOUS
 62
    7
 10
139.35000000000002
 20
222.49930289576479
 11
138.10000000000002
 21
221.46622770131239
  0
LINE
  8
_0-0_
  6
CONTINUOUS
 62
    7
 10
138.10000000000002
 20
221.46622770131239
 11
139.35000000000002
 21
220.49861731078317
  0
LINE
  8
_0-0_
  6
CONTINUOUS
 62
    7
 10
139.35000000000002
 20
220.49861731078317
 11
138.10000000000002
 21
219.46554211633076
  0
LINE
  8
_0-0_
  6
CONTINUOUS
 62
    7
 10
138.10000000000002
 20
219.46554211633076
 11
139.35000000000002
 21
218.49793172580143
  0
LINE
  8
_0-0_
  6
CONTINUOUS
 62
    7
 10
139.35000000000002
 20
218.49793172580143
 11
138.10000000000002
 21
217.46485653134902
  0
LINE
  8
_0-0_
  6
CONTINUOUS
 62
    7
 10
138.10000000000002
 20
217.46485653134902
 11
139.35000000000002
 21
216.49724614081969
  0
LINE
  8
_0-0_
  6
CONTINUOUS
 62
    7
 10
139.35000000000002
 20
216.49724614081969
 11
138.10000000000002
 21
215.4641709463674
  0
LINE
  8
_0-0_
  6
CONTINUOUS
 62
    7
 10
138.10000000000002
 20
215.4641709463674
 11
139.35000000000002
 21
214.49656055583795
  0
LINE
  8
_0-0_
  6
CONTINUOUS
 62
    7
 10
139.35000000000002
 20
214.49656055583795
 11
138.10000000000002
 21
213.46348536138566
  0
LINE
  8
_0-0_
  6
CONTINUOUS
 62
    7
 10
138.10000000000002
 20
213.46348536138566
 11
139.35000000000002
 21
212.49587497085622
  0
LINE
  8
_0-0_
  6
CONTINUOUS
 62
    7
 10
139.35000000000002
 20
212.49587497085622
 11
138.10000000000002
 21
211.46279977640392
  0
LINE
  8
_0-0_
  6
CONTINUOUS
 62
    7
 10
138.10000000000002
 20
211.46279977640392
 11
139.35000000000002
 21
210.49518938587448
  0
LINE
  8
_0-0_
  6
CONTINUOUS
 62
    7
 10
139.35000000000002
 20
210.49518938587448
 11
138.10000000000002
 21
209.46211419142218
  0
LINE
  8
_0-0_
  6
CONTINUOUS
 62
    7
 10
138.10000000000002
 20
209.46211419142218
 11
139.35000000000002
 21
208.49450380089285
  0
LINE
  8
_0-0_
  6
CONTINUOUS
 62
    7
 10
139.35000000000002
 20
208.49450380089285
 11
138.10000000000002
 21
207.46142860644044
  0
LINE
  8
_0-0_
  6
CONTINUOUS
 62
    7
 10
138.10000000000002
 20
207.46142860644044
 11
139.35000000000002
 21
206.49381821591111
  0
LINE
  8
_0-0_
  6
CONTINUOUS
 62
    7
 10
139.35000000000002
 20
206.49381821591111
 11
138.10000000000002
 21
205.46074302145871
  0
LINE
  8
_0-0_
  6
CONTINUOUS
 62
    7
 10
138.10000000000002
 20
205.46074302145871
 11
139.35000000000002
 21
204.49313263092949
  0
LINE
  8
_0-0_
  6
CONTINUOUS
 62
    7
 10
139.35000000000002
 20
204.49313263092949
 11
138.10000000000002
 21
203.46005743647708
  0
LINE
  8
_0-0_
  6
CONTINUOUS
 62
    7
 10
138.10000000000002
 20
203.46005743647708
 11
139.35000000000002
 21
202.49244704594775
  0
LINE
  8
_0-0_
  6
CONTINUOUS
 62
    7
 10
139.35000000000002
 20
202.49244704594775
 11
138.10000000000002
 21
201.45937185149534
  0
LINE
  8
_0-0_
  6
CONTINUOUS
 62
    7
 10
138.10000000000002
 20
201.45937185149534
 11
139.35000000000002
 21
200.49176146096601
  0
LINE
  8
_0-0_
  6
CONTINUOUS
 62
    7
 10
139.35000000000002
 20
200.49176146096601
 11
138.10000000000002
 21
199.45868626651372
  0
LINE
  8
_0-0_
  6
CONTINUOUS
 62
    7
 10
138.10000000000002
 20
199.45868626651372
 11
139.35000000000002
 21
198.49107587598427
  0
LINE
  8
_0-0_
  6
CONTINUOUS
 62
    7
 10
139.35000000000002
 20
198.49107587598427
 11
138.10000000000002
 21
197.45800068153198
  0
LINE
  8
_0-0_
  6
CONTINUOUS
 62
    7
 10
138.10000000000002
 20
197.45800068153198
 11
139.35000000000002
 21
196.49039029100254
  0
LINE
  8
_0-0_
  6
CONTINUOUS
 62
    7
 10
139.35000000000002
 20
196.49039029100254
 11
138.10000000000002
 21
195.45731509655024
  0
LINE
  8
_0-0_
  6
CONTINUOUS
 62
    7
 10
138.10000000000002
 20
195.45731509655024
 11
139.35000000000002
 21
194.4897047060208
  0
LINE
  8
_0-0_
  6
CONTINUOUS
 62
    7
 10
139.35000000000002
 20
194.4897047060208
 11
138.10000000000002
 21
193.4566295115685
  0
LINE
  8
_0-0_
  6
CONTINUOUS
 62
    7
 10
138.10000000000002
 20
193.4566295115685
 11
139.35000000000002
 21
192.48901912103917
  0
LINE
  8
_0-0_
  6
CONTINUOUS
 62
    7
 10
139.35000000000002
 20
192.48901912103917
 11
138.10000000000002
 21
191.45594392658676
  0
LINE
  8
_0-0_
  6
CONTINUOUS
 62
    7
 10
138.10000000000002
 20
191.45594392658676
 11
139.35000000000002
 21
190.48833353605743
  0
LINE
  8
_0-0_
  6
CONTINUOUS
 62
    7
 10
139.35000000000002
 20
190.48833353605743
 11
138.10000000000002
 21
189.45525834160503
  0
LINE
  8
_0-0_
  6
CONTINUOUS
 62
    7
 10
168.64999999999997
 20
237.27134949261403
 11
169.89999999999997
 21
236.30373910208459
  0
LINE
  8
_0-0_
  6
CONTINUOUS
 62
    7
 10
169.89999999999997
 20
236.30373910208459
 11
168.64999999999997
 21
235.27066390763229
  0
LINE
  8
_0-0_
  6
CONTINUOUS
 62
    7
 10
168.64999999999997
 20
235.27066390763229
 11
169.89999999999997
 21
234.30305351710285
  0
LINE
  8
_0-0_
  6
CONTINUOUS
 62
    7
 10
169.89999999999997
 20
234.30305351710285
 11
168.64999999999997
 21
233.26997832265055
  0
LINE
  8
_0-0_
  6
CONTINUOUS
 62
    7
 10
168.64999999999997
 20
233.26997832265055
 11
169.89999999999997
 21
232.30236793212111
  0
LINE
  8
_0-0_
  6
CONTINUOUS
 62
    7
 10
169.89999999999997
 20
232.30236793212111
 11
168.64999999999997
 21
231.26929273766882
  0
LINE
  8
_0-0_
  6
CONTINUOUS
 62
    7
 10
168.64999999999997
 20
231.26929273766882
 11
169.89999999999997
 21
230.30168234713937
  0
LINE
  8
_0-0_
  6
CONTINUOUS
 62
    7
 10
169.89999999999997
 20
230.30168234713937
 11
168.64999999999997
 21
229.26860715268708
  0
LINE
  8
_0-0_
  6
CONTINUOUS
 62
    7
 10
168.64999999999997
 20
229.26860715268708
 11
169.89999999999997
 21
228.30099676215775
  0
LINE
  8
_0-0_
  6
CONTINUOUS
 62
    7
 10
169.89999999999997
 20
228.30099676215775
 11
168.64999999999997
 21
227.26792156770534
  0
LINE
  8
_0-0_
  6
CONTINUOUS
 62
    7
 10
168.64999999999986
 20
227.26792156770534
 11
169.89999999999986
 21
226.30031117717601
  0
LINE
  8
_0-0_
  6
CONTINUOUS
 62
    7
 10
169.89999999999986
 20
226.30031117717601
 11
168.64999999999986
 21
225.26723598272371
  0
LINE
  8
_0-0_
  6
CONTINUOUS
 62
    7
 10
168.64999999999986
 20
225.26723598272371
 11
169.89999999999986
 21
224.29962559219438
  0
LINE
  8
_0-0_
  6
CONTINUOUS
 62
    7
 10
169.89999999999986
 20
224.29962559219438
 11
168.64999999999986
 21
223.26655039774198
  0
LINE
  8
_0-0_
  6
CONTINUOUS
 62
    7
 10
168.64999999999986
 20
223.26655039774198
 11
169.89999999999986
 21
222.29894000721265
  0
LINE
  8
_0-0_
  6
CONTINUOUS
 62
    7
 10
169.89999999999986
 20
222.29894000721265
 11
168.64999999999986
 21
221.26586481276035
  0
LINE
  8
_0-0_
  6
CONTINUOUS
 62
    7
 10
168.64999999999986
 20
221.26586481276035
 11
169.89999999999986
 21
220.29825442223091
  0
LINE
  8
_0-0_
  6
CONTINUOUS
 62
    7
 10
169.89999999999986
 20
220.29825442223091
 11
168.64999999999986
 21
219.26517922777861
  0
LINE
  8
_0-0_
  6
CONTINUOUS
 62
    7
 10
168.64999999999986
 20
219.26517922777861
 11
169.89999999999986
 21
218.29756883724917
  0
LINE
  8
_0-0_
  6
CONTINUOUS
 62
    7
 10
169.89999999999986
 20
218.29756883724917
 11
168.64999999999986
 21
217.26449364279687
  0
LINE
  8
_0-0_
  6
CONTINUOUS
 62
    7
 10
168.64999999999986
 20
217.26449364279687
 11
169.89999999999986
 21
216.29688325226743
  0
LINE
  8
_0-0_
  6
CONTINUOUS
 62
    7
 10
169.89999999999986
 20
216.29688325226743
 11
168.64999999999986
 21
215.26380805781514
  0
LINE
  8
_0-0_
  6
CONTINUOUS
 62
    7
 10
168.64999999999986
 20
215.26380805781514
 11
169.89999999999986
 21
214.29619766728569
  0
LINE
  8
_0-0_
  6
CONTINUOUS
 62
    7
 10
169.89999999999986
 20
214.29619766728569
 11
168.64999999999986
 21
213.2631224728334
  0
LINE
  8
_0-0_
  6
CONTINUOUS
 62
    7
 10
168.64999999999986
 20
213.2631224728334
 11
169.89999999999986
 21
212.29551208230407
  0
LINE
  8
_0-0_
  6
CONTINUOUS
 62
    7
 10
169.89999999999986
 20
212.29551208230407
 11
168.64999999999986
 21
211.26243688785166
  0
LINE
  8
_0-0_
  6
CONTINUOUS
 62
    7
 10
168.64999999999986
 20
211.26243688785166
 11
169.89999999999986
 21
210.29482649732233
  0
LINE
  8
_0-0_
  6
CONTINUOUS
 62
    7
 10
169.89999999999986
 20
210.29482649732233
 11
168.64999999999986
 21
209.26175130287003
  0
LINE
  8
_0-0_
  6
CONTINUOUS
 62
    7
 10
168.64999999999986
 20
209.26175130287003
 11
169.89999999999986
 21
208.2941409123407
  0
LINE
  8
_0-0_
  6
CONTINUOUS
 62
    7
 10
169.89999999999986
 20
208.2941409123407
 11
168.64999999999986
 21
207.2610657178883
  0
LINE
  8
_0-0_
  6
CONTINUOUS
 62
    7
 10
168.64999999999986
 20
207.2610657178883
 11
169.89999999999986
 21
206.29345532735896
  0
LINE
  8
_0-0_
  6
CONTINUOUS
 62
    7
 10
169.89999999999986
 20
206.29345532735896
 11
168.64999999999986
 21
205.26038013290667
  0
LINE
  8
_0-0_
  6
CONTINUOUS
 62
    7
 10
168.64999999999986
 20
205.26038013290667
 11
169.89999999999986
 21
204.29276974237723
  0
LINE
  8
_0-0_
  6
CONTINUOUS
 62
    7
 10
169.89999999999986
 20
204.29276974237723
 11
168.64999999999986
 21
203.25969454792493
  0
LINE
  8
_0-0_
  6
CONTINUOUS
 62
    7
 10
168.64999999999986
 20
203.25969454792493
 11
169.89999999999986
 21
202.29208415739549
  0
LINE
  8
_0-0_
  6
CONTINUOUS
 62
    7
 10
169.89999999999986
 20
202.29208415739549
 11
168.64999999999986
 21
201.25900896294319
  0
LINE
  8
_0-0_
  6
CONTINUOUS
 62
    7
 10
168.64999999999986
 20
201.25900896294319
 11
169.89999999999986
 21
200.29139857241375
  0
LINE
  8
_0-0_
  6
CONTINUOUS
 62
    7
 10
169.89999999999986
 20
200.29139857241375
 11
168.64999999999986
 21
199.25832337796146
  0
LINE
  8
_0-0_
  6
CONTINUOUS
 62
    7
 10
168.64999999999986
 20
199.25832337796146
 11
169.89999999999986
 21
198.29071298743201
  0
LINE
  8
_0-0_
  6
CONTINUOUS
 62
    7
 10
169.89999999999986
 20
198.29071298743201
 11
168.64999999999986
 21
197.25763779297972
  0
LINE
  8
_0-0_
  6
CONTINUOUS
 62
    7
 10
168.64999999999986
 20
197.25763779297972
 11
169.89999999999986
 21
196.29002740245039
  0
LINE
  8
_0-0_
  6
CONTINUOUS
 62
    7
 10
169.89999999999986
 20
196.29002740245039
 11
168.64999999999986
 21
195.25695220799798
  0
LINE
  8
_0-0_
  6
CONTINUOUS
 62
    7
 10
168.64999999999974
 20
195.25695220799798
 11
169.89999999999974
 21
194.28934181746865
  0
LINE
  8
_0-0_
  6
CONTINUOUS
 62
    7
 10
169.89999999999974
 20
194.28934181746865
 11
168.64999999999974
 21
193.25626662301635
  0
LINE
  8
_0-0_
  6
CONTINUOUS
 62
    7
 10
168.64999999999974
 20
193.25626662301635
 11
169.89999999999974
 21
192.28865623248702
  0
LINE
  8
_0-0_
  6
CONTINUOUS
 62
    7
 10
169.89999999999974
 20
192.28865623248702
 11
168.64999999999974
 21
191.25558103803462
  0
LINE
  8
_0-0_
  6
CONTINUOUS
 62
    7
 10
168.64999999999974
 20
191.25558103803462
 11
169.89999999999974
 21
190.28797064750528
  0
LINE
  8
_0-0_
  6
CONTINUOUS
 62
    7
 10
138.10000000000002
 20
239.4723979661478
 11
138.85000000000002
 21
240.09224308280795
  0
LINE
  8
_0-0_
  6
CONTINUOUS
 62
    7
 10
139.35000000000002
 20
238.50478757561847
 11
168.65000000000009
 21
239.27203507759566
  0
LINE
  8
_0-0_
  6
CONTINUOUS
 62
    7
 10
139.35000000000002
 20
236.50410199063685
 11
168.65000000000009
 21
237.27134949261403
  0
LINE
  8
_0-0_
  6
CONTINUOUS
 62
    7
 10
139.35000000000002
 20
234.503416405655
 11
168.65000000000009
 21
235.27066390763218
  0
LINE
  8
_0-0_
  6
CONTINUOUS
 62
    7
 10
139.35000000000002
 20
232.50273082067326
 11
168.64999999999997
 21
233.26997832265044
  0
LINE
  8
_0-0_
  6
CONTINUOUS
 62
    7
 10
139.35000000000002
 20
230.50204523569152
 11
168.65000000000009
 21
231.2692927376687
  0
LINE
  8
_0-0_
  6
CONTINUOUS
 62
    7
 10
139.35000000000002
 20
228.5013596507099
 11
168.65000000000009
 21
229.26860715268708
  0
LINE
  8
_0-0_
  6
CONTINUOUS
 62
    7
 10
139.35000000000002
 20
226.50067406572804
 11
168.64999999999997
 21
227.26792156770522
  0
LINE
  8
_0-0_
  6
CONTINUOUS
 62
    7
 10
139.35000000000002
 20
224.49998848074631
 11
168.65000000000009
 21
225.26723598272349
  0
LINE
  8
_0-0_
  6
CONTINUOUS
 62
    7
 10
139.35000000000002
 20
222.49930289576468
 11
168.65000000000009
 21
223.26655039774186
  0
LINE
  8
_0-0_
  6
CONTINUOUS
 62
    7
 10
139.35000000000002
 20
220.49861731078283
 11
168.64999999999997
 21
221.26586481276001
  0
LINE
  8
_0-0_
  6
CONTINUOUS
 62
    7
 10
139.35000000000002
 20
218.49793172580109
 11
168.65000000000009
 21
219.26517922777827
  0
LINE
  8
_0-0_
  6
CONTINUOUS
 62
    7
 10
139.35000000000002
 20
216.49724614081947
 11
168.65000000000009
 21
217.26449364279665
  0
LINE
  8
_0-0_
  6
CONTINUOUS
 62
    7
 10
139.35000000000002
 20
214.49656055583773
 11
168.65000000000009
 21
215.26380805781491
  0
LINE
  8
_0-0_
  6
CONTINUOUS
 62
    7
 10
139.35000000000002
 20
212.49587497085587
 11
168.65000000000009
 21
213.26312247283306
  0
LINE
  8
_0-0_
  6
CONTINUOUS
 62
    7
 10
139.35000000000002
 20
210.49518938587425
 11
168.65000000000009
 21
211.26243688785143
  0
LINE
  8
_0-0_
  6
CONTINUOUS
 62
    7
 10
139.35000000000002
 20
208.49450380089251
 11
168.65000000000009
 21
209.26175130286969
  0
LINE
  8
_0-0_
  6
CONTINUOUS
 62
    7
 10
139.35000000000002
 20
206.49381821591077
 11
168.65000000000009
 21
207.26106571788795
  0
LINE
  8
_0-0_
  6
CONTINUOUS
 62
    7
 10
139.35000000000002
 20
204.49313263092903
 11
168.65000000000009
 21
205.26038013290622
  0
LINE
  8
_0-0_
  6
CONTINUOUS
 62
    7
 10
139.35000000000002
 20
202.4924470459473
 11
168.65000000000009
 21
203.25969454792448
  0
LINE
  8
_0-0_
  6
CONTINUOUS
 62
    7
 10
139.35000000000002
 20
200.49176146096556
 11
168.65000000000009
 21
201.25900896294263
  0
LINE
  8
_0-0_
  6
CONTINUOUS
 62
    7
 10
139.35000000000002
 20
198.49107587598382
 11
168.65000000000009
 21
199.258323377961
  0
LINE
  8
_0-0_
  6
CONTINUOUS
 62
    7
 10
139.35000000000002
 20
196.49039029100208
 11
168.65000000000009
 21
197.25763779297926
  0
LINE
  8
_0-0_
  6
CONTINUOUS
 62
    7
 10
139.35000000000002
 20
194.48970470602034
 11
168.65000000000009
 21
195.25695220799752
  0
LINE
  8
_0-0_
  6
CONTINUOUS
 62
    7
 10
139.35000000000002
 20
192.48901912103849
 11
168.65000000000009
 21
193.25626662301567
  0
LINE
  8
_0-0_
  6
CONTINUOUS
 62
    7
 10
139.35000000000002
 20
190.48833353605687
 11
168.65000000000009
 21
191.25558103803405
  0
LINE
  8
_0-0_
  6
CONTINUOUS
 62
    4
 10
138.85000000000002
 20
240.19550749281938
 11
169.15000000000009
 21
240.19550749281938
  0
LINE
  8
_0-0_
  6
CONTINUOUS
 62
    7
 10
169.90000000000009
 20
240.30511027204806
 11
168.65000000000009
 21
239.27203507759566
  0
LINE
  8
_0-0_
  6
CONTINUOUS
 62
    7
 10
169.5390274281799
 20
240.58453492099943
 11
169.90000000000009
 21
240.30511027204806
  0
LINE
  8
_0-0_
  6
CONTINUOUS
 62
    4
 10
138.10000000000002
 20
237.47171238116607
 11
169.90000000000009
 21
238.30442468706633
  0
LINE
  8
_0-0_
  6
CONTINUOUS
 62
    4
 10
138.10000000000002
 20
189.45525834160446
 11
169.89999999999963
 21
190.2879706475046
  0
LINE
  8
_0-0_
  6
CONTINUOUS
 62
    4
 10
138.10000000000002
 20
191.45594392658631
 11
169.89999999999963
 21
192.28865623248634
  0
LINE
  8
_0-0_
  6
CONTINUOUS
 62
    4
 10
138.10000000000002
 20
193.45662951156793
 11
169.89999999999963
 21
194.28934181746808
  0
LINE
  8
_0-0_
  6
CONTINUOUS
 62
    4
 10
138.10000000000002
 20
195.45731509654967
 11
169.89999999999963
 21
196.29002740244982
  0
LINE
  8
_0-0_
  6
CONTINUOUS
 62
    4
 10
138.10000000000002
 20
197.45800068153153
 11
169.89999999999974
 21
198.29071298743156
  0
LINE
  8
_0-0_
  6
CONTINUOUS
 62
    4
 10
138.10000000000002
 20
199.45868626651315
 11
169.89999999999974
 21
200.29139857241329
  0
LINE
  8
_0-0_
  6
CONTINUOUS
 62
    4
 10
138.10000000000002
 20
201.45937185149489
 11
169.89999999999974
 21
202.29208415739503
  0
LINE
  8
_0-0_
  6
CONTINUOUS
 62
    4
 10
138.10000000000002
 20
203.46005743647651
 11
169.89999999999974
 21
204.29276974237677
  0
LINE
  8
_0-0_
  6
CONTINUOUS
 62
    4
 10
138.10000000000002
 20
205.46074302145837
 11
169.89999999999986
 21
206.29345532735851
  0
LINE
  8
_0-0_
  6
CONTINUOUS
 62
    4
 10
138.10000000000002
 20
207.4614286064401
 11
169.89999999999986
 21
208.29414091234025
  0
LINE
  8
_0-0_
  6
CONTINUOUS
 62
    4
 10
138.10000000000002
 20
209.46211419142184
 11
169.89999999999986
 21
210.29482649732199
  0
LINE
  8
_0-0_
  6
CONTINUOUS
 62
    4
 10
138.10000000000002
 20
211.46279977640358
 11
169.89999999999986
 21
212.29551208230373
  0
LINE
  8
_0-0_
  6
CONTINUOUS
 62
    4
 10
138.10000000000002
 20
213.46348536138521
 11
169.89999999999986
 21
214.29619766728546
  0
LINE
  8
_0-0_
  6
CONTINUOUS
 62
    4
 10
138.10000000000002
 20
215.46417094636706
 11
169.89999999999986
 21
216.2968832522672
  0
LINE
  8
_0-0_
  6
CONTINUOUS
 62
    4
 10
138.10000000000002
 20
217.4648565313488
 11
169.89999999999986
 21
218.29756883724894
  0
LINE
  8
_0-0_
  6
CONTINUOUS
 62
    4
 10
138.10000000000002
 20
219.46554211633053
 11
169.89999999999986
 21
220.29825442223068
  0
LINE
  8
_0-0_
  6
CONTINUOUS
 62
    4
 10
138.10000000000002
 20
221.46622770131216
 11
169.89999999999986
 21
222.29894000721242
  0
LINE
  8
_0-0_
  6
CONTINUOUS
 62
    4
 10
138.10000000000002
 20
223.4669132862939
 11
169.89999999999986
 21
224.29962559219416
  0
LINE
  8
_0-0_
  6
CONTINUOUS
 62
    4
 10
138.10000000000002
 20
225.46759887127575
 11
169.89999999999986
 21
226.30031117717589
  0
LINE
  8
_0-0_
  6
CONTINUOUS
 62
    4
 10
138.10000000000002
 20
227.46828445625749
 11
169.89999999999986
 21
228.30099676215763
  0
LINE
  8
_0-0_
  6
CONTINUOUS
 62
    4
 10
138.10000000000002
 20
229.46897004123911
 11
169.89999999999997
 21
230.30168234713937
  0
LINE
  8
_0-0_
  6
CONTINUOUS
 62
    4
 10
138.10000000000002
 20
231.46965562622085
 11
169.89999999999997
 21
232.30236793212111
  0
LINE
  8
_0-0_
  6
CONTINUOUS
 62
    4
 10
138.10000000000002
 20
233.47034121120259
 11
169.89999999999997
 21
234.30305351710285
  0
LINE
  8
_0-0_
  6
CONTINUOUS
 62
    4
 10
138.10000000000002
 20
235.47102679618444
 11
169.89999999999997
 21
236.30373910208459
  0
LINE
  8
_0-0_
  6
CONTINUOUS
 62
    7
 10
139.48876014050892
 20
189.12993195101728
 11
140.0106731924003
 21
187.94497456687895
  0
LINE
  8
_0-0_
  6
CONTINUOUS
 62
    7
 10
168.51123985949107
 20
189.12993195101728
 11
167.98932680759969
 21
187.94497456687895
  0
LINE
  8
_0-0_
  6
CONTINUOUS
 62
    7
 10
167.98932680759969
 20
187.94497456687895
 11
140.0106731924003
 21
187.94497456687895
  0
LINE
  8
_0-0_
  6
CONTINUOUS
 62
    7
 10
169.89999999999974
 20
190.28797064750528
 11
168.49879670097243
 21
189.12993195101728
  0
LINE
  8
_0-0_
  6
CONTINUOUS
 62
    7
 10
138.10000000000002
 20
189.45525834160503
 11
138.52027038177243
 21
189.12993195101728
  0
LINE
  8
_0-0_
  6
CONTINUOUS
 62
    7
 10
138.52027038177243
 20
189.12993195101728
 11
168.49879670097243
 21
189.12993195101728
  0
LINE
  8
_0-0_
  6
CONTINUOUS
 62
    4
 10
189.34574356677239
 20
240.94550749281938
 11
189.34574356677239
 21
187.94497456687895
  0
LINE
  8
_0-0_
  6
CONTINUOUS
 62
    7
 10
189.34574356677239
 20
240.94550749281938
 11
190.12220070208002
 21
238.04773001395221
  0
LINE
  8
_0-0_
  6
CONTINUOUS
 62
    7
 10
189.34574356677239
 20
240.94550749281938
 11
188.56928643146488
 21
238.04773001395221
  0
LINE
  8
_0-0_
  6
CONTINUOUS
 62
    7
 10
189.34574356677239
 20
187.94497456687895
 11
188.56928643146488
 21
190.84275204574612
  0
LINE
  8
_0-0_
  6
CONTINUOUS
 62
    7
 10
189.34574356677239
 20
187.94497456687895
 11
190.12220070208002
 21
190.84275204574612
  0
LINE
  8
_0-0_
  6
CONTINUOUS
 62
    4
 10
189.34574356677239
 20
240.94550749281938
 11
178.96084653165939
 21
240.94550749281938
  0
LINE
  8
_0-0_
  6
CONTINUOUS
 62
    4
 10
189.34574356677239
 20
187.94497456687895
 11
178.96084653165939
 21
187.94497456687895
  0
TEXT
  8
_0-0_
 62
    4
 10
188.34574356677239
 20
211.94524102984917
 40
5
 41
1
 50
90
  1
53
  0
LINE
  8
_0-0_
  6
CONTINUOUS
 62
    4
 10
200.59604868814494
 20
257.94497385854447
 11
200.59604868814494
 21
187.94497456687895
  0
LINE
  8
_0-0_
  6
CONTINUOUS
 62
    7
 10
200.59604868814494
 20
257.94497385854447
 11
201.37250582345245
 21
255.0471963796773
  0
LINE
  8
_0-0_
  6
CONTINUOUS
 62
    7
 10
200.59604868814494
 20
257.94497385854447
 11
199.81959155283732
 21
255.0471963796773
  0
LINE
  8
_0-0_
  6
CONTINUOUS
 62
    7
 10
200.59604868814494
 20
187.94497456687895
 11
199.81959155283732
 21
190.84275204574612
  0
LINE
  8
_0-0_
  6
CONTINUOUS
 62
    7
 10
200.59604868814494
 20
187.94497456687895
 11
201.37250582345245
 21
190.84275204574612
  0
LINE
  8
_0-0_
  6
CONTINUOUS
 62
    4
 10
200.59604868814494
 20
257.94497385854447
 11
184.15329504921601
 21
257.94497385854447
  0
LINE
  8
_0-0_
  6
CONTINUOUS
 62
    4
 10
200.59604868814494
 20
187.94497456687895
 11
184.15329504921601
 21
187.94497456687895
  0
TEXT
  8
_0-0_
 62
    4
 10
199.59604868814494
 20
220.44497421271171
 40
5
 41
1
 50
90
  1
70
  0
LINE
  8
_0-0_
  6
CONTINUOUS
 62
    4
 10
140.80000149281642
 20
167.16888167343279
 11
167.199999203998
 21
167.16888167343279
  0
LINE
  8
_0-0_
  6
CONTINUOUS
 62
    7
 10
140.80000149281642
 20
167.16888167343279
 11
143.69777897168364
 21
167.94533880874041
  0
LINE
  8
_0-0_
  6
CONTINUOUS
 62
    7
 10
140.80000149281642
 20
167.16888167343279
 11
143.69777897168364
 21
166.39242453812516
  0
LINE
  8
_0-0_
  6
CONTINUOUS
 62
    7
 10
167.199999203998
 20
167.16888167343279
 11
164.30222172513083
 21
166.39242453812516
  0
LINE
  8
_0-0_
  6
CONTINUOUS
 62
    7
 10
167.199999203998
 20
167.16888167343279
 11
164.30222172513083
 21
167.94533880874041
  0
LINE
  8
_0-0_
  6
CONTINUOUS
 62
    4
 10
140.80000149281642
 20
179.04656512320457
 11
140.80000149281642
 21
167.16888167343279
  0
LINE
  8
_0-0_
  6
CONTINUOUS
 62
    4
 10
167.199999203998
 20
179.04656512320457
 11
167.199999203998
 21
167.16888167343279
  0
TEXT
  8
_0-0_
 62
    4
 10
146.50000034840718
 20
168.16888167343279
 40
5
 41
1
 50
0
  1
φ26.4
  0
TEXT
  8
_0-0_
 62
    7
 10
131
 20
125.60216721056983
 40
4
 41
1
 50
0
  1
排水栓（排水目皿）70mm
  0
ENDSEC
  0
EOF
