  0
SECTION
  2
HEADER
  9
$ACADVER
  1
AC1032
  9
$ACADMAINTVER
 90
      197
  9
$DWGCODEPAGE
  3
ANSI_932
  9
$REQUIREDVERSIONS
160
                 0
  9
$INSBASE
 10
0.0
 20
0.0
 30
0.0
  9
$EXTMIN
 10
1.000000000000000E+20
 20
1.000000000000000E+20
 30
1.000000000000000E+20
  9
$EXTMAX
 10
-1.000000000000000E+20
 20
-1.000000000000000E+20
 30
-1.000000000000000E+20
  9
$LIMMIN
 10
0.0
 20
0.0
  9
$LIMMAX
 10
12.0
 20
9.0
  9
$ORTHOMODE
 70
     0
  9
$REGENMODE
 70
     1
  9
$FILLMODE
 70
     1
  9
$QTEXTMODE
 70
     0
  9
$MIRRTEXT
 70
     0
  9
$LTSCALE
 40
1.0
  9
$ATTMODE
 70
     1
  9
$TEXTSIZE
 40
0.2
  9
$TRACEWID
 40
0.05
  9
$TEXTSTYLE
  7
Standard
  9
$CLAYER
  8
0
  9
$CELTYPE
  6
ByLayer
  9
$CECOLOR
 62
   256
  9
$CELTSCALE
 40
1.0
  9
$DISPSILH
 70
     0
  9
$DIMSCALE
 40
1.0
  9
$DIMASZ
 40
0.18
  9
$DIMEXO
 40
0.0625
  9
$DIMDLI
 40
0.38
  9
$DIMRND
 40
0.0
  9
$DIMDLE
 40
0.0
  9
$DIMEXE
 40
0.18
  9
$DIMTP
 40
0.0
  9
$DIMTM
 40
0.0
  9
$DIMTXT
 40
0.18
  9
$DIMCEN
 40
0.09
  9
$DIMTSZ
 40
0.0
  9
$DIMTOL
 70
     0
  9
$DIMLIM
 70
     0
  9
$DIMTIH
 70
     1
  9
$DIMTOH
 70
     1
  9
$DIMSE1
 70
     0
  9
$DIMSE2
 70
     0
  9
$DIMTAD
 70
     0
  9
$DIMZIN
 70
     0
  9
$DIMBLK
  1

  9
$DIMASO
 70
     1
  9
$DIMSHO
 70
     1
  9
$DIMPOST
  1

  9
$DIMAPOST
  1

  9
$DIMALT
 70
     0
  9
$DIMALTD
 70
     2
  9
$DIMALTF
 40
25.4
  9
$DIMLFAC
 40
1.0
  9
$DIMTOFL
 70
     0
  9
$DIMTVP
 40
0.0
  9
$DIMTIX
 70
     0
  9
$DIMSOXD
 70
     0
  9
$DIMSAH
 70
     0
  9
$DIMBLK1
  1

  9
$DIMBLK2
  1

  9
$DIMSTYLE
  2
Standard
  9
$DIMCLRD
 70
     0
  9
$DIMCLRE
 70
     0
  9
$DIMCLRT
 70
     0
  9
$DIMTFAC
 40
1.0
  9
$DIMGAP
 40
0.09
  9
$DIMJUST
 70
     0
  9
$DIMSD1
 70
     0
  9
$DIMSD2
 70
     0
  9
$DIMTOLJ
 70
     1
  9
$DIMTZIN
 70
     0
  9
$DIMALTZ
 70
     0
  9
$DIMALTTZ
 70
     0
  9
$DIMUPT
 70
     0
  9
$DIMDEC
 70
     4
  9
$DIMTDEC
 70
     4
  9
$DIMALTU
 70
     2
  9
$DIMALTTD
 70
     2
  9
$DIMTXSTY
  7
Standard
  9
$DIMAUNIT
 70
     0
  9
$DIMADEC
 70
     0
  9
$DIMALTRND
 40
0.0
  9
$DIMAZIN
 70
     0
  9
$DIMDSEP
 70
    46
  9
$DIMATFIT
 70
     3
  9
$DIMFRAC
 70
     0
  9
$DIMLDRBLK
  1

  9
$DIMLUNIT
 70
     2
  9
$DIMLWD
 70
    -2
  9
$DIMLWE
 70
    -2
  9
$DIMTMOVE
 70
     0
  9
$DIMFXL
 40
1.0
  9
$DIMFXLON
 70
     0
  9
$DIMJOGANG
 40
0.7853981633974483
  9
$DIMTFILL
 70
     0
  9
$DIMTFILLCLR
 70
     0
  9
$DIMARCSYM
 70
     0
  9
$DIMLTYPE
  6

  9
$DIMLTEX1
  6

  9
$DIMLTEX2
  6

  9
$DIMTXTDIRECTION
 70
     0
  9
$LUNITS
 70
     2
  9
$LUPREC
 70
     4
  9
$SKETCHINC
 40
0.1
  9
$FILLETRAD
 40
0.0
  9
$AUNITS
 70
     0
  9
$AUPREC
 70
     0
  9
$MENU
  1
.
  9
$ELEVATION
 40
0.0
  9
$PELEVATION
 40
0.0
  9
$THICKNESS
 40
0.0
  9
$LIMCHECK
 70
     0
  9
$CHAMFERA
 40
0.0
  9
$CHAMFERB
 40
0.0
  9
$CHAMFERC
 40
0.0
  9
$CHAMFERD
 40
0.0
  9
$SKPOLY
 70
     0
  9
$TDCREATE
 40
2459549.557060185
  9
$TDUCREATE
 40
2459549.182060186
  9
$TDUPDATE
 40
2459549.557060185
  9
$TDUUPDATE
 40
2459549.182060186
  9
$TDINDWG
 40
0.0000000000
  9
$TDUSRTIMER
 40
0.0000000000
  9
$USRTIMER
 70
     1
  9
$ANGBASE
 50
0.0
  9
$ANGDIR
 70
     0
  9
$PDMODE
 70
     0
  9
$PDSIZE
 40
0.0
  9
$PLINEWID
 40
0.0
  9
$SPLFRAME
 70
     0
  9
$SPLINETYPE
 70
     6
  9
$SPLINESEGS
 70
     8
  9
$HANDSEED
  5
18B
  9
$SURFTAB1
 70
     6
  9
$SURFTAB2
 70
     6
  9
$SURFTYPE
 70
     6
  9
$SURFU
 70
     6
  9
$SURFV
 70
     6
  9
$UCSBASE
  2

  9
$UCSNAME
  2

  9
$UCSORG
 10
0.0
 20
0.0
 30
0.0
  9
$UCSXDIR
 10
1.0
 20
0.0
 30
0.0
  9
$UCSYDIR
 10
0.0
 20
1.0
 30
0.0
  9
$UCSORTHOREF
  2

  9
$UCSORTHOVIEW
 70
     0
  9
$UCSORGTOP
 10
0.0
 20
0.0
 30
0.0
  9
$UCSORGBOTTOM
 10
0.0
 20
0.0
 30
0.0
  9
$UCSORGLEFT
 10
0.0
 20
0.0
 30
0.0
  9
$UCSORGRIGHT
 10
0.0
 20
0.0
 30
0.0
  9
$UCSORGFRONT
 10
0.0
 20
0.0
 30
0.0
  9
$UCSORGBACK
 10
0.0
 20
0.0
 30
0.0
  9
$PUCSBASE
  2

  9
$PUCSNAME
  2

  9
$PUCSORG
 10
0.0
 20
0.0
 30
0.0
  9
$PUCSXDIR
 10
1.0
 20
0.0
 30
0.0
  9
$PUCSYDIR
 10
0.0
 20
1.0
 30
0.0
  9
$PUCSORTHOREF
  2

  9
$PUCSORTHOVIEW
 70
     0
  9
$PUCSORGTOP
 10
0.0
 20
0.0
 30
0.0
  9
$PUCSORGBOTTOM
 10
0.0
 20
0.0
 30
0.0
  9
$PUCSORGLEFT
 10
0.0
 20
0.0
 30
0.0
  9
$PUCSORGRIGHT
 10
0.0
 20
0.0
 30
0.0
  9
$PUCSORGFRONT
 10
0.0
 20
0.0
 30
0.0
  9
$PUCSORGBACK
 10
0.0
 20
0.0
 30
0.0
  9
$USERI1
 70
     0
  9
$USERI2
 70
     0
  9
$USERI3
 70
     0
  9
$USERI4
 70
     0
  9
$USERI5
 70
     0
  9
$USERR1
 40
0.0
  9
$USERR2
 40
0.0
  9
$USERR3
 40
0.0
  9
$USERR4
 40
0.0
  9
$USERR5
 40
0.0
  9
$WORLDVIEW
 70
     1
  9
$SHADEDGE
 70
     3
  9
$SHADEDIF
 70
    70
  9
$TILEMODE
 70
     1
  9
$MAXACTVP
 70
    64
  9
$PINSBASE
 10
0.0
 20
0.0
 30
0.0
  9
$PLIMCHECK
 70
     0
  9
$PEXTMIN
 10
1.000000000000000E+20
 20
1.000000000000000E+20
 30
1.000000000000000E+20
  9
$PEXTMAX
 10
-1.000000000000000E+20
 20
-1.000000000000000E+20
 30
-1.000000000000000E+20
  9
$PLIMMIN
 10
0.0
 20
0.0
  9
$PLIMMAX
 10
12.0
 20
9.0
  9
$UNITMODE
 70
     0
  9
$VISRETAIN
 70
     1
  9
$PLINEGEN
 70
     0
  9
$PSLTSCALE
 70
     1
  9
$TREEDEPTH
 70
  3020
  9
$CMLSTYLE
  2
Standard
  9
$CMLJUST
 70
     0
  9
$CMLSCALE
 40
1.0
  9
$PROXYGRAPHICS
 70
     1
  9
$MEASUREMENT
 70
     0
  9
$CELWEIGHT
370
    -1
  9
$ENDCAPS
280
     0
  9
$JOINSTYLE
280
     0
  9
$LWDISPLAY
290
     1
  9
$INSUNITS
 70
     4
  9
$HYPERLINKBASE
  1

  9
$STYLESHEET
  1

  9
$XEDIT
290
     1
  9
$CEPSNTYPE
380
     0
  9
$PSTYLEMODE
290
     1
  9
$FINGERPRINTGUID
  2
{E80BA457-71A1-5A45-B626-483556B28E06}
  9
$VERSIONGUID
  2
{A29FA2CF-E0D1-DE4F-B470-2ACB95F2D158}
  9
$EXTNAMES
290
     1
  9
$PSVPSCALE
 40
0.0
  9
$OLESTARTUP
290
     0
  9
$SORTENTS
280
   127
  9
$INDEXCTL
280
     0
  9
$HIDETEXT
280
     1
  9
$XCLIPFRAME
280
     2
  9
$HALOGAP
280
     0
  9
$OBSCOLOR
 70
   257
  9
$OBSLTYPE
280
     0
  9
$INTERSECTIONDISPLAY
280
     0
  9
$INTERSECTIONCOLOR
 70
   257
  9
$DIMASSOC
280
     2
  9
$PROJECTNAME
  1

  9
$CAMERADISPLAY
290
     0
  9
$LENSLENGTH
 40
50.0
  9
$CAMERAHEIGHT
 40
0.0
  9
$STEPSPERSEC
 40
2.0
  9
$STEPSIZE
 40
6.0
  9
$3DDWFPREC
 40
2.0
  9
$PSOLWIDTH
 40
0.25
  9
$PSOLHEIGHT
 40
4.0
  9
$LOFTANG1
 40
1.570796326794896
  9
$LOFTANG2
 40
1.570796326794896
  9
$LOFTMAG1
 40
0.0
  9
$LOFTMAG2
 40
0.0
  9
$LOFTPARAM
 70
     7
  9
$LOFTNORMALS
280
     1
  9
$LATITUDE
 40
37.795
  9
$LONGITUDE
 40
-122.394
  9
$NORTHDIRECTION
 40
0.0
  9
$TIMEZONE
 70
 -8000
  9
$LIGHTGLYPHDISPLAY
280
     1
  9
$TILEMODELIGHTSYNCH
280
     1
  9
$CMATERIAL
347
11
  9
$SOLIDHIST
280
     0
  9
$SHOWHIST
280
     1
  9
$DWFFRAME
280
     2
  9
$DGNFRAME
280
     0
  9
$REALWORLDSCALE
290
     1
  9
$INTERFERECOLOR
 62
     1
  9
$INTERFEREOBJVS
345
33
  9
$INTERFEREVPVS
346
30
  9
$CSHADOW
280
     0
  9
$SHADOWPLANELOCATION
 40
0.0
  0
ENDSEC
  0
SECTION
  2
CLASSES
  0
CLASS
  1
ACDBDICTIONARYWDFLT
  2
AcDbDictionaryWithDefault
  3
ObjectDBX Classes
 90
        0
 91
        1
280
     0
281
     0
  0
CLASS
  1
MATERIAL
  2
AcDbMaterial
  3
ObjectDBX Classes
 90
     1153
 91
        3
280
     0
281
     0
  0
CLASS
  1
VISUALSTYLE
  2
AcDbVisualStyle
  3
ObjectDBX Classes
 90
     4095
 91
       24
280
     0
281
     0
  0
CLASS
  1
SCALE
  2
AcDbScale
  3
ObjectDBX Classes
 90
     1153
 91
       17
280
     0
281
     0
  0
CLASS
  1
TABLESTYLE
  2
AcDbTableStyle
  3
ObjectDBX Classes
 90
     4095
 91
        1
280
     0
281
     0
  0
CLASS
  1
MLEADERSTYLE
  2
AcDbMLeaderStyle
  3
ACDB_MLEADERSTYLE_CLASS
 90
     4095
 91
        1
280
     0
281
     0
  0
CLASS
  1
ACDBSECTIONVIEWSTYLE
  2
AcDbSectionViewStyle
  3
ObjectDBX Classes
 90
     1025
 91
        1
280
     0
281
     0
  0
CLASS
  1
ACDBDETAILVIEWSTYLE
  2
AcDbDetailViewStyle
  3
ObjectDBX Classes
 90
     1025
 91
        1
280
     0
281
     0
  0
CLASS
  1
DICTIONARYVAR
  2
AcDbDictionaryVar
  3
ObjectDBX Classes
 90
        0
 91
        5
280
     0
281
     0
  0
CLASS
  1
CELLSTYLEMAP
  2
AcDbCellStyleMap
  3
ObjectDBX Classes
 90
     1152
 91
        1
280
     0
281
     0
  0
ENDSEC
  0
SECTION
  2
TABLES
  0
TABLE
  2
VPORT
  5
8
330
0
100
AcDbSymbolTable
 70
     1
  0
VPORT
  5
57
330
8
100
AcDbSymbolTableRecord
100
AcDbViewportTableRecord
  2
*Active
 70
     0
 10
0.0
 20
0.0
 11
1.0
 21
1.0
 12
0.0
 22
0.0
 13
0.0
 23
0.0
 14
1.0
 24
1.0
 15
0.0
 25
0.0
 16
0.0
 26
0.0
 36
1.0
 17
104.9513888626509
 27
147.9840480858495
 37
0.0
 40
304.146958420089
 41
0.704777172171286
 42
50.0
 43
0.0
 44
0.0
 50
0.0
 51
0.0
 71
     0
 72
   100
 73
     1
 74
     1
 75
     0
 76
     0
 77
     0
 78
     0
281
     0
 65
     1
110
0.0
120
0.0
130
0.0
111
1.0
121
0.0
131
0.0
112
0.0
122
1.0
132
0.0
 79
     0
146
0.0
 60
     3
 61
     5
292
     1
282
     1
141
0.0
142
0.0
 63
   250
421
  3355443
  0
ENDTAB
  0
TABLE
  2
LTYPE
  5
5
330
0
100
AcDbSymbolTable
 70
     3
  0
LTYPE
  5
5B
330
5
100
AcDbSymbolTableRecord
100
AcDbLinetypeTableRecord
  2
ByBlock
 70
     0
  3

 72
    65
 73
     0
 40
0.0
  0
LTYPE
  5
5C
330
5
100
AcDbSymbolTableRecord
100
AcDbLinetypeTableRecord
  2
ByLayer
 70
     0
  3

 72
    65
 73
     0
 40
0.0
  0
LTYPE
  5
5D
330
5
100
AcDbSymbolTableRecord
100
AcDbLinetypeTableRecord
  2
Continuous
 70
     0
  3
Solid line
 72
    65
 73
     0
 40
0.0
  0
LTYPE
  5
DD
330
5
100
AcDbSymbolTableRecord
100
AcDbLinetypeTableRecord
  2
AI-Linetype-0
 70
     0
  3
Adobe Illustrator Linetype No. 0
 72
    65
 73
     4
 40
50.77648250052169
 49
31.73530181515239
 74
     0
 49
-6.347060228456434
 74
     0
 49
6.347060228456434
 74
     0
 49
-6.347060228456434
 74
     0
  0
LTYPE
  5
118
330
5
100
AcDbSymbolTableRecord
100
AcDbLinetypeTableRecord
  2
AI-Linetype-1
 70
     0
  3
Adobe Illustrator Linetype No. 1
 72
    65
 73
     4
 40
50.77648250052169
 49
31.73530181515239
 74
     0
 49
-6.347060228456434
 74
     0
 49
6.347060228456434
 74
     0
 49
-6.347060228456434
 74
     0
  0
ENDTAB
  0
TABLE
  2
LAYER
  5
2
330
0
100
AcDbSymbolTable
 70
     4
  0
LAYER
  5
54
330
2
100
AcDbSymbolTableRecord
100
AcDbLayerTableRecord
  2
0
 70
     0
 62
     7
  6
Continuous
370
    -3
390
F
347
21
348
0
  0
LAYER
  5
78
330
2
100
AcDbSymbolTableRecord
100
AcDbLayerTableRecord
  2
CLASS1
 70
     0
 62
     7
  6
Continuous
370
     0
390
F
347
21
348
0
  0
LAYER
  5
A6
330
2
100
AcDbSymbolTableRecord
100
AcDbLayerTableRecord
  2
DEFPOINTS
 70
     0
 62
     7
  6
Continuous
290
     0
370
     0
390
F
347
21
348
0
  0
LAYER
  5
AA
330
2
100
AcDbSymbolTableRecord
100
AcDbLayerTableRecord
  2
1_2
 70
     0
 62
     7
  6
Continuous
370
     0
390
F
347
21
348
0
  0
ENDTAB
  0
TABLE
  2
STYLE
  5
3
330
0
100
AcDbSymbolTable
 70
     2
  0
STYLE
  5
55
330
3
100
AcDbSymbolTableRecord
100
AcDbTextStyleTableRecord
  2
Standard
 70
     0
 40
0.0
 41
1.0
 50
0.0
 71
     0
 42
0.2
  3
txt
  4

  0
STYLE
  5
5A
330
3
100
AcDbSymbolTableRecord
100
AcDbTextStyleTableRecord
  2
Annotative
 70
     0
 40
0.0
 41
1.0
 50
0.0
 71
     0
 42
0.2
  3
txt
  4

1001
AcadAnnotative
1000
AnnotativeData
1002
{
1070
     1
1070
     1
1002
}
  0
ENDTAB
  0
TABLE
  2
VIEW
  5
6
330
0
100
AcDbSymbolTable
 70
     0
  0
ENDTAB
  0
TABLE
  2
UCS
  5
7
330
0
100
AcDbSymbolTable
 70
     0
  0
ENDTAB
  0
TABLE
  2
APPID
  5
9
330
0
100
AcDbSymbolTable
 70
     2
  0
APPID
  5
56
330
9
100
AcDbSymbolTableRecord
100
AcDbRegAppTableRecord
  2
ACAD
 70
     0
  0
APPID
  5
5E
330
9
100
AcDbSymbolTableRecord
100
AcDbRegAppTableRecord
  2
AcadAnnotative
 70
     0
  0
ENDTAB
  0
TABLE
  2
DIMSTYLE
  5
A
330
0
100
AcDbSymbolTable
 70
     2
100
AcDbDimStyleTable
 71
     0
  0
DIMSTYLE
105
58
330
A
100
AcDbSymbolTableRecord
100
AcDbDimStyleTableRecord
  2
Standard
 70
     0
340
55
  0
DIMSTYLE
105
59
330
A
100
AcDbSymbolTableRecord
100
AcDbDimStyleTableRecord
  2
Annotative
 70
     0
340
55
1001
AcadAnnotative
1000
AnnotativeData
1002
{
1070
     1
1070
     1
1002
}
  0
ENDTAB
  0
TABLE
  2
BLOCK_RECORD
  5
1
330
0
100
AcDbSymbolTable
 70
    13
  0
BLOCK_RECORD
  5
70
330
1
100
AcDbSymbolTableRecord
100
AcDbBlockTableRecord
  2
*Model_Space
340
73
 70
     0
280
     1
281
     0
  0
BLOCK_RECORD
  5
6C
330
1
100
AcDbSymbolTableRecord
100
AcDbBlockTableRecord
  2
*Paper_Space
340
6F
 70
     0
280
     1
281
     0
  0
BLOCK_RECORD
  5
74
330
1
100
AcDbSymbolTableRecord
100
AcDbBlockTableRecord
  2
*Paper_Space0
340
77
 70
     0
280
     1
281
     0
  0
BLOCK_RECORD
  5
79
330
1
100
AcDbSymbolTableRecord
100
AcDbBlockTableRecord
  2
Block_0
340
0
102
{BLKREFS
331
7A
102
}
 70
     0
280
     1
281
     0
  0
BLOCK_RECORD
  5
AB
330
1
100
AcDbSymbolTableRecord
100
AcDbBlockTableRecord
  2
Block_1
340
0
102
{BLKREFS
331
AC
102
}
 70
     0
280
     1
281
     0
  0
BLOCK_RECORD
  5
B4
330
1
100
AcDbSymbolTableRecord
100
AcDbBlockTableRecord
  2
Block_2
340
0
102
{BLKREFS
331
B5
102
}
 70
     0
280
     1
281
     0
  0
BLOCK_RECORD
  5
C1
330
1
100
AcDbSymbolTableRecord
100
AcDbBlockTableRecord
  2
Block_3
340
0
102
{BLKREFS
331
C2
102
}
 70
     0
280
     1
281
     0
  0
BLOCK_RECORD
  5
CA
330
1
100
AcDbSymbolTableRecord
100
AcDbBlockTableRecord
  2
Block_4
340
0
102
{BLKREFS
331
CB
102
}
 70
     0
280
     1
281
     0
  0
BLOCK_RECORD
  5
D3
330
1
100
AcDbSymbolTableRecord
100
AcDbBlockTableRecord
  2
Block_5
340
0
102
{BLKREFS
331
D4
102
}
 70
     0
280
     1
281
     0
  0
BLOCK_RECORD
  5
126
330
1
100
AcDbSymbolTableRecord
100
AcDbBlockTableRecord
  2
Block_6
340
0
102
{BLKREFS
331
127
102
}
 70
     0
280
     1
281
     0
  0
BLOCK_RECORD
  5
134
330
1
100
AcDbSymbolTableRecord
100
AcDbBlockTableRecord
  2
Block_7
340
0
102
{BLKREFS
331
135
102
}
 70
     0
280
     1
281
     0
  0
BLOCK_RECORD
  5
143
330
1
100
AcDbSymbolTableRecord
100
AcDbBlockTableRecord
  2
Block_8
340
0
102
{BLKREFS
331
144
102
}
 70
     0
280
     1
281
     0
  0
BLOCK_RECORD
  5
151
330
1
100
AcDbSymbolTableRecord
100
AcDbBlockTableRecord
  2
Block_9
340
0
102
{BLKREFS
331
152
102
}
 70
     0
280
     1
281
     0
  0
BLOCK_RECORD
  5
160
330
1
100
AcDbSymbolTableRecord
100
AcDbBlockTableRecord
  2
Block_10
340
0
102
{BLKREFS
331
161
102
}
 70
     0
280
     1
281
     0
  0
BLOCK_RECORD
  5
174
330
1
100
AcDbSymbolTableRecord
100
AcDbBlockTableRecord
  2
Block_11
340
0
102
{BLKREFS
331
175
102
}
 70
     0
280
     1
281
     0
  0
ENDTAB
  0
ENDSEC
  0
SECTION
  2
BLOCKS
  0
BLOCK
  5
71
330
70
100
AcDbEntity
  8
0
100
AcDbBlockBegin
  2
*Model_Space
 70
     0
 10
0.0
 20
0.0
 30
0.0
  3
*Model_Space
  1

  0
ENDBLK
  5
72
330
70
100
AcDbEntity
  8
0
100
AcDbBlockEnd
  0
BLOCK
  5
6D
330
6C
100
AcDbEntity
 67
     1
  8
0
100
AcDbBlockBegin
  2
*Paper_Space
 70
     0
 10
0.0
 20
0.0
 30
0.0
  3
*Paper_Space
  1

  0
ENDBLK
  5
6E
330
6C
100
AcDbEntity
 67
     1
  8
0
100
AcDbBlockEnd
  0
BLOCK
  5
75
330
74
100
AcDbEntity
 67
     1
  8
0
100
AcDbBlockBegin
  2
*Paper_Space0
 70
     0
 10
0.0
 20
0.0
 30
0.0
  3
*Paper_Space0
  1

  0
ENDBLK
  5
76
330
74
100
AcDbEntity
 67
     1
  8
0
100
AcDbBlockEnd
  0
BLOCK
  5
7B
330
79
100
AcDbEntity
  8
0
100
AcDbBlockBegin
  2
Block_0
 70
     0
 10
0.0
 20
0.0
 30
0.0
  3
Block_0
  1

  0
MTEXT
  5
7D
330
79
100
AcDbEntity
  8
CLASS1
100
AcDbMText
 10
86.62191982223015
 20
54.14315832691832
 30
0.0
 40
0.2
 41
0.0
 46
0.0
 71
     7
 72
     1
  1
\C143;\c13415014;\FKozGoPr6N-Regular|b0|i0|c128;\H2.497667;\W1.008320;※1　（　）内寸法は参考寸法である。
 73
     1
 44
1.0
  0
MTEXT
  5
7E
330
79
100
AcDbEntity
  8
CLASS1
100
AcDbMText
 10
86.62191982223015
 20
47.74612200920876
 30
0.0
 40
0.2
 41
0.0
 46
0.0
 71
     7
 72
     1
  1
\C143;\c13415014;\FKozGoPr6N-Regular|b0|i0|c128;\H2.497667;\W1.008320;※２　テール管の差込代は、15mm以上を確保すること。
 73
     1
 44
1.0
  0
MTEXT
  5
7F
330
79
100
AcDbEntity
  8
CLASS1
100
AcDbMText
 10
86.62191982223015
 20
41.34908300001836
 30
0.0
 40
0.2
 41
0.0
 46
0.0
 71
     7
 72
     1
  1
\C143;\c13415014;\FKozGoPr6N-Regular|b0|i0|c128;\H2.497667;\W1.008320;※3　壁排水管の差込代は、40mm以上を確保すること。
 73
     1
 44
1.0
  0
ENDBLK
  5
7C
330
79
100
AcDbEntity
  8
0
100
AcDbBlockEnd
  0
BLOCK
  5
AD
330
AB
100
AcDbEntity
  8
0
100
AcDbBlockBegin
  2
Block_1
 70
     0
 10
0.0
 20
0.0
 30
0.0
  3
Block_1
  1

  0
LINE
  5
AF
330
AB
100
AcDbEntity
  8
1_2
 62
   143
420
  6730444
370
    25
100
AcDbLine
 10
66.461889361303
 20
214.519045858613
 30
0.0
 11
64.45274492925726
 21
212.4746597811407
 31
0.0
  0
LINE
  5
B0
330
AB
100
AcDbEntity
  8
1_2
 62
   143
420
  6730444
370
    25
100
AcDbLine
 10
64.45274492925726
 20
212.4746597811407
 30
0.0
 11
65.17052300501788
 21
215.2497220176574
 31
0.0
  0
LINE
  5
B1
330
AB
100
AcDbEntity
  8
1_2
 62
   143
420
  6730444
370
    25
100
AcDbLine
 10
64.45274492925726
 20
212.4746597811407
 30
0.0
 11
65.81620618316029
 21
214.8843839381352
 31
0.0
  0
LWPOLYLINE
  5
B2
330
AB
100
AcDbEntity
  8
1_2
 62
   143
420
  6730444
370
    25
100
AcDbPolyline
 90
        3
 70
     0
 43
0.0
 10
65.81620618316029
 20
214.8843839381352
 10
68.65165808654071
 20
219.8956425478039
 10
83.644713638348
 20
219.8956425478039
  0
ENDBLK
  5
AE
330
AB
100
AcDbEntity
  8
0
100
AcDbBlockEnd
  0
BLOCK
  5
B6
330
B4
100
AcDbEntity
  8
0
100
AcDbBlockBegin
  2
Block_2
 70
     0
 10
0.0
 20
0.0
 30
0.0
  3
Block_2
  1

  0
LINE
  5
B8
330
B4
100
AcDbEntity
  8
1_2
 62
   143
420
  6730444
370
    25
100
AcDbLine
 10
24.7429826035364
 20
148.3043820194053
 30
0.0
 11
24.7429826035364
 21
209.8258866336548
 31
0.0
  0
LINE
  5
B9
330
B4
100
AcDbEntity
  8
1_2
 62
   143
420
  6730444
370
    25
100
AcDbLine
 10
45.13769123038223
 20
209.8258866336548
 30
0.0
 11
23.24367704835566
 21
209.8258866336548
 31
0.0
  0
LINE
  5
BA
330
B4
100
AcDbEntity
  8
1_2
 62
   143
420
  6730444
370
    25
100
AcDbLine
 10
25.48485771356861
 20
151.0730996113057
 30
0.0
 11
24.7429826035364
 21
148.3043820194053
 31
0.0
  0
LINE
  5
BB
330
B4
100
AcDbEntity
  8
1_2
 62
   143
420
  6730444
370
    25
100
AcDbLine
 10
24.7429826035364
 20
148.3043820194053
 30
0.0
 11
24.0011074935045
 21
151.0730996113057
 31
0.0
  0
LINE
  5
BC
330
B4
100
AcDbEntity
  8
1_2
 62
   143
420
  6730444
370
    25
100
AcDbLine
 10
24.7429826035364
 20
148.3043820194053
 30
0.0
 11
24.7429826035364
 21
151.0730996113057
 31
0.0
  0
LINE
  5
BD
330
B4
100
AcDbEntity
  8
1_2
 62
   143
420
  6730444
370
    25
100
AcDbLine
 10
24.0011074935045
 20
207.0571690417544
 30
0.0
 11
24.7429826035364
 21
209.8258866336548
 31
0.0
  0
LINE
  5
BE
330
B4
100
AcDbEntity
  8
1_2
 62
   143
420
  6730444
370
    25
100
AcDbLine
 10
24.7429826035364
 20
209.8258866336548
 30
0.0
 11
25.48485771356861
 21
207.0571690417544
 31
0.0
  0
LINE
  5
BF
330
B4
100
AcDbEntity
  8
1_2
 62
   143
420
  6730444
370
    25
100
AcDbLine
 10
24.7429826035364
 20
209.8258866336548
 30
0.0
 11
24.7429826035364
 21
207.0571690417544
 31
0.0
  0
MTEXT
  5
C0
330
B4
100
AcDbEntity
  8
1_2
100
AcDbMText
 10
23.7434473614144
 20
164.6969237869507
 30
0.0
 40
0.2
 41
0.0
 46
0.0
 71
     7
 72
     1
  1
\C143;\c13415014;\FKozGoPr6N-Regular|b0|i0|c128;\H2.498843;\W1.250000;(63.0～138.0)
 11
0.0000000000000001
 21
1.0
 31
0.0
 73
     1
 44
1.0
  0
ENDBLK
  5
B7
330
B4
100
AcDbEntity
  8
0
100
AcDbBlockEnd
  0
BLOCK
  5
C3
330
C1
100
AcDbEntity
  8
0
100
AcDbBlockBegin
  2
Block_3
 70
     0
 10
0.0
 20
0.0
 30
0.0
  3
Block_3
  1

  0
LINE
  5
C5
330
C1
100
AcDbEntity
  8
1_2
 62
   143
420
  6730444
370
    25
100
AcDbLine
 10
83.43579460625253
 20
136.1250261978048
 30
0.0
 11
81.81221441102854
 21
138.487263089452
 31
0.0
  0
LINE
  5
C6
330
C1
100
AcDbEntity
  8
1_2
 62
   143
420
  6730444
370
    25
100
AcDbLine
 10
81.81221441102854
 20
138.487263089452
 30
0.0
 11
84.39939410790278
 21
137.2532951001327
 31
0.0
  0
LINE
  5
C7
330
C1
100
AcDbEntity
  8
1_2
 62
   143
420
  6730444
370
    25
100
AcDbLine
 10
81.81221441102854
 20
138.487263089452
 30
0.0
 11
83.91759435707767
 21
136.689160648969
 31
0.0
  0
LWPOLYLINE
  5
C8
330
C1
100
AcDbEntity
  8
1_2
 62
   143
420
  6730444
370
    25
100
AcDbPolyline
 90
        3
 70
     0
 43
0.0
 10
83.91759435707767
 20
136.689160648969
 10
90.07795490479518
 20
131.4278968301061
 10
110.879654022743
 20
131.4278968301061
  0
ENDBLK
  5
C4
330
C1
100
AcDbEntity
  8
0
100
AcDbBlockEnd
  0
BLOCK
  5
CC
330
CA
100
AcDbEntity
  8
0
100
AcDbBlockBegin
  2
Block_4
 70
     0
 10
0.0
 20
0.0
 30
0.0
  3
Block_4
  1

  0
LINE
  5
CE
330
CA
100
AcDbEntity
  8
1_2
 62
   143
420
  6730444
370
    25
100
AcDbLine
 10
67.36500648894829
 20
170.5470880394887
 30
0.0
 11
66.2328024464048
 21
173.1803920076307
 31
0.0
  0
LINE
  5
CF
330
CA
100
AcDbEntity
  8
1_2
 62
   143
420
  6730444
370
    25
100
AcDbLine
 10
66.2328024464048
 20
173.1803920076307
 30
0.0
 11
68.52997127797447
 21
171.4659850717345
 31
0.0
  0
LINE
  5
D0
330
CA
100
AcDbEntity
  8
1_2
 62
   143
420
  6730444
370
    25
100
AcDbLine
 10
66.2328024464048
 20
173.1803920076307
 30
0.0
 11
67.94748888346122
 21
171.0065365556116
 31
0.0
  0
LWPOLYLINE
  5
D1
330
CA
100
AcDbEntity
  8
1_2
 62
   143
420
  6730444
370
    25
100
AcDbPolyline
 90
        3
 70
     0
 43
0.0
 10
67.94748888346122
 20
171.0065365556116
 10
72.10122032641905
 20
165.7404940020834
 10
92.09196106216221
 20
165.7404940020834
  0
ENDBLK
  5
CD
330
CA
100
AcDbEntity
  8
0
100
AcDbBlockEnd
  0
BLOCK
  5
D5
330
D3
100
AcDbEntity
  8
0
100
AcDbBlockBegin
  2
Block_5
 70
     0
 10
0.0
 20
0.0
 30
0.0
  3
Block_5
  1

  0
LINE
  5
D7
330
D3
100
AcDbEntity
  8
1_2
 62
   143
420
  6730444
370
    25
100
AcDbLine
 10
67.36500648894829
 20
206.4304676601477
 30
0.0
 11
66.2328024464048
 21
209.0637716282897
 31
0.0
  0
LINE
  5
D8
330
D3
100
AcDbEntity
  8
1_2
 62
   143
420
  6730444
370
    25
100
AcDbLine
 10
66.2328024464048
 20
209.0637716282897
 30
0.0
 11
68.52997127797447
 21
207.3493646923935
 31
0.0
  0
LINE
  5
D9
330
D3
100
AcDbEntity
  8
1_2
 62
   143
420
  6730444
370
    25
100
AcDbLine
 10
66.2328024464048
 20
209.0637716282897
 30
0.0
 11
67.94748888346122
 21
206.8899161762706
 31
0.0
  0
LWPOLYLINE
  5
DA
330
D3
100
AcDbEntity
  8
1_2
 62
   143
420
  6730444
370
    25
100
AcDbPolyline
 90
        3
 70
     0
 43
0.0
 10
67.94748888346122
 20
206.8899161762706
 10
72.10122032641905
 20
201.6238736227421
 10
92.09196106216221
 20
201.6238736227421
  0
ENDBLK
  5
D6
330
D3
100
AcDbEntity
  8
0
100
AcDbBlockEnd
  0
BLOCK
  5
128
330
126
100
AcDbEntity
  8
0
100
AcDbBlockBegin
  2
Block_6
 70
     0
 10
0.0
 20
0.0
 30
0.0
  3
Block_6
  1

  0
LINE
  5
12A
330
126
100
AcDbEntity
  8
1_2
 62
   143
420
  6730444
370
    25
100
AcDbLine
 10
24.7429826035364
 20
101.825909808803
 30
0.0
 11
24.7429826035364
 21
148.3043820194053
 31
0.0
  0
LINE
  5
12B
330
126
100
AcDbEntity
  8
1_2
 62
   143
420
  6730444
370
    25
100
AcDbLine
 10
44.71188845271078
 20
101.825909808803
 30
0.0
 11
23.24367704835566
 21
101.825909808803
 31
0.0
  0
LINE
  5
12C
330
126
100
AcDbEntity
  8
1_2
 62
   143
420
  6730444
370
    25
100
AcDbLine
 10
37.44543611100918
 20
148.3043820194053
 30
0.0
 11
23.24367704835566
 21
148.3043820194053
 31
0.0
  0
LINE
  5
12D
330
126
100
AcDbEntity
  8
1_2
 62
   143
420
  6730444
370
    25
100
AcDbLine
 10
25.48485771356861
 20
104.5946274007034
 30
0.0
 11
24.7429826035364
 21
101.825909808803
 31
0.0
  0
LINE
  5
12E
330
126
100
AcDbEntity
  8
1_2
 62
   143
420
  6730444
370
    25
100
AcDbLine
 10
24.7429826035364
 20
101.825909808803
 30
0.0
 11
24.0011074935045
 21
104.5946274007034
 31
0.0
  0
LINE
  5
12F
330
126
100
AcDbEntity
  8
1_2
 62
   143
420
  6730444
370
    25
100
AcDbLine
 10
24.7429826035364
 20
101.825909808803
 30
0.0
 11
24.7429826035364
 21
104.5946274007034
 31
0.0
  0
LINE
  5
130
330
126
100
AcDbEntity
  8
1_2
 62
   143
420
  6730444
370
    25
100
AcDbLine
 10
24.0011074935045
 20
145.5356644275052
 30
0.0
 11
24.7429826035364
 21
148.3043820194053
 31
0.0
  0
LINE
  5
131
330
126
100
AcDbEntity
  8
1_2
 62
   143
420
  6730444
370
    25
100
AcDbLine
 10
24.7429826035364
 20
148.3043820194053
 30
0.0
 11
25.48485771356861
 21
145.5356644275052
 31
0.0
  0
LINE
  5
132
330
126
100
AcDbEntity
  8
1_2
 62
   143
420
  6730444
370
    25
100
AcDbLine
 10
24.7429826035364
 20
148.3043820194053
 30
0.0
 11
24.7429826035364
 21
145.5356644275052
 31
0.0
  0
MTEXT
  5
133
330
126
100
AcDbEntity
  8
1_2
100
AcDbMText
 10
23.7434473614144
 20
118.037239553824
 30
0.0
 40
0.2
 41
0.0
 46
0.0
 71
     7
 72
     1
  1
\C143;\c13415014;\FKozGoPr6N-Regular|b0|i0|c128;\H2.498843;\W1.350000;(94.0)
 11
0.0000000000000001
 21
1.0
 31
0.0
 73
     1
 44
1.0
  0
ENDBLK
  5
129
330
126
100
AcDbEntity
  8
0
100
AcDbBlockEnd
  0
BLOCK
  5
136
330
134
100
AcDbEntity
  8
0
100
AcDbBlockBegin
  2
Block_7
 70
     0
 10
0.0
 20
0.0
 30
0.0
  3
Block_7
  1

  0
LINE
  5
138
330
134
100
AcDbEntity
  8
1_2
 62
   143
420
  6730444
370
    25
100
AcDbLine
 10
45.96130974869483
 20
118.054096275579
 30
0.0
 11
66.95158752122503
 21
118.054096275579
 31
0.0
  0
LINE
  5
139
330
134
100
AcDbEntity
  8
1_2
 62
   143
420
  6730444
370
    25
100
AcDbLine
 10
29.94644747492079
 20
118.054096275579
 30
0.0
 11
45.96130974869483
 21
118.054096275579
 31
0.0
  0
LINE
  5
13A
330
134
100
AcDbEntity
  8
1_2
 62
   143
420
  6730444
370
    25
100
AcDbLine
 10
45.96130974869483
 20
118.054096275579
 30
0.0
 11
41.46339308315265
 21
118.054096275579
 31
0.0
  0
LINE
  5
13B
330
134
100
AcDbEntity
  8
1_2
 62
   143
420
  6730444
370
    25
100
AcDbLine
 10
66.95158752122503
 20
118.054096275579
 30
0.0
 11
71.44950418676723
 21
118.054096275579
 31
0.0
  0
LINE
  5
13C
330
134
100
AcDbEntity
  8
1_2
 62
   143
420
  6730444
370
    25
100
AcDbLine
 10
43.19259215679441
 20
118.7959713856112
 30
0.0
 11
45.96130974869483
 21
118.054096275579
 31
0.0
  0
LINE
  5
13D
330
134
100
AcDbEntity
  8
1_2
 62
   143
420
  6730444
370
    25
100
AcDbLine
 10
45.96130974869483
 20
118.054096275579
 30
0.0
 11
43.19259215679441
 21
117.3122211655468
 31
0.0
  0
LINE
  5
13E
330
134
100
AcDbEntity
  8
1_2
 62
   143
420
  6730444
370
    25
100
AcDbLine
 10
45.96130974869483
 20
118.054096275579
 30
0.0
 11
43.19259215679441
 21
118.054096275579
 31
0.0
  0
LINE
  5
13F
330
134
100
AcDbEntity
  8
1_2
 62
   143
420
  6730444
370
    25
100
AcDbLine
 10
69.72030511312546
 20
117.3122211655468
 30
0.0
 11
66.95158752122503
 21
118.054096275579
 31
0.0
  0
LINE
  5
140
330
134
100
AcDbEntity
  8
1_2
 62
   143
420
  6730444
370
    25
100
AcDbLine
 10
66.95158752122503
 20
118.054096275579
 30
0.0
 11
69.72030511312546
 21
118.7959713856112
 31
0.0
  0
LINE
  5
141
330
134
100
AcDbEntity
  8
1_2
 62
   143
420
  6730444
370
    25
100
AcDbLine
 10
66.95158752122503
 20
118.054096275579
 30
0.0
 11
69.72030511312546
 21
118.054096275579
 31
0.0
  0
MTEXT
  5
142
330
134
100
AcDbEntity
  8
1_2
100
AcDbMText
 10
30.68568888003067
 20
119.0536288493598
 30
0.0
 40
0.2
 41
0.0
 46
0.0
 71
     7
 72
     1
  1
\C143;\c13415014;\FKozGoPr6N-Regular|b0|i0|c128;\H2.498843;\W1.150000;∅42.0
 73
     1
 44
1.0
  0
ENDBLK
  5
137
330
134
100
AcDbEntity
  8
0
100
AcDbBlockEnd
  0
BLOCK
  5
145
330
143
100
AcDbEntity
  8
0
100
AcDbBlockBegin
  2
Block_8
 70
     0
 10
0.0
 20
0.0
 30
0.0
  3
Block_8
  1

  0
LINE
  5
147
330
143
100
AcDbEntity
  8
1_2
 62
   143
420
  6730444
370
    25
100
AcDbLine
 10
182.0189958697731
 20
154.5514884993252
 30
0.0
 11
182.0189958697731
 21
142.0572755394857
 31
0.0
  0
LINE
  5
148
330
143
100
AcDbEntity
  8
1_2
 62
   143
420
  6730444
370
    25
100
AcDbLine
 10
173.7021430500931
 20
154.5514884993252
 30
0.0
 11
183.5183014249538
 21
154.5514884993252
 31
0.0
  0
LINE
  5
149
330
143
100
AcDbEntity
  8
1_2
 62
   143
420
  6730444
370
    25
100
AcDbLine
 10
173.7021430500931
 20
142.0572755394857
 30
0.0
 11
183.5183014249538
 21
142.0572755394857
 31
0.0
  0
LINE
  5
14A
330
143
100
AcDbEntity
  8
1_2
 62
   143
420
  6730444
370
    25
100
AcDbLine
 10
181.2771207597409
 20
151.7827709074248
 30
0.0
 11
182.0189958697731
 21
154.5514884993252
 31
0.0
  0
LINE
  5
14B
330
143
100
AcDbEntity
  8
1_2
 62
   143
420
  6730444
370
    25
100
AcDbLine
 10
182.0189958697731
 20
154.5514884993252
 30
0.0
 11
182.7608709798053
 21
151.7827709074248
 31
0.0
  0
LINE
  5
14C
330
143
100
AcDbEntity
  8
1_2
 62
   143
420
  6730444
370
    25
100
AcDbLine
 10
182.0189958697731
 20
154.5514884993252
 30
0.0
 11
182.0189958697731
 21
151.7827709074248
 31
0.0
  0
LINE
  5
14D
330
143
100
AcDbEntity
  8
1_2
 62
   143
420
  6730444
370
    25
100
AcDbLine
 10
182.7608709798053
 20
144.8259931313861
 30
0.0
 11
182.0189958697731
 21
142.0572755394857
 31
0.0
  0
LINE
  5
14E
330
143
100
AcDbEntity
  8
1_2
 62
   143
420
  6730444
370
    25
100
AcDbLine
 10
182.0189958697731
 20
142.0572755394857
 30
0.0
 11
181.2771207597409
 21
144.8259931313861
 31
0.0
  0
LINE
  5
14F
330
143
100
AcDbEntity
  8
1_2
 62
   143
420
  6730444
370
    25
100
AcDbLine
 10
182.0189958697731
 20
142.0572755394857
 30
0.0
 11
182.0189958697731
 21
144.8259931313861
 31
0.0
  0
MTEXT
  5
150
330
143
100
AcDbEntity
  8
1_2
100
AcDbMText
 10
181.019457835401
 20
142.7964517872175
 30
0.0
 40
0.2
 41
0.0
 46
0.0
 71
     7
 72
     1
  1
\C143;\c13415014;\FKozGoPr6N-Regular|b0|i0|c128;\H2.498843;\W1.150000;∅25.0
 11
0.0000000000000001
 21
1.0
 31
0.0
 73
     1
 44
1.0
  0
ENDBLK
  5
146
330
143
100
AcDbEntity
  8
0
100
AcDbBlockEnd
  0
BLOCK
  5
153
330
151
100
AcDbEntity
  8
0
100
AcDbBlockBegin
  2
Block_9
 70
     0
 10
0.0
 20
0.0
 30
0.0
  3
Block_9
  1

  0
LINE
  5
155
330
151
100
AcDbEntity
  8
1_2
 62
   143
420
  6730444
370
    25
100
AcDbLine
 10
62.70355511487953
 20
192.0048029612582
 30
0.0
 11
50.20934215504034
 21
192.0048029612582
 31
0.0
  0
LINE
  5
156
330
151
100
AcDbEntity
  8
1_2
 62
   143
420
  6730444
370
    25
100
AcDbLine
 10
50.20934215504034
 20
192.0048029612582
 30
0.0
 11
30.20951462809585
 21
192.0048029612582
 31
0.0
  0
LINE
  5
157
330
151
100
AcDbEntity
  8
1_2
 62
   143
420
  6730444
370
    25
100
AcDbLine
 10
62.70355511487953
 20
192.0048029612582
 30
0.0
 11
67.20147178042172
 21
192.0048029612582
 31
0.0
  0
LINE
  5
158
330
151
100
AcDbEntity
  8
1_2
 62
   143
420
  6730444
370
    25
100
AcDbLine
 10
50.20934215504034
 20
192.0048029612582
 30
0.0
 11
45.71142548949815
 21
192.0048029612582
 31
0.0
  0
LINE
  5
159
330
151
100
AcDbEntity
  8
1_2
 62
   143
420
  6730444
370
    25
100
AcDbLine
 10
65.47227270677996
 20
191.262927851226
 30
0.0
 11
62.70355511487953
 21
192.0048029612582
 31
0.0
  0
LINE
  5
15A
330
151
100
AcDbEntity
  8
1_2
 62
   143
420
  6730444
370
    25
100
AcDbLine
 10
62.70355511487953
 20
192.0048029612582
 30
0.0
 11
65.47227270677996
 21
192.7466780712901
 31
0.0
  0
LINE
  5
15B
330
151
100
AcDbEntity
  8
1_2
 62
   143
420
  6730444
370
    25
100
AcDbLine
 10
62.70355511487953
 20
192.0048029612582
 30
0.0
 11
65.47227270677996
 21
192.0048029612582
 31
0.0
  0
LINE
  5
15C
330
151
100
AcDbEntity
  8
1_2
 62
   143
420
  6730444
370
    25
100
AcDbLine
 10
47.44062456313992
 20
192.7466780712901
 30
0.0
 11
50.20934215504034
 21
192.0048029612582
 31
0.0
  0
LINE
  5
15D
330
151
100
AcDbEntity
  8
1_2
 62
   143
420
  6730444
370
    25
100
AcDbLine
 10
50.20934215504034
 20
192.0048029612582
 30
0.0
 11
47.44062456313992
 21
191.262927851226
 31
0.0
  0
LINE
  5
15E
330
151
100
AcDbEntity
  8
1_2
 62
   143
420
  6730444
370
    25
100
AcDbLine
 10
50.20934215504034
 20
192.0048029612582
 30
0.0
 11
47.44062456313992
 21
192.0048029612582
 31
0.0
  0
MTEXT
  5
15F
330
151
100
AcDbEntity
  8
1_2
100
AcDbMText
 10
30.94875421809967
 20
193.004347519837
 30
0.0
 40
0.2
 41
0.0
 46
0.0
 71
     7
 72
     1
  1
\C143;\c13415014;\FKozGoPr6N-Regular|b0|i0|c128;\H2.498843;\W1.150000;∅25.0
 73
     1
 44
1.0
  0
ENDBLK
  5
154
330
151
100
AcDbEntity
  8
0
100
AcDbBlockEnd
  0
BLOCK
  5
162
330
160
100
AcDbEntity
  8
0
100
AcDbBlockBegin
  2
Block_10
 70
     0
 10
0.0
 20
0.0
 30
0.0
  3
Block_10
  1

  0
LINE
  5
164
330
160
100
AcDbEntity
  8
1_2
 62
   143
420
  6730444
370
    25
100
AcDbLine
 10
172.2028374949123
 20
91.02735945594693
 30
0.0
 11
56.45644863495993
 21
91.02735945594693
 31
0.0
  0
LINE
  5
165
330
160
100
AcDbEntity
  8
1_2
 62
   143
420
  6730444
370
    25
100
AcDbLine
 10
172.2028374949123
 20
140.5579689847676
 30
0.0
 11
172.2028374949123
 21
89.52805390076621
 31
0.0
  0
LINE
  5
166
330
160
100
AcDbEntity
  8
1_2
 62
   143
420
  6730444
370
    25
100
AcDbLine
 10
56.45644863495993
 20
93.67473924880352
 30
0.0
 11
56.45644863495993
 21
89.52805390076621
 31
0.0
  0
LINE
  5
167
330
160
100
AcDbEntity
  8
1_2
 62
   143
420
  6730444
370
    25
100
AcDbLine
 10
169.4341199030119
 20
91.76923456597917
 30
0.0
 11
172.2028374949123
 21
91.02735945594693
 31
0.0
  0
LINE
  5
168
330
160
100
AcDbEntity
  8
1_2
 62
   143
420
  6730444
370
    25
100
AcDbLine
 10
172.2028374949123
 20
91.02735945594693
 30
0.0
 11
169.4341199030119
 21
90.28548434591472
 31
0.0
  0
LINE
  5
169
330
160
100
AcDbEntity
  8
1_2
 62
   143
420
  6730444
370
    25
100
AcDbLine
 10
172.2028374949123
 20
91.02735945594693
 30
0.0
 11
169.4341199030119
 21
91.02735945594693
 31
0.0
  0
LINE
  5
16A
330
160
100
AcDbEntity
  8
1_2
 62
   143
420
  6730444
370
    25
100
AcDbLine
 10
59.22516622686035
 20
90.28548434591472
 30
0.0
 11
56.45644863495993
 21
91.02735945594693
 31
0.0
  0
LINE
  5
16B
330
160
100
AcDbEntity
  8
1_2
 62
   143
420
  6730444
370
    25
100
AcDbLine
 10
56.45644863495993
 20
91.02735945594693
 30
0.0
 11
59.22516622686035
 21
91.76923456597917
 31
0.0
  0
LINE
  5
16C
330
160
100
AcDbEntity
  8
1_2
 62
   143
420
  6730444
370
    25
100
AcDbLine
 10
56.45644863495993
 20
91.02735945594693
 30
0.0
 11
59.22516622686035
 21
91.02735945594693
 31
0.0
  0
MTEXT
  5
16D
330
160
100
AcDbEntity
  8
1_2
100
AcDbMText
 10
98.53695481274099
 20
92.02689783126846
 30
0.0
 40
0.2
 41
0.0
 46
0.0
 71
     7
 72
     1
  1
\C143;\c13415014;\FKozGoPr6N-Regular|b0|i0|c128;\H2.498843;\W1.200000;(362.0～372.0)
 73
     1
 44
1.0
  0
ENDBLK
  5
163
330
160
100
AcDbEntity
  8
0
100
AcDbBlockEnd
  0
BLOCK
  5
176
330
174
100
AcDbEntity
  8
0
100
AcDbBlockBegin
  2
Block_11
 70
     0
 10
0.0
 20
0.0
 30
0.0
  3
Block_11
  1

  0
LINE
  5
178
330
174
100
AcDbEntity
  8
1_2
 62
   143
420
  6730444
370
    25
100
AcDbLine
 10
189.328767147112
 20
163.0475533120159
 30
0.0
 11
189.328767147112
 21
133.5612107267946
 31
0.0
  0
LINE
  5
179
330
174
100
AcDbEntity
  8
1_2
 62
   143
420
  6730444
370
    25
100
AcDbLine
 10
161.2079300902532
 20
163.0475533120159
 30
0.0
 11
190.8280727022927
 21
163.0475533120159
 31
0.0
  0
LINE
  5
17A
330
174
100
AcDbEntity
  8
1_2
 62
   143
420
  6730444
370
    25
100
AcDbLine
 10
161.2079300902532
 20
133.5612107267946
 30
0.0
 11
190.8280727022927
 21
133.5612107267946
 31
0.0
  0
LINE
  5
17B
330
174
100
AcDbEntity
  8
1_2
 62
   143
420
  6730444
370
    25
100
AcDbLine
 10
188.5868920370804
 20
160.2788357201155
 30
0.0
 11
189.328767147112
 21
163.0475533120159
 31
0.0
  0
LINE
  5
17C
330
174
100
AcDbEntity
  8
1_2
 62
   143
420
  6730444
370
    25
100
AcDbLine
 10
189.328767147112
 20
163.0475533120159
 30
0.0
 11
190.0706422571442
 21
160.2788357201155
 31
0.0
  0
LINE
  5
17D
330
174
100
AcDbEntity
  8
1_2
 62
   143
420
  6730444
370
    25
100
AcDbLine
 10
189.328767147112
 20
163.0475533120159
 30
0.0
 11
189.328767147112
 21
160.2788357201155
 31
0.0
  0
LINE
  5
17E
330
174
100
AcDbEntity
  8
1_2
 62
   143
420
  6730444
370
    25
100
AcDbLine
 10
190.0706422571442
 20
136.3299283186951
 30
0.0
 11
189.328767147112
 21
133.5612107267946
 31
0.0
  0
LINE
  5
17F
330
174
100
AcDbEntity
  8
1_2
 62
   143
420
  6730444
370
    25
100
AcDbLine
 10
189.328767147112
 20
133.5612107267946
 30
0.0
 11
188.5868920370804
 21
136.3299283186951
 31
0.0
  0
LINE
  5
180
330
174
100
AcDbEntity
  8
1_2
 62
   143
420
  6730444
370
    25
100
AcDbLine
 10
189.328767147112
 20
133.5612107267946
 30
0.0
 11
189.328767147112
 21
136.3299283186951
 31
0.0
  0
MTEXT
  5
181
330
174
100
AcDbEntity
  8
1_2
100
AcDbMText
 10
188.329229138234
 20
142.7964517872175
 30
0.0
 40
0.2
 41
0.0
 46
0.0
 71
     7
 72
     1
  1
\C143;\c13415014;\FKozGoPr6N-Regular|b0|i0|c128;\H2.498843;\W1.150000;∅59.0
 11
0.0000000000000001
 21
1.0
 31
0.0
 73
     1
 44
1.0
  0
ENDBLK
  5
177
330
174
100
AcDbEntity
  8
0
100
AcDbBlockEnd
  0
ENDSEC
  0
SECTION
  2
ENTITIES
  0
INSERT
  5
7A
330
70
100
AcDbEntity
  8
CLASS1
100
AcDbBlockReference
  2
Block_0
 10
0.0
 20
0.0
 30
0.0
  0
MTEXT
  5
80
330
70
100
AcDbEntity
  8
CLASS1
100
AcDbMText
 10
81.01803061261225
 20
20.57870324997889
 30
0.0
 40
0.2
 41
0.0
 46
0.0
 71
     7
 72
     1
  1
\C143;\c13415014;\FKozGoPr6N-Regular|b0|i0|c128;\H2.497667;\W0.833333;伊藤
 73
     1
 44
1.0
  0
MTEXT
  5
81
330
70
100
AcDbEntity
  8
CLASS1
100
AcDbMText
 10
113.00321220116
 20
20.57870324997889
 30
0.0
 40
0.2
 41
0.0
 46
0.0
 71
     7
 72
     1
  1
\C143;\c13415014;\FKozGoPr6N-Regular|b0|i0|c128;\H2.497667;\W0.833333;熊谷
 73
     1
 44
1.0
  0
LINE
  5
82
330
70
100
AcDbEntity
  8
CLASS1
 62
     4
420
    65535
370
    25
100
AcDbLine
 10
76.96435183261087
 20
15.08124999622969
 30
0.0
 11
121.9435184880324
 21
15.08124999622969
 31
0.0
  0
LINE
  5
83
330
70
100
AcDbEntity
  8
CLASS1
 62
     4
420
    65535
370
    25
100
AcDbLine
 10
76.96435183261087
 20
30.07430554803698
 30
0.0
 11
121.9435184880324
 21
30.07430554803698
 31
0.0
  0
LINE
  5
84
330
70
100
AcDbEntity
  8
CLASS1
 62
     4
420
    65535
370
    25
100
AcDbLine
 10
9.995370367871421
 20
35.07199073197253
 30
0.0
 11
199.9074073574303
 21
35.07199073197253
 31
0.0
  0
LINE
  5
85
330
70
100
AcDbEntity
  8
CLASS1
 62
     4
420
    65535
370
    25
100
AcDbLine
 10
9.995370367871421
 20
22.57777777213334
 30
0.0
 11
76.96435183261087
 21
22.57777777213334
 31
0.0
  0
LINE
  5
86
330
70
100
AcDbEntity
  8
CLASS1
 62
     4
420
    65535
370
    25
100
AcDbLine
 10
56.97361109686771
 20
35.07199073197253
 30
0.0
 11
56.97361109686771
 21
22.57777777213334
 31
0.0
  0
LINE
  5
87
330
70
100
AcDbEntity
  8
CLASS1
 62
     4
420
    65535
370
    25
100
AcDbLine
 10
36.98287036112455
 20
35.07199073197253
 30
0.0
 11
36.98287036112455
 21
22.57777777213334
 31
0.0
  0
LINE
  5
88
330
70
100
AcDbEntity
  8
CLASS1
 62
     4
420
    65535
370
    25
100
AcDbLine
 10
61.97129628080358
 20
35.07199073197253
 30
0.0
 11
61.97129628080358
 21
22.57777777213334
 31
0.0
  0
LINE
  5
89
330
70
100
AcDbEntity
  8
CLASS1
 62
     4
420
    65535
370
    25
100
AcDbLine
 10
72.74865944709052
 20
31.5589289036845
 30
0.0
 11
65.04890180271932
 21
25.1424648663998
 31
0.0
  0
LINE
  5
8A
330
70
100
AcDbEntity
  8
CLASS1
 62
     4
420
    65535
370
    25
100
AcDbLine
 10
121.9435184880324
 20
22.57777777213334
 30
0.0
 11
199.9074073574303
 21
22.57777777213334
 31
0.0
  0
MTEXT
  5
8B
330
70
100
AcDbEntity
  8
CLASS1
100
AcDbMText
 10
109.0712708942274
 20
30.97541333589764
 30
0.0
 40
0.2
 41
0.0
 46
0.0
 71
     7
 72
     1
  1
\C140;\c16760576;\FKozGoPr6N-Regular|b0|i0|c128;\H2.497667;\W1.043411;承　認
 73
     1
 44
1.0
  0
MTEXT
  5
8C
330
70
100
AcDbEntity
  8
CLASS1
100
AcDbMText
 10
79.08515979061284
 20
30.97541333589764
 30
0.0
 40
0.2
 41
0.0
 46
0.0
 71
     7
 72
     1
  1
\C140;\c16760576;\FKozGoPr6N-Regular|b0|i0|c128;\H2.497667;\W1.043411;製　図
 73
     1
 44
1.0
  0
MTEXT
  5
8D
330
70
100
AcDbEntity
  8
CLASS1
100
AcDbMText
 10
94.07821534242012
 20
30.97541333589764
 30
0.0
 40
0.2
 41
0.0
 46
0.0
 71
     7
 72
     1
  1
\C140;\c16760576;\FKozGoPr6N-Regular|b0|i0|c128;\H2.497667;\W1.043411;検　図
 73
     1
 44
1.0
  0
MTEXT
  5
8E
330
70
100
AcDbEntity
  8
CLASS1
100
AcDbMText
 10
122.8326186826707
 20
29.72984444616726
 30
0.0
 40
0.2
 41
0.0
 46
0.0
 71
     7
 72
     1
  1
\C140;\c16760576;\FKozGoPr6N-Regular|b0|i0|c128;\H2.497667;\W1.043411;品
 73
     1
 44
1.0
  0
MTEXT
  5
8F
330
70
100
AcDbEntity
  8
CLASS1
100
AcDbMText
 10
122.8326186826707
 20
24.73216015939178
 30
0.0
 40
0.2
 41
0.0
 46
0.0
 71
     7
 72
     1
  1
\C140;\c16760576;\FKozGoPr6N-Regular|b0|i0|c128;\H2.497667;\W1.043411;番
 73
     1
 44
1.0
  0
MTEXT
  5
90
330
70
100
AcDbEntity
  8
CLASS1
100
AcDbMText
 10
122.8326186826707
 20
17.23563238348813
 30
0.0
 40
0.2
 41
0.0
 46
0.0
 71
     7
 72
     1
  1
\C140;\c16760576;\FKozGoPr6N-Regular|b0|i0|c128;\H2.497667;\W1.043411;品
 73
     1
 44
1.0
  0
MTEXT
  5
91
330
70
100
AcDbEntity
  8
CLASS1
100
AcDbMText
 10
38.35611592499485
 20
26.87461659501339
 30
0.0
 40
0.2
 41
0.0
 46
0.0
 71
     7
 72
     1
  1
\C140;\c16760576;\FKozGoPr6N-Regular|b0|i0|c128;\H2.497667;\W1.043411;単位ｍｍ
 73
     1
 44
1.0
  0
MTEXT
  5
92
330
70
100
AcDbEntity
  8
CLASS1
100
AcDbMText
 10
57.86270949718526
 20
24.73216015939178
 30
0.0
 40
0.2
 41
0.0
 46
0.0
 71
     7
 72
     1
  1
\C140;\c16760576;\FKozGoPr6N-Regular|b0|i0|c128;\H2.497667;\W1.043411;度
 73
     1
 44
1.0
  0
MTEXT
  5
93
330
70
100
AcDbEntity
  8
CLASS1
100
AcDbMText
 10
57.86270949718526
 20
29.72984444616726
 30
0.0
 40
0.2
 41
0.0
 46
0.0
 71
     7
 72
     1
  1
\C140;\c16760576;\FKozGoPr6N-Regular|b0|i0|c128;\H2.497667;\W1.043411;尺
 73
     1
 44
1.0
  0
MTEXT
  5
94
330
70
100
AcDbEntity
  8
CLASS1
100
AcDbMText
 10
65.10709934726218
 20
29.4919121562555
 30
0.0
 40
0.2
 41
0.0
 46
0.0
 71
     7
 72
     1
  1
\C143;\c13415014;\FKozGoPr6N-Regular|b0|i0|c128;\H3.748264;\W1.399883;1
 73
     1
 44
1.0
  0
MTEXT
  5
95
330
70
100
AcDbEntity
  8
CLASS1
100
AcDbMText
 10
71.20371257273456
 20
24.25732103377129
 30
0.0
 40
0.2
 41
0.0
 46
0.0
 71
     7
 72
     1
  1
\C143;\c13415014;\FKozGoPr6N-Regular|b0|i0|c128;\H3.748264;\W1.143000;2
 73
     1
 44
1.0
  0
MTEXT
  5
96
330
70
100
AcDbEntity
  8
CLASS1
100
AcDbMText
 10
122.8326186826707
 20
12.23794675097222
 30
0.0
 40
0.2
 41
0.0
 46
0.0
 71
     7
 72
     1
  1
\C140;\c16760576;\FKozGoPr6N-Regular|b0|i0|c128;\H2.497667;\W1.043411;名
 73
     1
 44
1.0
  0
LINE
  5
97
330
70
100
AcDbEntity
  8
CLASS1
 62
     4
420
    65535
370
    25
100
AcDbLine
 10
76.96435183261087
 20
35.07199073197253
 30
0.0
 11
76.96435183261087
 21
10.08356481229414
 31
0.0
  0
LINE
  5
98
330
70
100
AcDbEntity
  8
CLASS1
 62
     4
420
    65535
370
    25
100
AcDbLine
 10
126.9412036719686
 20
35.07199073197253
 30
0.0
 11
126.9412036719686
 21
10.08356481229414
 31
0.0
  0
LINE
  5
99
330
70
100
AcDbEntity
  8
CLASS1
 62
     4
420
    65535
370
    25
100
AcDbLine
 10
91.95740738441816
 20
35.07199073197253
 30
0.0
 11
91.95740738441816
 21
15.08124999622969
 31
0.0
  0
LINE
  5
9A
330
70
100
AcDbEntity
  8
CLASS1
 62
     4
420
    65535
370
    25
100
AcDbLine
 10
106.9504629362251
 20
35.07199073197253
 30
0.0
 11
106.9504629362251
 21
15.08124999622969
 31
0.0
  0
LINE
  5
9B
330
70
100
AcDbEntity
  8
CLASS1
 62
     4
420
    65535
370
    25
100
AcDbLine
 10
121.9435184880324
 20
35.07199073197253
 30
0.0
 11
121.9435184880324
 21
10.08356481229414
 31
0.0
  0
LINE
  5
9C
330
70
100
AcDbEntity
  8
CLASS1
 62
     4
420
    65535
370
    25
100
AcDbLine
 10
9.995370367871421
 20
10.08356481229414
 30
0.0
 11
9.995370367871421
 21
286.9553240023354
 31
0.0
  0
LINE
  5
9D
330
70
100
AcDbEntity
  8
CLASS1
 62
     4
420
    65535
370
    25
100
AcDbLine
 10
9.995370367871421
 20
286.9553240023354
 30
0.0
 11
199.9074073574303
 21
286.9553240023354
 31
0.0
  0
LINE
  5
9E
330
70
100
AcDbEntity
  8
CLASS1
 62
     4
420
    65535
370
    25
100
AcDbLine
 10
199.9074073574303
 20
10.08356481229414
 30
0.0
 11
199.9074073574303
 21
286.9553240023354
 31
0.0
  0
LINE
  5
9F
330
70
100
AcDbEntity
  8
CLASS1
 62
     4
420
    65535
370
    25
100
AcDbLine
 10
9.995370367871421
 20
10.08356481229414
 30
0.0
 11
199.9074073574303
 21
10.08356481229414
 31
0.0
  0
MTEXT
  5
A0
330
70
100
AcDbEntity
  8
CLASS1
100
AcDbMText
 10
96.01108616441955
 20
20.57870324997889
 30
0.0
 40
0.2
 41
0.0
 46
0.0
 71
     7
 72
     1
  1
\C143;\c13415014;\FKozGoPr6N-Regular|b0|i0|c128;\H2.497667;\W0.833333;中田
 73
     1
 44
1.0
  0
MTEXT
  5
A1
330
70
100
AcDbEntity
  8
CLASS1
100
AcDbMText
 10
78.46604921710495
 20
11.083101624791
 30
0.0
 40
0.2
 41
0.0
 46
0.0
 71
     7
 72
     1
  1
\C143;\c13415014;\FKozGoPr6N-Regular|b0|i0|c128;\H2.497667;\W1.004785;2021年11月25日 作成
 73
     1
 44
1.0
  0
MTEXT
  5
A2
330
70
100
AcDbEntity
  8
CLASS1
100
AcDbMText
 10
195.3261911539679
 20
6.835069442735677
 30
0.0
 40
0.2
 41
0.0
 46
0.0
 71
     7
 72
     1
  1
\C143;\c13415014;\FKozGoPr6N-Regular|b0|i0|c128;\H2.498843;\W1.000000;A4
 73
     1
 44
1.0
  0
MTEXT
  5
A3
330
70
100
AcDbEntity
  8
CLASS1
100
AcDbMText
 10
146.8802679754327
 20
26.56421349179238
 30
0.0
 40
0.2
 41
0.0
 46
0.0
 71
     7
 72
     1
  1
\C143;\c13415014;\FKozGoPr6N-Regular|b0|i0|c128;\H2.997200;\W1.016949;SC-MDW-B
 73
     1
 44
1.0
  0
MTEXT
  5
A4
330
70
100
AcDbEntity
  8
CLASS1
100
AcDbMText
 10
147.0739254053973
 20
15.44080223121331
 30
0.0
 40
0.2
 41
0.0
 46
0.0
 71
     7
 72
     1
  1
\C143;\c13415014;\FKozGoPr6N-Regular|b0|i0|c128;\H2.997200;\W0.833333;ボトルトラップ
 73
     1
 44
1.0
  0
MTEXT
  5
A5
330
70
100
AcDbEntity
  8
CLASS1
100
AcDbMText
 10
20.63769378146167
 20
14.18747716654963
 30
0.0
 40
0.2
 41
0.0
 46
0.0
 71
     7
 72
     1
  1
\C143;\c15053662;\FKozGoPr6N-Regular|b0|i0|c128;\H2.497667;\W1.000000;MARDAK INTERNATIONAL
 73
     1
 44
1.0
  0
LINE
  5
A7
330
70
100
AcDbEntity
  8
DEFPOINTS
 62
     4
420
    65535
370
    25
100
AcDbLine
 10
209.9027777253021
 20
0.0881944444223958
 30
0.0
 11
209.9027777253021
 21
296.9506943702068
 31
0.0
  0
LINE
  5
A8
330
70
100
AcDbEntity
  8
DEFPOINTS
 62
     4
420
    65535
370
    25
100
AcDbLine
 10
0.0
 20
0.0881944444223958
 30
0.0
 11
0.0
 21
296.9506943702068
 31
0.0
  0
LINE
  5
A9
330
70
100
AcDbEntity
  8
DEFPOINTS
 62
     4
420
    65535
370
    25
100
AcDbLine
 10
0.0
 20
296.9506943702068
 30
0.0
 11
209.9027777253021
 21
296.9506943702068
 31
0.0
  0
INSERT
  5
AC
330
70
100
AcDbEntity
  8
1_2
100
AcDbBlockReference
  2
Block_1
 10
0.0
 20
0.0
 30
0.0
  0
MTEXT
  5
B3
330
70
100
AcDbEntity
  8
1_2
100
AcDbMText
 10
68.65165581576352
 20
221.6448258587598
 30
0.0
 40
0.2
 41
0.0
 46
0.0
 71
     7
 72
     1
  1
\C143;\c13415014;\FKozGoPr6N-Regular|b0|i0|c128;\H2.498843;\W0.967742;W32山16
 73
     1
 44
1.0
  0
INSERT
  5
B5
330
70
100
AcDbEntity
  8
1_2
100
AcDbBlockReference
  2
Block_2
 10
0.0
 20
0.0
 30
0.0
  0
INSERT
  5
C2
330
70
100
AcDbEntity
  8
1_2
100
AcDbBlockReference
  2
Block_3
 10
0.0
 20
0.0
 30
0.0
  0
MTEXT
  5
C9
330
70
100
AcDbEntity
  8
1_2
100
AcDbMText
 10
90.88891819695009
 20
133.1770884710731
 30
0.0
 40
0.2
 41
0.0
 46
0.0
 71
     7
 72
     1
  1
\C143;\c13415014;\FKozGoPr6N-Regular|b0|i0|c128;\H2.498843;\W1.004184;六角対辺36.0
 73
     1
 44
1.0
  0
INSERT
  5
CB
330
70
100
AcDbEntity
  8
1_2
100
AcDbBlockReference
  2
Block_4
 10
0.0
 20
0.0
 30
0.0
  0
MTEXT
  5
D2
330
70
100
AcDbEntity
  8
1_2
100
AcDbMText
 10
72.10121915922079
 20
167.4896796761451
 30
0.0
 40
0.2
 41
0.0
 46
0.0
 71
     7
 72
     1
  1
\C143;\c13415014;\FKozGoPr6N-Regular|b0|i0|c128;\H2.498843;\W1.004184;六角対辺36.0
 73
     1
 44
1.0
  0
INSERT
  5
D4
330
70
100
AcDbEntity
  8
1_2
100
AcDbBlockReference
  2
Block_5
 10
0.0
 20
0.0
 30
0.0
  0
MTEXT
  5
DB
330
70
100
AcDbEntity
  8
1_2
100
AcDbMText
 10
72.10121915922079
 20
203.3730729336403
 30
0.0
 40
0.2
 41
0.0
 46
0.0
 71
     7
 72
     1
  1
\C143;\c13415014;\FKozGoPr6N-Regular|b0|i0|c128;\H2.498843;\W1.004184;六角対辺36.0
 73
     1
 44
1.0
  0
LINE
  5
DC
330
70
100
AcDbEntity
  8
1_2
  6
AI-Linetype-0
 62
   110
420
    65407
370
    25
100
AcDbLine
 10
56.45644863495993
 20
214.9735023731085
 30
0.0
 11
56.45644863495993
 21
95.17404380444752
 31
0.0
  0
LINE
  5
DE
330
70
100
AcDbEntity
  8
1_2
 62
     3
420
    65280
370
    25
100
AcDbLine
 10
65.45228196604431
 20
206.9772060788111
 30
0.0
 11
56.45644863495993
 21
206.9772060788111
 31
0.0
  0
SPLINE
  5
DF
330
70
100
AcDbEntity
  8
1_2
 62
     3
420
    65280
370
    25
100
AcDbSpline
210
0.0
220
0.0
230
1.0
 70
     8
 71
     3
 72
    11
 73
     7
 74
     0
 42
0.0000000001
 43
0.0000000001
 40
0.0
 40
0.0
 40
0.0
 40
0.0
 40
1.0
 40
1.0
 40
1.0
 40
2.0
 40
2.0
 40
2.0
 40
2.0
 10
56.45644863495993
 20
212.2747518940054
 30
0.0
 10
54.28145412946401
 20
212.2747518940054
 30
0.0
 10
52.51827271001868
 20
211.1336067738891
 30
0.0
 10
52.51827271001868
 20
209.7259329299759
 30
0.0
 10
52.51827271001868
 20
208.3182590860628
 30
0.0
 10
54.28145412946401
 20
207.1771139659464
 30
0.0
 10
56.45644863495993
 20
207.1771139659464
 30
0.0
  0
ELLIPSE
  5
E0
330
70
100
AcDbEntity
  8
1_2
 62
     3
420
    65280
370
    25
100
AcDbEllipse
 10
48.66582807625949
 20
209.7259329299759
 30
0.0
 11
0.0000000000000002
 21
2.548819443807368
 31
0.0
210
0.0
220
0.0
230
1.0
 40
0.7725489999999851
 41
0.0
 42
6.283185307179586
  0
SPLINE
  5
E1
330
70
100
AcDbEntity
  8
1_2
 62
     3
420
    65280
370
    25
100
AcDbSpline
210
0.0
220
0.0
230
1.0
 70
     8
 71
     3
 72
     8
 73
     4
 74
     0
 42
0.0000000001
 43
0.0000000001
 40
0.0
 40
0.0
 40
0.0
 40
0.0
 40
1.0
 40
1.0
 40
1.0
 40
1.0
 10
65.45228104397894
 20
206.9772062962637
 30
0.0
 10
66.55177168114928
 20
208.6447671256101
 30
0.0
 10
66.55177168114928
 20
210.8070987343417
 30
0.0
 10
65.45228104397894
 20
212.4746595636881
 30
0.0
  0
LINE
  5
E2
330
70
100
AcDbEntity
  8
1_2
 62
     3
420
    65280
370
    25
100
AcDbLine
 10
65.45228196604431
 20
212.4746597811407
 30
0.0
 11
56.45644863495993
 21
212.4746597811407
 31
0.0
  0
SPLINE
  5
E3
330
70
100
AcDbEntity
  8
1_2
 62
     3
420
    65280
370
    25
100
AcDbSpline
210
0.0
220
0.0
230
1.0
 70
     8
 71
     3
 72
     8
 73
     4
 74
     0
 42
0.0000000001
 43
0.0000000001
 40
0.0
 40
0.0
 40
0.0
 40
0.0
 40
1.0
 40
1.0
 40
1.0
 40
1.0
 10
47.46061522640387
 20
212.4746595636881
 30
0.0
 10
46.36112458923355
 20
210.8070987343417
 30
0.0
 10
46.36112458923355
 20
208.6447671256101
 30
0.0
 10
47.46061522640387
 20
206.9772062962637
 30
0.0
  0
LINE
  5
E4
330
70
100
AcDbEntity
  8
1_2
 62
     3
420
    65280
370
    25
100
AcDbLine
 10
47.46061530387556
 20
206.9772060788111
 30
0.0
 11
56.45644863495993
 21
206.9772060788111
 31
0.0
  0
LINE
  5
E5
330
70
100
AcDbEntity
  8
1_2
 62
     3
420
    65280
370
    25
100
AcDbLine
 10
47.46061530387556
 20
212.4746597811407
 30
0.0
 11
56.45644863495993
 21
212.4746597811407
 31
0.0
  0
LINE
  5
E6
330
70
100
AcDbEntity
  8
1_2
 62
     3
420
    65280
370
    25
100
AcDbLine
 10
62.70355511487953
 20
176.5912801604817
 30
0.0
 11
62.70355511487953
 21
206.9772060788111
 31
0.0
  0
LINE
  5
E7
330
70
100
AcDbEntity
  8
1_2
 62
     3
420
    65280
370
    25
100
AcDbLine
 10
47.46061530387556
 20
171.0938264581525
 30
0.0
 11
56.45644863495993
 21
171.0938264581525
 31
0.0
  0
LINE
  5
E8
330
70
100
AcDbEntity
  8
1_2
 62
     3
420
    65280
370
    25
100
AcDbLine
 10
47.46061530387556
 20
176.5912801604817
 30
0.0
 11
56.45644863495993
 21
176.5912801604817
 31
0.0
  0
SPLINE
  5
E9
330
70
100
AcDbEntity
  8
1_2
 62
     3
420
    65280
370
    25
100
AcDbSpline
210
0.0
220
0.0
230
1.0
 70
     8
 71
     3
 72
     8
 73
     4
 74
     0
 42
0.0000000001
 43
0.0000000001
 40
0.0
 40
0.0
 40
0.0
 40
0.0
 40
1.0
 40
1.0
 40
1.0
 40
1.0
 10
47.46061522640387
 20
176.5912799430292
 30
0.0
 10
46.36112458923355
 20
174.9237191136828
 30
0.0
 10
46.36112458923355
 20
172.7613875049514
 30
0.0
 10
47.46061522640387
 20
171.093826675605
 30
0.0
  0
LINE
  5
EA
330
70
100
AcDbEntity
  8
1_2
 62
     3
420
    65280
370
    25
100
AcDbLine
 10
65.45228196604431
 20
171.0938264581525
 30
0.0
 11
56.45644863495993
 21
171.0938264581525
 31
0.0
  0
SPLINE
  5
EB
330
70
100
AcDbEntity
  8
1_2
 62
     3
420
    65280
370
    25
100
AcDbSpline
210
0.0
220
0.0
230
1.0
 70
     8
 71
     3
 72
     8
 73
     4
 74
     0
 42
0.0000000001
 43
0.0000000001
 40
0.0
 40
0.0
 40
0.0
 40
0.0
 40
1.0
 40
1.0
 40
1.0
 40
1.0
 10
65.45228104397894
 20
171.093826675605
 30
0.0
 10
66.55177168114928
 20
172.7613875049514
 30
0.0
 10
66.55177168114928
 20
174.9237191136828
 30
0.0
 10
65.45228104397894
 20
176.5912799430292
 30
0.0
  0
LINE
  5
EC
330
70
100
AcDbEntity
  8
1_2
 62
     3
420
    65280
370
    25
100
AcDbLine
 10
65.45228196604431
 20
176.5912801604817
 30
0.0
 11
56.45644863495993
 21
176.5912801604817
 31
0.0
  0
ELLIPSE
  5
ED
330
70
100
AcDbEntity
  8
1_2
 62
     3
420
    65280
370
    25
100
AcDbEllipse
 10
64.24706819412342
 20
173.8425533093172
 30
0.0
 11
0.0000000000000002
 21
2.548819443807287
 31
0.0
210
0.0
220
0.0
230
1.0
 40
0.772549000000041
 41
0.0
 42
6.283185307179586
  0
SPLINE
  5
EE
330
70
100
AcDbEntity
  8
1_2
 62
     3
420
    65280
370
    25
100
AcDbSpline
210
0.0
220
0.0
230
1.0
 70
     8
 71
     3
 72
    11
 73
     7
 74
     0
 42
0.0000000001
 43
0.0000000001
 40
0.0
 40
0.0
 40
0.0
 40
0.0
 40
1.0
 40
1.0
 40
1.0
 40
2.0
 40
2.0
 40
2.0
 40
2.0
 10
56.45644863495993
 20
171.2937343452877
 30
0.0
 10
58.63144314045587
 20
171.2937343452877
 30
0.0
 10
60.39462455990118
 20
172.4348794654041
 30
0.0
 10
60.39462455990118
 20
173.8425533093173
 30
0.0
 10
60.39462455990118
 20
175.2502271532301
 30
0.0
 10
58.63144314045587
 20
176.3913722733465
 30
0.0
 10
56.45644863495993
 20
176.3913722733465
 30
0.0
  0
LINE
  5
EF
330
70
100
AcDbEntity
  8
1_2
 62
     3
420
    65280
370
    25
100
AcDbLine
 10
84.74334677603639
 20
139.3085486883212
 30
0.0
 11
84.74334677603639
 21
148.3043820194053
 31
0.0
  0
SPLINE
  5
F0
330
70
100
AcDbEntity
  8
1_2
 62
     3
420
    65280
370
    25
100
AcDbSpline
210
0.0
220
0.0
230
1.0
 70
     8
 71
     3
 72
    11
 73
     7
 74
     0
 42
0.0000000001
 43
0.0000000001
 40
0.0
 40
0.0
 40
0.0
 40
0.0
 40
1.0
 40
1.0
 40
1.0
 40
2.0
 40
2.0
 40
2.0
 40
2.0
 10
84.54343888890113
 20
148.3043820194053
 30
0.0
 10
84.54343888890113
 20
150.4793765249012
 30
0.0
 10
83.40229376878474
 20
152.2425579443468
 30
0.0
 10
81.9946199248716
 20
152.2425579443468
 30
0.0
 10
80.5869460809588
 20
152.2425579443468
 30
0.0
 10
79.44580096084239
 20
150.4793765249012
 30
0.0
 10
79.44580096084239
 20
148.3043820194053
 30
0.0
  0
ELLIPSE
  5
F1
330
70
100
AcDbEntity
  8
1_2
 62
     3
420
    65280
370
    25
100
AcDbEllipse
 10
81.99461992487169
 20
156.0950025781059
 30
0.0
 11
2.548819443807126
 21
0.0
 31
0.0
210
0.0
220
0.0
230
1.0
 40
0.7725490000000583
 41
0.0
 42
6.283185307179586
  0
SPLINE
  5
F2
330
70
100
AcDbEntity
  8
1_2
 62
     3
420
    65280
370
    25
100
AcDbSpline
210
0.0
220
0.0
230
1.0
 70
     8
 71
     3
 72
     8
 73
     4
 74
     0
 42
0.0000000001
 43
0.0000000001
 40
0.0
 40
0.0
 40
0.0
 40
0.0
 40
1.0
 40
1.0
 40
1.0
 40
1.0
 10
79.24589329115971
 20
139.3085496103863
 30
0.0
 10
80.9134541205061
 20
138.2090589732159
 30
0.0
 10
83.07578572923743
 20
138.2090589732159
 30
0.0
 10
84.74334655858383
 20
139.3085496103863
 30
0.0
  0
LINE
  5
F3
330
70
100
AcDbEntity
  8
1_2
 62
     3
420
    65280
370
    25
100
AcDbLine
 10
79.24589307370715
 20
139.3085486883212
 30
0.0
 11
79.24589307370715
 21
148.3043820194053
 31
0.0
  0
SPLINE
  5
F4
330
70
100
AcDbEntity
  8
1_2
 62
     3
420
    65280
370
    25
100
AcDbSpline
210
0.0
220
0.0
230
1.0
 70
     8
 71
     3
 72
     8
 73
     4
 74
     0
 42
0.0000000001
 43
0.0000000001
 40
0.0
 40
0.0
 40
0.0
 40
0.0
 40
1.0
 40
1.0
 40
1.0
 40
1.0
 10
84.74334655858383
 20
157.3002154279617
 30
0.0
 10
83.07578572923743
 20
158.3997060651317
 30
0.0
 10
80.9134541205061
 20
158.3997060651317
 30
0.0
 10
79.24589329115971
 20
157.3002154279617
 30
0.0
  0
LINE
  5
F5
330
70
100
AcDbEntity
  8
1_2
 62
     3
420
    65280
370
    25
100
AcDbLine
 10
84.74334677603639
 20
157.3002153504897
 30
0.0
 11
84.74334677603639
 21
148.3043820194053
 31
0.0
  0
LINE
  5
F6
330
70
100
AcDbEntity
  8
1_2
 62
     3
420
    65280
370
    25
100
AcDbLine
 10
79.24589307370715
 20
157.3002153504897
 30
0.0
 11
79.24589307370715
 21
148.3043820194053
 31
0.0
  0
SPLINE
  5
F7
330
70
100
AcDbEntity
  8
1_2
 62
     3
420
    65280
370
    25
100
AcDbSpline
210
0.0
220
0.0
230
1.0
 70
     8
 71
     3
 72
     8
 73
     4
 74
     0
 42
0.0000000001
 43
0.0000000001
 40
0.0
 40
0.0
 40
0.0
 40
0.0
 40
1.0
 40
1.0
 40
1.0
 40
1.0
 10
66.70170326202836
 20
101.825909808803
 30
0.0
 10
66.83971052760542
 20
101.825909808803
 30
0.0
 10
66.95158752122503
 20
101.9377868024226
 30
0.0
 10
66.95158752122503
 20
102.0757940679993
 30
0.0
  0
SPLINE
  5
F8
330
70
100
AcDbEntity
  8
1_2
 62
     3
420
    65280
370
    25
100
AcDbSpline
210
0.0
220
0.0
230
1.0
 70
     8
 71
     3
 72
     8
 73
     4
 74
     0
 42
0.0000000001
 43
0.0000000001
 40
0.0
 40
0.0
 40
0.0
 40
0.0
 40
1.0
 40
1.0
 40
1.0
 40
1.0
 10
45.96130974869483
 20
102.0757940679993
 30
0.0
 10
45.96130974869483
 20
101.9377868024226
 30
0.0
 10
46.07318674231446
 20
101.825909808803
 30
0.0
 10
46.21119400789151
 20
101.825909808803
 30
0.0
  0
LINE
  5
F9
330
70
100
AcDbEntity
  8
1_2
 62
     3
420
    65280
370
    25
100
AcDbLine
 10
45.96130974869483
 20
103.3252153639837
 30
0.0
 11
66.95158752122503
 21
103.3252153639837
 31
0.0
  0
SPLINE
  5
FA
330
70
100
AcDbEntity
  8
1_2
 62
     3
420
    65280
370
    25
100
AcDbSpline
210
0.0
220
0.0
230
1.0
 70
     8
 71
     3
 72
     8
 73
     4
 74
     0
 42
0.0000000001
 43
0.0000000001
 40
0.0
 40
0.0
 40
0.0
 40
0.0
 40
1.0
 40
1.0
 40
1.0
 40
1.0
 10
61.98444653739159
 20
147.2060830435655
 30
0.0
 10
62.68800561539291
 20
144.0828815201193
 30
0.0
 10
64.44121397778999
 20
141.2953575644747
 30
0.0
 10
66.95158712901698
 20
139.3085486220003
 30
0.0
  0
SPLINE
  5
FB
330
70
100
AcDbEntity
  8
1_2
 62
     3
420
    65280
370
    25
100
AcDbSpline
210
0.0
220
0.0
230
1.0
 70
     8
 71
     3
 72
     8
 73
     4
 74
     0
 42
0.0000000001
 43
0.0000000001
 40
0.0
 40
0.0
 40
0.0
 40
0.0
 40
1.0
 40
1.0
 40
1.0
 40
1.0
 10
61.86227077897888
 20
148.3043820194053
 30
0.0
 10
61.86227077897888
 20
147.9348916051343
 30
0.0
 10
61.90324631420865
 20
147.5665406933785
 30
0.0
 10
61.98444609992002
 20
147.2060829829063
 30
0.0
  0
SPLINE
  5
FC
330
70
100
AcDbEntity
  8
1_2
 62
     3
420
    65280
370
    25
100
AcDbSpline
210
0.0
220
0.0
230
1.0
 70
     8
 71
     3
 72
     8
 73
     4
 74
     0
 42
0.0000000001
 43
0.0000000001
 40
0.0
 40
0.0
 40
0.0
 40
0.0
 40
1.0
 40
1.0
 40
1.0
 40
1.0
 10
66.95158712901698
 20
157.3002154168105
 30
0.0
 10
64.44121397778999
 20
155.3134064743361
 30
0.0
 10
62.68800561539291
 20
152.5258825186916
 30
0.0
 10
61.98444653739159
 20
149.402680995245
 30
0.0
  0
LINE
  5
FD
330
70
100
AcDbEntity
  8
1_2
 62
     3
420
    65280
370
    25
100
AcDbLine
 10
45.96130974869483
 20
168.2951227551484
 30
0.0
 11
66.95158752122503
 21
168.2951227551484
 31
0.0
  0
SPLINE
  5
FE
330
70
100
AcDbEntity
  8
1_2
 62
     3
420
    65280
370
    25
100
AcDbSpline
210
0.0
220
0.0
230
1.0
 70
     8
 71
     3
 72
     8
 73
     4
 74
     0
 42
0.0000000001
 43
0.0000000001
 40
0.0
 40
0.0
 40
0.0
 40
0.0
 40
1.0
 40
1.0
 40
1.0
 40
1.0
 10
46.21119400789151
 20
169.7944283103292
 30
0.0
 10
46.07318674231446
 20
169.7944283103292
 30
0.0
 10
45.96130974869483
 20
169.6825513167095
 30
0.0
 10
45.96130974869483
 20
169.5445440511325
 30
0.0
  0
SPLINE
  5
FF
330
70
100
AcDbEntity
  8
1_2
 62
     3
420
    65280
370
    25
100
AcDbSpline
210
0.0
220
0.0
230
1.0
 70
     8
 71
     3
 72
     8
 73
     4
 74
     0
 42
0.0000000001
 43
0.0000000001
 40
0.0
 40
0.0
 40
0.0
 40
0.0
 40
1.0
 40
1.0
 40
1.0
 40
1.0
 10
66.95158752122503
 20
169.5445440511325
 30
0.0
 10
66.95158752122503
 20
169.6825513167095
 30
0.0
 10
66.83971052760542
 20
169.7944283103292
 30
0.0
 10
66.70170326202836
 20
169.7944283103292
 30
0.0
  0
LINE
  5
100
330
70
100
AcDbEntity
  8
1_2
 62
     3
420
    65280
370
    25
100
AcDbLine
 10
46.21119400789151
 20
169.7944283103292
 30
0.0
 11
66.70170326202836
 21
169.7944283103292
 31
0.0
  0
LINE
  5
101
330
70
100
AcDbEntity
  8
1_2
 62
     3
420
    65280
370
    25
100
AcDbLine
 10
63.95297641086358
 20
169.7944283103292
 30
0.0
 11
63.95297641086358
 21
171.0938264581525
 31
0.0
  0
LINE
  5
102
330
70
100
AcDbEntity
  8
1_2
 62
     3
420
    65280
370
    25
100
AcDbLine
 10
64.37777965149803
 20
169.7944283103292
 30
0.0
 11
64.37777965149803
 21
171.0938264581525
 31
0.0
  0
LINE
  5
103
330
70
100
AcDbEntity
  8
1_2
 62
     3
420
    65280
370
    25
100
AcDbLine
 10
48.95992085905628
 20
169.7944283103292
 30
0.0
 11
48.95992085905628
 21
171.0938264581525
 31
0.0
  0
LINE
  5
104
330
70
100
AcDbEntity
  8
1_2
 62
     3
420
    65280
370
    25
100
AcDbLine
 10
48.53511761842184
 20
169.7944283103292
 30
0.0
 11
48.53511761842184
 21
171.0938264581525
 31
0.0
  0
LINE
  5
105
330
70
100
AcDbEntity
  8
1_2
 62
     3
420
    65280
370
    25
100
AcDbLine
 10
46.21119400789151
 20
101.825909808803
 30
0.0
 11
66.70170326202836
 21
101.825909808803
 31
0.0
  0
LINE
  5
106
330
70
100
AcDbEntity
  8
1_2
 62
     3
420
    65280
370
    25
100
AcDbLine
 10
77.94649492588383
 20
140.8078542435019
 30
0.0
 11
79.24589307370715
 21
140.8078542435019
 31
0.0
  0
LINE
  5
107
330
70
100
AcDbEntity
  8
1_2
 62
     3
420
    65280
370
    25
100
AcDbLine
 10
77.94649492588383
 20
140.3830510028675
 30
0.0
 11
79.24589307370715
 21
140.3830510028675
 31
0.0
  0
LINE
  5
108
330
70
100
AcDbEntity
  8
1_2
 62
     3
420
    65280
370
    25
100
AcDbLine
 10
77.94649492588383
 20
155.8009097953089
 30
0.0
 11
79.24589307370715
 21
155.8009097953089
 31
0.0
  0
LINE
  5
109
330
70
100
AcDbEntity
  8
1_2
 62
     3
420
    65280
370
    25
100
AcDbLine
 10
77.94649492588383
 20
156.2257130359437
 30
0.0
 11
79.24589307370715
 21
156.2257130359437
 31
0.0
  0
SPLINE
  5
10A
330
70
100
AcDbEntity
  8
1_2
 62
     3
420
    65280
370
    25
100
AcDbSpline
210
0.0
220
0.0
230
1.0
 70
     8
 71
     3
 72
     8
 73
     4
 74
     0
 42
0.0000000001
 43
0.0000000001
 40
0.0
 40
0.0
 40
0.0
 40
0.0
 40
1.0
 40
1.0
 40
1.0
 40
1.0
 10
77.69661066668682
 20
139.3085486883212
 30
0.0
 10
77.83461793226419
 20
139.3085486883212
 30
0.0
 10
77.94649492588383
 20
139.4204256819408
 30
0.0
 10
77.94649492588383
 20
139.5584329475176
 30
0.0
  0
SPLINE
  5
10B
330
70
100
AcDbEntity
  8
1_2
 62
     3
420
    65280
370
    25
100
AcDbSpline
210
0.0
220
0.0
230
1.0
 70
     8
 71
     3
 72
     8
 73
     4
 74
     0
 42
0.0000000001
 43
0.0000000001
 40
0.0
 40
0.0
 40
0.0
 40
0.0
 40
1.0
 40
1.0
 40
1.0
 40
1.0
 10
77.94649492588383
 20
157.050331091293
 30
0.0
 10
77.94649492588383
 20
157.18833835687
 30
0.0
 10
77.83461793226419
 20
157.3002153504897
 30
0.0
 10
77.69661066668682
 20
157.3002153504897
 30
0.0
  0
LINE
  5
10C
330
70
100
AcDbEntity
  8
1_2
 62
     3
420
    65280
370
    25
100
AcDbLine
 10
77.94649492588383
 20
157.050331091293
 30
0.0
 11
77.94649492588383
 21
139.5584329475176
 31
0.0
  0
LINE
  5
10D
330
70
100
AcDbEntity
  8
1_2
 62
     3
420
    65280
370
    25
100
AcDbLine
 10
66.95158752122503
 20
139.3085486883212
 30
0.0
 11
66.95158752122503
 21
102.0757940679993
 31
0.0
  0
SPLINE
  5
10E
330
70
100
AcDbEntity
  8
1_2
 62
     3
420
    65280
370
    25
100
AcDbSpline
210
0.0
220
0.0
230
1.0
 70
     8
 71
     3
 72
     8
 73
     4
 74
     0
 42
0.0000000001
 43
0.0000000001
 40
0.0
 40
0.0
 40
0.0
 40
0.0
 40
1.0
 40
1.0
 40
1.0
 40
1.0
 10
61.98444609992002
 20
149.4026810559045
 30
0.0
 10
61.90324631420865
 20
149.0422233454324
 30
0.0
 10
61.86227077897888
 20
148.6738724336768
 30
0.0
 10
61.86227077897888
 20
148.3043820194053
 30
0.0
  0
LINE
  5
10F
330
70
100
AcDbEntity
  8
1_2
 62
     3
420
    65280
370
    25
100
AcDbLine
 10
66.95158752122503
 20
139.3085486883212
 30
0.0
 11
77.69661066668682
 21
139.3085486883212
 31
0.0
  0
LINE
  5
110
330
70
100
AcDbEntity
  8
1_2
 62
     3
420
    65280
370
    25
100
AcDbLine
 10
66.95158752122503
 20
157.3002153504897
 30
0.0
 11
77.69661066668682
 21
157.3002153504897
 31
0.0
  0
LINE
  5
111
330
70
100
AcDbEntity
  8
1_2
 62
     3
420
    65280
370
    25
100
AcDbLine
 10
45.96130974869483
 20
169.5445440511325
 30
0.0
 11
45.96130974869483
 21
102.0757940679993
 31
0.0
  0
LINE
  5
112
330
70
100
AcDbEntity
  8
1_2
 62
     3
420
    65280
370
    25
100
AcDbLine
 10
66.95158752122503
 20
169.5445440511325
 30
0.0
 11
66.95158752122503
 21
157.3002153504897
 31
0.0
  0
LINE
  5
113
330
70
100
AcDbEntity
  8
1_2
 62
     3
420
    65280
370
    25
100
AcDbLine
 10
84.74334677603639
 20
142.0572755394857
 30
0.0
 11
111.0683526217699
 21
142.0572755394857
 31
0.0
  0
LINE
  5
114
330
70
100
AcDbEntity
  8
1_2
 62
     3
420
    65280
370
    25
100
AcDbLine
 10
172.2028374949123
 20
142.0572755394857
 30
0.0
 11
172.2028374949123
 21
148.3043820194053
 31
0.0
  0
LINE
  5
115
330
70
100
AcDbEntity
  8
1_2
 62
     3
420
    65280
370
    25
100
AcDbLine
 10
172.2028374949123
 20
154.5514884993252
 30
0.0
 11
172.2028374949123
 21
148.3043820194053
 31
0.0
  0
LINE
  5
116
330
70
100
AcDbEntity
  8
1_2
 62
     3
420
    65280
370
    25
100
AcDbLine
 10
84.74334677603639
 20
154.5514884993252
 30
0.0
 11
112.3766406519981
 21
154.5514884993252
 31
0.0
  0
LINE
  5
117
330
70
100
AcDbEntity
  8
1_2
  6
AI-Linetype-1
 62
   110
420
    65407
370
    25
100
AcDbLine
 10
38.94474266572664
 20
148.3043820194053
 30
0.0
 11
175.7283475574567
 21
148.3043820194053
 31
0.0
  0
SPLINE
  5
119
330
70
100
AcDbEntity
  8
1_2
 62
     3
420
    65280
370
    25
100
AcDbSpline
210
0.0
220
0.0
230
1.0
 70
     8
 71
     3
 72
    11
 73
     7
 74
     0
 42
0.0000000001
 43
0.0000000001
 40
0.0
 40
0.0
 40
0.0
 40
0.0
 40
1.0
 40
1.0
 40
1.0
 40
2.0
 40
2.0
 40
2.0
 40
2.0
 10
79.44580096084239
 20
148.3043820194053
 30
0.0
 10
79.44580096084239
 20
146.1293875139093
 30
0.0
 10
80.5869460809588
 20
144.366206094464
 30
0.0
 10
81.9946199248716
 20
144.366206094464
 30
0.0
 10
83.40229376878474
 20
144.366206094464
 30
0.0
 10
84.54343888890113
 20
146.1293875139093
 30
0.0
 10
84.54343888890113
 20
148.3043820194053
 30
0.0
  0
ELLIPSE
  5
11A
330
70
100
AcDbEntity
  8
1_2
 62
     3
420
    65280
370
    25
100
AcDbEllipse
 10
81.99461992487169
 20
140.5137624602418
 30
0.0
 11
2.548819443807126
 21
0.0
 31
0.0
210
0.0
220
0.0
230
1.0
 40
0.7725490000000896
 41
0.0
 42
6.283185307179586
  0
LINE
  5
11B
330
70
100
AcDbEntity
  8
1_2
 62
     3
420
    65280
370
    25
100
AcDbLine
 10
159.7086245350725
 20
154.5514884993252
 30
0.0
 11
172.2028374949123
 21
154.5514884993252
 31
0.0
  0
LINE
  5
11C
330
70
100
AcDbEntity
  8
1_2
 62
     3
420
    65280
370
    25
100
AcDbLine
 10
159.7086245350725
 20
142.0572755394857
 30
0.0
 11
172.2028374949123
 21
142.0572755394857
 31
0.0
  0
ELLIPSE
  5
11D
330
70
100
AcDbEntity
  8
1_2
 62
     3
420
    65280
370
    25
100
AcDbEllipse
 10
48.66582807625949
 20
173.8425533093172
 30
0.0
 11
0.0000000000000002
 21
2.548819443807287
 31
0.0
210
0.0
220
0.0
230
1.0
 40
0.7725489999999466
 41
0.0
 42
6.283185307179586
  0
SPLINE
  5
11E
330
70
100
AcDbEntity
  8
1_2
 62
     3
420
    65280
370
    25
100
AcDbSpline
210
0.0
220
0.0
230
1.0
 70
     8
 71
     3
 72
    11
 73
     7
 74
     0
 42
0.0000000001
 43
0.0000000001
 40
0.0
 40
0.0
 40
0.0
 40
0.0
 40
1.0
 40
1.0
 40
1.0
 40
2.0
 40
2.0
 40
2.0
 40
2.0
 10
56.45644863495993
 20
176.3913722733465
 30
0.0
 10
54.28145412946401
 20
176.3913722733465
 30
0.0
 10
52.51827271001868
 20
175.2502271532301
 30
0.0
 10
52.51827271001868
 20
173.8425533093173
 30
0.0
 10
52.51827271001868
 20
172.4348794654041
 30
0.0
 10
54.28145412946401
 20
171.2937343452877
 30
0.0
 10
56.45644863495993
 20
171.2937343452877
 30
0.0
  0
SPLINE
  5
11F
330
70
100
AcDbEntity
  8
1_2
 62
     3
420
    65280
370
    25
100
AcDbSpline
210
0.0
220
0.0
230
1.0
 70
     8
 71
     3
 72
    11
 73
     7
 74
     0
 42
0.0000000001
 43
0.0000000001
 40
0.0
 40
0.0
 40
0.0
 40
0.0
 40
1.0
 40
1.0
 40
1.0
 40
2.0
 40
2.0
 40
2.0
 40
2.0
 10
56.45644863495993
 20
207.1771139659464
 30
0.0
 10
58.63144314045587
 20
207.1771139659464
 30
0.0
 10
60.39462455990118
 20
208.3182590860628
 30
0.0
 10
60.39462455990118
 20
209.7259329299759
 30
0.0
 10
60.39462455990118
 20
211.1336067738891
 30
0.0
 10
58.63144314045587
 20
212.2747518940054
 30
0.0
 10
56.45644863495993
 20
212.2747518940054
 30
0.0
  0
ELLIPSE
  5
120
330
70
100
AcDbEntity
  8
1_2
 62
     3
420
    65280
370
    25
100
AcDbEllipse
 10
64.24706819412342
 20
209.7259329299759
 30
0.0
 11
0.0000000000000002
 21
2.548819443807368
 31
0.0
210
0.0
220
0.0
230
1.0
 40
0.7725490000000166
 41
0.0
 42
6.283185307179586
  0
LINE
  5
121
330
70
100
AcDbEntity
  8
1_2
 62
     3
420
    65280
370
    25
100
AcDbLine
 10
50.20934215504034
 20
176.5912801604817
 30
0.0
 11
50.20934215504034
 21
206.9772060788111
 31
0.0
  0
SPLINE
  5
122
330
70
100
AcDbEntity
  8
1_2
 62
     3
420
    65280
370
    25
100
AcDbSpline
210
0.0
220
0.0
230
1.0
 70
     8
 71
     3
 72
    92
 73
    88
 74
     0
 42
0.0000000001
 43
0.0000000001
 40
0.0
 40
0.0
 40
0.0
 40
0.0
 40
1.0
 40
1.0
 40
1.0
 40
2.0
 40
2.0
 40
2.0
 40
3.0
 40
3.0
 40
3.0
 40
4.0
 40
4.0
 40
4.0
 40
5.0
 40
5.0
 40
5.0
 40
6.0
 40
6.0
 40
6.0
 40
7.0
 40
7.0
 40
7.0
 40
8.0
 40
8.0
 40
8.0
 40
9.0
 40
9.0
 40
9.0
 40
10.0
 40
10.0
 40
10.0
 40
11.0
 40
11.0
 40
11.0
 40
12.0
 40
12.0
 40
12.0
 40
13.0
 40
13.0
 40
13.0
 40
14.0
 40
14.0
 40
14.0
 40
15.0
 40
15.0
 40
15.0
 40
16.0
 40
16.0
 40
16.0
 40
17.0
 40
17.0
 40
17.0
 40
18.0
 40
18.0
 40
18.0
 40
19.0
 40
19.0
 40
19.0
 40
20.0
 40
20.0
 40
20.0
 40
21.0
 40
21.0
 40
21.0
 40
22.0
 40
22.0
 40
22.0
 40
23.0
 40
23.0
 40
23.0
 40
24.0
 40
24.0
 40
24.0
 40
25.0
 40
25.0
 40
25.0
 40
26.0
 40
26.0
 40
26.0
 40
27.0
 40
27.0
 40
27.0
 40
28.0
 40
28.0
 40
28.0
 40
29.0
 40
29.0
 40
29.0
 40
29.0
 10
111.0683522503892
 20
142.057275831718
 30
0.0
 10
111.029734834419
 20
142.2225057838577
 30
0.0
 10
110.9939369645317
 20
142.3884003855197
 30
0.0
 10
110.9601718029802
 20
142.5546963458716
 30
0.0
 10
110.9280552595191
 20
142.7128727381273
 30
0.0
 10
110.8977777722562
 20
142.8714122524165
 30
0.0
 10
110.8685438751121
 20
143.0301410598415
 30
0.0
 10
110.8407578548552
 20
143.1810084531543
 30
0.0
 10
110.8139146121322
 20
143.3320468535628
 30
0.0
 10
110.7872226785769
 20
143.4831119072996
 30
0.0
 10
110.7618735309508
 20
143.6265773606475
 30
0.0
 10
110.7366608516589
 20
143.77006685309
 30
0.0
 10
110.7108320521552
 20
143.9134451177955
 30
0.0
 10
110.6847244368695
 20
144.0583711169581
 30
0.0
 10
110.6579873278327
 20
144.2031834740694
 30
0.0
 10
110.6318201086654
 20
144.3481009020811
 30
0.0
 10
110.6031943459348
 20
144.5066340608156
 30
0.0
 10
110.5752505919247
 20
144.6652929618636
 30
0.0
 10
110.549179990319
 20
144.8242691159539
 30
0.0
 10
110.5209706011792
 20
144.9962874016288
 30
0.0
 10
110.4949543117205
 20
145.1686771293408
 30
0.0
 10
110.4724140559212
 20
145.3415380472065
 30
0.0
 10
110.4481618812447
 20
145.5275276478618
 30
0.0
 10
110.4279337964048
 20
145.71406272986
 30
0.0
 10
110.4131338601021
 20
145.9010572036815
 30
0.0
 10
110.3972415122467
 20
146.1018540966011
 30
0.0
 10
110.3876082105679
 20
146.3031807013761
 30
0.0
 10
110.3857507480824
 20
146.504617385845
 30
0.0
 10
110.3837568609689
 20
146.7208489449966
 30
0.0
 10
110.3907229798701
 20
146.9372073476558
 30
0.0
 10
110.4081744105794
 20
147.1527858114991
 30
0.0
 10
110.4268833872044
 20
147.3838988077887
 30
0.0
 10
110.4576432598758
 20
147.6141154109368
 30
0.0
 10
110.5016908776982
 20
147.8417591294464
 30
0.0
 10
110.5458129607265
 20
148.0697876936562
 30
0.0
 10
110.6032677543818
 20
148.295234666634
 30
0.0
 10
110.6721579156528
 20
148.5170416391149
 30
0.0
 10
110.7360471863958
 20
148.7227471485236
 30
0.0
 10
110.8097718472306
 20
148.9253219474887
 30
0.0
 10
110.8914675693387
 20
149.1245783872367
 30
0.0
 10
110.9670994001175
 20
149.3090449534624
 30
0.0
 10
111.0495628987341
 20
149.490667490874
 30
0.0
 10
111.1372058182162
 20
149.6697165247633
 30
0.0
 10
111.2182653722314
 20
149.8353161524322
 30
0.0
 10
111.303755458984
 20
149.9987143772983
 30
0.0
 10
111.392261684366
 20
150.1604401375845
 30
0.0
 10
111.4738675095459
 20
150.3095569264212
 30
0.0
 10
111.5580374998065
 20
150.4572518723648
 30
0.0
 10
111.6435238218483
 20
150.6041702110505
 30
0.0
 10
111.7217617061654
 20
150.7386312536073
 30
0.0
 10
111.8011021608041
 20
150.8724418035409
 30
0.0
 10
111.8804165441939
 20
151.0062700735363
 30
0.0
 10
111.9485424966645
 20
151.1212199473337
 30
0.0
 10
112.0166492145382
 20
151.2361828944697
 30
0.0
 10
112.083121299685
 20
151.3521009671643
 30
0.0
 10
112.1376486069463
 20
151.447189008303
 30
0.0
 10
112.1910759724541
 20
151.5429197519055
 30
0.0
 10
112.2416039109955
 20
151.6402157219935
 30
0.0
 10
112.2799526396691
 20
151.7140595570204
 30
0.0
 10
112.3166312357338
 20
151.7888049963375
 30
0.0
 10
112.3497223467353
 20
151.865146393105
 30
0.0
 10
112.3715524487999
 20
151.9155085729405
 30
0.0
 10
112.391821277549
 20
151.9665653133764
 30
0.0
 10
112.4083968062716
 20
152.0189743540736
 30
0.0
 10
112.4166127687254
 20
152.0449518488379
 30
0.0
 10
112.4239213355141
 20
152.0712615861459
 30
0.0
 10
112.4288104555709
 20
152.0979857983222
 30
0.0
 10
112.4353349321367
 20
152.133648963486
 30
0.0
 10
112.4375507111264
 20
152.1700502506498
 30
0.0
 10
112.4389877639138
 20
152.2064113921196
 30
0.0
 10
112.442118373979
 20
152.285623900173
 30
0.0
 10
112.441553279022
 20
152.3646458834411
 30
0.0
 10
112.439326723089
 20
152.4436538562522
 30
0.0
 10
112.4359745673392
 20
152.5626030487929
 30
0.0
 10
112.4288564897349
 20
152.6815204847737
 30
0.0
 10
112.4215219124675
 20
152.8003867769869
 30
0.0
 10
112.4119134460289
 20
152.9561043784037
 30
0.0
 10
112.401933431356
 20
153.1117342088907
 30
0.0
 10
112.3944016275975
 20
153.2675102839113
 30
0.0
 10
112.3871863765791
 20
153.4167392760598
 30
0.0
 10
112.3822178702696
 20
153.5661024781041
 30
0.0
 10
112.3790453371193
 20
153.7154915782878
 30
0.0
 10
112.3760137485281
 20
153.8582438428911
 30
0.0
 10
112.3746221002144
 20
154.0010197556216
 30
0.0
 10
112.3744243907498
 20
154.1437971340813
 30
0.0
 10
112.3742357589895
 20
154.2800189796376
 30
0.0
 10
112.3751339451632
 20
154.4162421594168
 30
0.0
 10
112.376651645477
 20
154.5524550243832
 30
0.0
  0
SPLINE
  5
123
330
70
100
AcDbEntity
  8
1_2
 62
     3
420
    65280
370
    25
100
AcDbSpline
210
0.0
220
0.0
230
1.0
 70
     8
 71
     3
 72
    23
 73
    19
 74
     0
 42
0.0000000001
 43
0.0000000001
 40
0.0
 40
0.0
 40
0.0
 40
0.0
 40
1.0
 40
1.0
 40
1.0
 40
2.0
 40
2.0
 40
2.0
 40
3.0
 40
3.0
 40
3.0
 40
4.0
 40
4.0
 40
4.0
 40
5.0
 40
5.0
 40
5.0
 40
6.0
 40
6.0
 40
6.0
 40
6.0
 10
113.6508598678307
 20
142.057275831718
 30
0.0
 10
113.4291239192662
 20
142.8082404219298
 30
0.0
 10
113.3111079358071
 20
143.5722673512203
 30
0.0
 10
113.170066094867
 20
144.3565951152488
 30
0.0
 10
112.9888504390474
 20
145.3643277794562
 30
0.0
 10
112.7696236071868
 20
146.4055731414477
 30
0.0
 10
112.9550320542453
 20
147.3670683305086
 30
0.0
 10
113.1146469051207
 20
148.1948025230692
 30
0.0
 10
113.5741443819704
 20
148.9634323999003
 30
0.0
 10
114.0302021805979
 20
149.7324427071281
 30
0.0
 10
114.4019337121976
 20
150.3592610187157
 30
0.0
 10
114.7713799773368
 20
150.9863320820923
 30
0.0
 10
114.8903367207261
 20
151.6677501098902
 30
0.0
 10
114.9869623223601
 20
152.2212490123063
 30
0.0
 10
114.9183172290779
 20
152.8106055446692
 30
0.0
 10
114.890336717284
 20
153.388018807255
 30
0.0
 10
114.8714111387514
 20
153.7785720654424
 30
0.0
 10
114.8710894315682
 20
154.1636613290106
 30
0.0
 10
114.8756468469465
 20
154.5514887915572
 30
0.0
  0
LINE
  5
124
330
70
100
AcDbEntity
  8
1_2
 62
     3
420
    65280
370
    25
100
AcDbLine
 10
114.8756471680405
 20
154.5514884993252
 30
0.0
 11
151.7123282407755
 21
154.5514884993252
 31
0.0
  0
LINE
  5
125
330
70
100
AcDbEntity
  8
1_2
 62
     3
420
    65280
370
    25
100
AcDbLine
 10
113.6508594623283
 20
142.0572755394857
 30
0.0
 11
151.7123282407755
 21
142.0572755394857
 31
0.0
  0
INSERT
  5
127
330
70
100
AcDbEntity
  8
1_2
100
AcDbBlockReference
  2
Block_6
 10
0.0
 20
0.0
 30
0.0
  0
INSERT
  5
135
330
70
100
AcDbEntity
  8
1_2
100
AcDbBlockReference
  2
Block_7
 10
0.0
 20
0.0
 30
0.0
  0
INSERT
  5
144
330
70
100
AcDbEntity
  8
1_2
100
AcDbBlockReference
  2
Block_8
 10
0.0
 20
0.0
 30
0.0
  0
INSERT
  5
152
330
70
100
AcDbEntity
  8
1_2
100
AcDbBlockReference
  2
Block_9
 10
0.0
 20
0.0
 30
0.0
  0
INSERT
  5
161
330
70
100
AcDbEntity
  8
1_2
100
AcDbBlockReference
  2
Block_10
 10
0.0
 20
0.0
 30
0.0
  0
SPLINE
  5
16E
330
70
100
AcDbEntity
  8
1_2
 62
     3
420
    65280
370
    25
100
AcDbSpline
210
0.0
220
0.0
230
1.0
 70
     8
 71
     3
 72
     8
 73
     4
 74
     0
 42
0.0000000001
 43
0.0000000001
 40
0.0
 40
0.0
 40
0.0
 40
0.0
 40
1.0
 40
1.0
 40
1.0
 40
1.0
 10
152.2120967591688
 20
163.0475533120159
 30
0.0
 10
151.9360822280147
 20
163.0475533120159
 30
0.0
 10
151.7123282407755
 20
162.8237993247766
 30
0.0
 10
151.7123282407755
 20
162.5477847936222
 30
0.0
  0
SPLINE
  5
16F
330
70
100
AcDbEntity
  8
1_2
 62
     3
420
    65280
370
    25
100
AcDbSpline
210
0.0
220
0.0
230
1.0
 70
     8
 71
     3
 72
     8
 73
     4
 74
     0
 42
0.0000000001
 43
0.0000000001
 40
0.0
 40
0.0
 40
0.0
 40
0.0
 40
1.0
 40
1.0
 40
1.0
 40
1.0
 10
151.7123282407755
 20
134.0609792451887
 30
0.0
 10
151.7123282407755
 20
133.7849647140339
 30
0.0
 10
151.9360822280147
 20
133.5612107267946
 30
0.0
 10
152.2120967591688
 20
133.5612107267946
 30
0.0
  0
LINE
  5
170
330
70
100
AcDbEntity
  8
1_2
 62
     3
420
    65280
370
    25
100
AcDbLine
 10
159.7086245350725
 20
163.0475533120159
 30
0.0
 11
152.2120967591688
 21
163.0475533120159
 31
0.0
  0
LINE
  5
171
330
70
100
AcDbEntity
  8
1_2
 62
     3
420
    65280
370
    25
100
AcDbLine
 10
159.7086245350725
 20
133.5612107267946
 30
0.0
 11
152.2120967591688
 21
133.5612107267946
 31
0.0
  0
LINE
  5
172
330
70
100
AcDbEntity
  8
1_2
 62
     3
420
    65280
370
    25
100
AcDbLine
 10
159.7086245350725
 20
133.5612107267946
 30
0.0
 11
159.7086245350725
 21
163.0475533120159
 31
0.0
  0
LINE
  5
173
330
70
100
AcDbEntity
  8
1_2
 62
     3
420
    65280
370
    25
100
AcDbLine
 10
151.7123282407755
 20
134.0609792451887
 30
0.0
 11
151.7123282407755
 21
162.5477847936222
 31
0.0
  0
INSERT
  5
175
330
70
100
AcDbEntity
  8
1_2
100
AcDbBlockReference
  2
Block_11
 10
0.0
 20
0.0
 30
0.0
  0
ENDSEC
  0
SECTION
  2
OBJECTS
  0
DICTIONARY
  5
C
330
0
100
AcDbDictionary
281
     1
  3
ACAD_COLOR
350
63
  3
ACAD_DETAILVIEWSTYLE
350
6A
  3
ACAD_GROUP
350
D
  3
ACAD_LAYOUT
350
62
  3
ACAD_MATERIAL
350
10
  3
ACAD_MLEADERSTYLE
350
66
  3
ACAD_MLINESTYLE
350
5F
  3
ACAD_PLOTSETTINGS
350
61
  3
ACAD_PLOTSTYLENAME
350
E
  3
ACAD_SCALELIST
350
42
  3
ACAD_SECTIONVIEWSTYLE
350
68
  3
ACAD_TABLESTYLE
350
64
  3
ACAD_VISUALSTYLE
350
29
  3
ACDB_RECOMPOSE_DATA
350
18A
  3
AcDbVariableDictionary
350
182
  0
DICTIONARY
  5
63
102
{ACAD_REACTORS
330
C
102
}
330
C
100
AcDbDictionary
281
     1
  0
DICTIONARY
  5
6A
102
{ACAD_REACTORS
330
C
102
}
330
C
100
AcDbDictionary
281
     1
  3
Imperial24
350
6B
  0
DICTIONARY
  5
D
102
{ACAD_REACTORS
330
C
102
}
330
C
100
AcDbDictionary
281
     1
  0
DICTIONARY
  5
62
102
{ACAD_REACTORS
330
C
102
}
330
C
100
AcDbDictionary
281
     1
  3
Layout1
350
6F
  3
Layout2
350
77
  3
Model
350
73
  0
DICTIONARY
  5
10
102
{ACAD_REACTORS
330
C
102
}
330
C
100
AcDbDictionary
281
     1
  3
ByBlock
350
19
  3
ByLayer
350
11
  3
Global
350
21
  0
DICTIONARY
  5
66
102
{ACAD_REACTORS
330
C
102
}
330
C
100
AcDbDictionary
281
     1
  3
Standard
350
67
  0
DICTIONARY
  5
5F
102
{ACAD_REACTORS
330
C
102
}
330
C
100
AcDbDictionary
281
     1
  3
Standard
350
60
  0
DICTIONARY
  5
61
102
{ACAD_REACTORS
330
C
102
}
330
C
100
AcDbDictionary
281
     1
  0
ACDBDICTIONARYWDFLT
  5
E
102
{ACAD_REACTORS
330
C
102
}
330
C
100
AcDbDictionary
281
     1
  3
Normal
350
F
100
AcDbDictionaryWithDefault
340
F
  0
DICTIONARY
  5
42
102
{ACAD_REACTORS
330
C
102
}
330
C
100
AcDbDictionary
281
     1
  3
A0
350
43
  3
A1
350
44
  3
A2
350
45
  3
A3
350
46
  3
A4
350
47
  3
A5
350
48
  3
A6
350
49
  3
A7
350
4A
  3
A8
350
4B
  3
A9
350
4C
  3
B0
350
4D
  3
B1
350
4E
  3
B2
350
4F
  3
B3
350
50
  3
B4
350
51
  3
B5
350
52
  3
B6
350
53
  0
DICTIONARY
  5
68
102
{ACAD_REACTORS
330
C
102
}
330
C
100
AcDbDictionary
281
     1
  3
Imperial24
350
69
  0
DICTIONARY
  5
64
102
{ACAD_REACTORS
330
C
102
}
330
C
100
AcDbDictionary
281
     1
  3
Standard
350
65
  0
DICTIONARY
  5
29
102
{ACAD_REACTORS
330
C
102
}
330
C
100
AcDbDictionary
281
     1
  3
2dWireframe
350
2F
  3
Basic
350
2E
  3
Brighten
350
35
  3
ColorChange
350
39
  3
Conceptual
350
32
  3
Dim
350
34
  3
EdgeColorOff
350
41
  3
Facepattern
350
38
  3
Flat
350
2A
  3
FlatWithEdges
350
2B
  3
Gouraud
350
2C
  3
GouraudWithEdges
350
2D
  3
Hidden
350
31
  3
JitterOff
350
3F
  3
Linepattern
350
37
  3
OverhangOff
350
40
  3
Realistic
350
33
  3
Shaded
350
3E
  3
Shaded with edges
350
3D
  3
Shades of Gray
350
3A
  3
Sketchy
350
3B
  3
Thicken
350
36
  3
Wireframe
350
30
  3
X-Ray
350
3C
  0
XRECORD
  5
18A
102
{ACAD_REACTORS
330
C
102
}
330
C
100
AcDbXrecord
280
     1
 90
        1
330
65
  0
DICTIONARY
  5
182
102
{ACAD_REACTORS
330
C
102
}
330
C
100
AcDbDictionary
281
     1
  3
CANNOSCALE
350
187
  3
CMLEADERSTYLE
350
184
  3
CTABLESTYLE
350
183
  3
CVIEWDETAILSTYLE
350
185
  3
CVIEWSECTIONSTYLE
350
186
  0
ACDBDETAILVIEWSTYLE
  5
6B
102
{ACAD_REACTORS
330
6A
102
}
330
6A
100
AcDbModelDocViewStyle
 70
     0
  3
Imperial24
290
     1
300
Imperial24
 90
        0
100
AcDbDetailViewStyle
 70
     0
 71
     0
 90
        3
 71
     1
340
55
 62
   256
 40
0.24
340
0
 62
   256
 40
0.24
300

 40
0.36
280
     3
 71
     2
340
5D
 90
       25
 62
   256
 71
     3
340
55
 62
   256
 40
0.24
 90
        1
 40
0.75
 90
        1
300
%<\AcVar ViewType \f "%tc1">% %<\AcVar ViewDetailId>%\PSCALE %<\AcVar ViewScale \f "%sn">%
 71
     4
340
5D
 90
       25
 62
   256
340
5D
 90
       25
 62
   256
280
     0
  0
LAYOUT
  5
6F
102
{ACAD_REACTORS
330
62
102
}
330
62
100
AcDbPlotSettings
  1

  2

  4

  6

 40
0.0
 41
0.0
 42
0.0
 43
0.0
 44
0.0
 45
0.0
 46
0.0
 47
0.0
 48
0.0
 49
0.0
140
0.0
141
0.0
142
1.0
143
1.0
 70
   688
 72
     0
 73
     0
 74
     5
  7

 75
    16
147
1.0
 76
     0
 77
     2
 78
   300
148
0.0
149
0.0
100
AcDbLayout
  1
Layout1
 70
     1
 71
     1
 10
0.0
 20
0.0
 11
12.0
 21
9.0
 12
0.0
 22
0.0
 32
0.0
 14
0.0
 24
0.0
 34
0.0
 15
0.0
 25
0.0
 35
0.0
146
0.0
 13
0.0
 23
0.0
 33
0.0
 16
1.0
 26
0.0
 36
0.0
 17
0.0
 27
1.0
 37
0.0
 76
     0
330
6C
  0
LAYOUT
  5
77
102
{ACAD_REACTORS
330
62
102
}
330
62
100
AcDbPlotSettings
  1

  2

  4

  6

 40
0.0
 41
0.0
 42
0.0
 43
0.0
 44
0.0
 45
0.0
 46
0.0
 47
0.0
 48
0.0
 49
0.0
140
0.0
141
0.0
142
1.0
143
1.0
 70
   688
 72
     0
 73
     0
 74
     5
  7

 75
    16
147
1.0
 76
     0
 77
     2
 78
   300
148
0.0
149
0.0
100
AcDbLayout
  1
Layout2
 70
     1
 71
     2
 10
0.0
 20
0.0
 11
12.0
 21
9.0
 12
0.0
 22
0.0
 32
0.0
 14
0.0
 24
0.0
 34
0.0
 15
0.0
 25
0.0
 35
0.0
146
0.0
 13
0.0
 23
0.0
 33
0.0
 16
1.0
 26
0.0
 36
0.0
 17
0.0
 27
1.0
 37
0.0
 76
     0
330
74
  0
LAYOUT
  5
73
102
{ACAD_REACTORS
330
62
102
}
330
62
100
AcDbPlotSettings
  1

  2

  4

  6

 40
0.0
 41
0.0
 42
0.0
 43
0.0
 44
0.0
 45
0.0
 46
0.0
 47
0.0
 48
0.0
 49
0.0
140
0.0
141
0.0
142
1.0
143
1.0
 70
  1712
 72
     0
 73
     0
 74
     0
  7

 75
     0
147
1.0
 76
     0
 77
     2
 78
   300
148
0.0
149
0.0
100
AcDbLayout
  1
Model
 70
     1
 71
     0
 10
0.0
 20
0.0
 11
12.0
 21
9.0
 12
0.0
 22
0.0
 32
0.0
 14
0.0
 24
0.0
 34
0.0
 15
0.0
 25
0.0
 35
0.0
146
0.0
 13
0.0
 23
0.0
 33
0.0
 16
1.0
 26
0.0
 36
0.0
 17
0.0
 27
1.0
 37
0.0
 76
     0
330
70
  0
MATERIAL
  5
19
102
{ACAD_XDICTIONARY
360
1A
102
}
102
{ACAD_REACTORS
330
10
102
}
330
10
100
AcDbMaterial
  1
ByBlock
 72
     0
 43
0.0208333333333333
 43
0.0
 43
0.0
 43
0.0
 43
0.0
 43
0.0208333333333333
 43
0.0
 43
0.0
 43
0.0
 43
0.0
 43
1.0
 43
0.0
 43
0.0
 43
0.0
 43
0.0
 43
1.0
 77
     0
 47
0.0208333333333333
 47
0.0
 47
0.0
 47
0.0
 47
0.0
 47
0.0208333333333333
 47
0.0
 47
0.0
 47
0.0
 47
0.0
 47
1.0
 47
0.0
 47
0.0
 47
0.0
 47
0.0
 47
1.0
171
     0
 49
0.0208333333333333
 49
0.0
 49
0.0
 49
0.0
 49
0.0
 49
0.0208333333333333
 49
0.0
 49
0.0
 49
0.0
 49
0.0
 49
1.0
 49
0.0
 49
0.0
 49
0.0
 49
0.0
 49
1.0
175
     0
142
0.0208333333333333
142
0.0
142
0.0
142
0.0
142
0.0
142
0.0208333333333333
142
0.0
142
0.0
142
0.0
142
0.0
142
1.0
142
0.0
142
0.0
142
0.0
142
0.0
142
1.0
179
     0
144
0.0208333333333333
144
0.0
144
0.0
144
0.0
144
0.0
144
0.0208333333333333
144
0.0
144
0.0
144
0.0
144
0.0
144
1.0
144
0.0
144
0.0
144
0.0
144
0.0
144
1.0
147
0.0208333333333333
147
0.0
147
0.0
147
0.0
147
0.0
147
0.0208333333333333
147
0.0
147
0.0
147
0.0
147
0.0
147
1.0
147
0.0
147
0.0
147
0.0
147
0.0
147
1.0
  0
MATERIAL
  5
11
102
{ACAD_XDICTIONARY
360
12
102
}
102
{ACAD_REACTORS
330
10
102
}
330
10
100
AcDbMaterial
  1
ByLayer
 72
     0
 43
0.0208333333333333
 43
0.0
 43
0.0
 43
0.0
 43
0.0
 43
0.0208333333333333
 43
0.0
 43
0.0
 43
0.0
 43
0.0
 43
1.0
 43
0.0
 43
0.0
 43
0.0
 43
0.0
 43
1.0
 77
     0
 47
0.0208333333333333
 47
0.0
 47
0.0
 47
0.0
 47
0.0
 47
0.0208333333333333
 47
0.0
 47
0.0
 47
0.0
 47
0.0
 47
1.0
 47
0.0
 47
0.0
 47
0.0
 47
0.0
 47
1.0
171
     0
 49
0.0208333333333333
 49
0.0
 49
0.0
 49
0.0
 49
0.0
 49
0.0208333333333333
 49
0.0
 49
0.0
 49
0.0
 49
0.0
 49
1.0
 49
0.0
 49
0.0
 49
0.0
 49
0.0
 49
1.0
175
     0
142
0.0208333333333333
142
0.0
142
0.0
142
0.0
142
0.0
142
0.0208333333333333
142
0.0
142
0.0
142
0.0
142
0.0
142
1.0
142
0.0
142
0.0
142
0.0
142
0.0
142
1.0
179
     0
144
0.0208333333333333
144
0.0
144
0.0
144
0.0
144
0.0
144
0.0208333333333333
144
0.0
144
0.0
144
0.0
144
0.0
144
1.0
144
0.0
144
0.0
144
0.0
144
0.0
144
1.0
147
0.0208333333333333
147
0.0
147
0.0
147
0.0
147
0.0
147
0.0208333333333333
147
0.0
147
0.0
147
0.0
147
0.0
147
1.0
147
0.0
147
0.0
147
0.0
147
0.0
147
1.0
  0
MATERIAL
  5
21
102
{ACAD_XDICTIONARY
360
22
102
}
102
{ACAD_REACTORS
330
10
102
}
330
10
100
AcDbMaterial
  1
Global
 72
     0
 43
0.0208333333333333
 43
0.0
 43
0.0
 43
0.0
 43
0.0
 43
0.0208333333333333
 43
0.0
 43
0.0
 43
0.0
 43
0.0
 43
1.0
 43
0.0
 43
0.0
 43
0.0
 43
0.0
 43
1.0
 77
     0
 47
0.0208333333333333
 47
0.0
 47
0.0
 47
0.0
 47
0.0
 47
0.0208333333333333
 47
0.0
 47
0.0
 47
0.0
 47
0.0
 47
1.0
 47
0.0
 47
0.0
 47
0.0
 47
0.0
 47
1.0
171
     0
 49
0.0208333333333333
 49
0.0
 49
0.0
 49
0.0
 49
0.0
 49
0.0208333333333333
 49
0.0
 49
0.0
 49
0.0
 49
0.0
 49
1.0
 49
0.0
 49
0.0
 49
0.0
 49
0.0
 49
1.0
175
     0
142
0.0208333333333333
142
0.0
142
0.0
142
0.0
142
0.0
142
0.0208333333333333
142
0.0
142
0.0
142
0.0
142
0.0
142
1.0
142
0.0
142
0.0
142
0.0
142
0.0
142
1.0
179
     0
144
0.0208333333333333
144
0.0
144
0.0
144
0.0
144
0.0
144
0.0208333333333333
144
0.0
144
0.0
144
0.0
144
0.0
144
1.0
144
0.0
144
0.0
144
0.0
144
0.0
144
1.0
147
0.0208333333333333
147
0.0
147
0.0
147
0.0
147
0.0
147
0.0208333333333333
147
0.0
147
0.0
147
0.0
147
0.0
147
1.0
147
0.0
147
0.0
147
0.0
147
0.0
147
1.0
  0
MLEADERSTYLE
  5
67
102
{ACAD_REACTORS
330
66
102
}
330
66
100
AcDbMLeaderStyle
179
     2
170
     2
171
     1
172
     0
 90
        2
 40
0.0
 41
0.0
173
     1
 91
-1056964608
340
5B
 92
       -2
290
     1
 42
0.09
291
     1
 43
0.36
  3
Standard
 44
0.18
300

342
55
174
     1
178
     6
175
     1
176
     0
 93
-1056964608
 45
0.18
292
     0
297
     0
 46
0.18
 94
-1056964608
 47
1.0
 49
1.0
140
1.0
293
     1
141
0.0
294
     1
177
     0
142
1.0
295
     1
296
     0
143
0.125
271
     0
272
     9
273
     9
298
     1
  0
MLINESTYLE
  5
60
102
{ACAD_REACTORS
330
5F
102
}
330
5F
100
AcDbMlineStyle
  2
STANDARD
 70
     0
  3

 62
   256
 51
90.0
 52
90.0
 71
     2
 49
0.5
 62
   256
  6
BYLAYER
 49
-0.5
 62
   256
  6
BYLAYER
  0
ACDBPLACEHOLDER
  5
F
102
{ACAD_REACTORS
330
E
102
}
330
E
  0
SCALE
  5
43
102
{ACAD_REACTORS
330
42
102
}
330
42
100
AcDbScale
 70
     0
300
1:1
140
1.0
141
1.0
290
     1
  0
SCALE
  5
44
102
{ACAD_REACTORS
330
42
102
}
330
42
100
AcDbScale
 70
     0
300
1/128" = 1'-0"
140
0.0078125
141
12.0
290
     0
  0
SCALE
  5
45
102
{ACAD_REACTORS
330
42
102
}
330
42
100
AcDbScale
 70
     0
300
1/64" = 1'-0"
140
0.015625
141
12.0
290
     0
  0
SCALE
  5
46
102
{ACAD_REACTORS
330
42
102
}
330
42
100
AcDbScale
 70
     0
300
1/32" = 1'-0"
140
0.03125
141
12.0
290
     0
  0
SCALE
  5
47
102
{ACAD_REACTORS
330
42
102
}
330
42
100
AcDbScale
 70
     0
300
1/16" = 1'-0"
140
0.0625
141
12.0
290
     0
  0
SCALE
  5
48
102
{ACAD_REACTORS
330
42
102
}
330
42
100
AcDbScale
 70
     0
300
3/32" = 1'-0"
140
0.09375
141
12.0
290
     0
  0
SCALE
  5
49
102
{ACAD_REACTORS
330
42
102
}
330
42
100
AcDbScale
 70
     0
300
1/8" = 1'-0"
140
0.125
141
12.0
290
     0
  0
SCALE
  5
4A
102
{ACAD_REACTORS
330
42
102
}
330
42
100
AcDbScale
 70
     0
300
3/16" = 1'-0"
140
0.1875
141
12.0
290
     0
  0
SCALE
  5
4B
102
{ACAD_REACTORS
330
42
102
}
330
42
100
AcDbScale
 70
     0
300
1/4" = 1'-0"
140
0.25
141
12.0
290
     0
  0
SCALE
  5
4C
102
{ACAD_REACTORS
330
42
102
}
330
42
100
AcDbScale
 70
     0
300
3/8" = 1'-0"
140
0.375
141
12.0
290
     0
  0
SCALE
  5
4D
102
{ACAD_REACTORS
330
42
102
}
330
42
100
AcDbScale
 70
     0
300
1/2" = 1'-0"
140
0.5
141
12.0
290
     0
  0
SCALE
  5
4E
102
{ACAD_REACTORS
330
42
102
}
330
42
100
AcDbScale
 70
     0
300
3/4" = 1'-0"
140
0.75
141
12.0
290
     0
  0
SCALE
  5
4F
102
{ACAD_REACTORS
330
42
102
}
330
42
100
AcDbScale
 70
     0
300
1" = 1'-0"
140
1.0
141
12.0
290
     0
  0
SCALE
  5
50
102
{ACAD_REACTORS
330
42
102
}
330
42
100
AcDbScale
 70
     0
300
1-1/2" = 1'-0"
140
1.5
141
12.0
290
     0
  0
SCALE
  5
51
102
{ACAD_REACTORS
330
42
102
}
330
42
100
AcDbScale
 70
     0
300
3" = 1'-0"
140
3.0
141
12.0
290
     0
  0
SCALE
  5
52
102
{ACAD_REACTORS
330
42
102
}
330
42
100
AcDbScale
 70
     0
300
6" = 1'-0"
140
6.0
141
12.0
290
     0
  0
SCALE
  5
53
102
{ACAD_REACTORS
330
42
102
}
330
42
100
AcDbScale
 70
     0
300
1'-0" = 1'-0"
140
12.0
141
12.0
290
     0
  0
ACDBSECTIONVIEWSTYLE
  5
69
102
{ACAD_REACTORS
330
68
102
}
330
68
100
AcDbModelDocViewStyle
 70
     0
  3
Imperial24
290
     1
300
Imperial24
 90
        0
100
AcDbSectionViewStyle
 70
     0
 71
     0
 90
       78
 71
     1
340
55
 62
   256
 40
0.24
340
0
340
0
 62
   256
 40
0.24
300
I, O, Q, S, X, Z
 40
0.48
 90
        3
 40
0.18
 90
        1
 71
     2
340
5D
 90
       25
 62
   256
340
5D
 90
       50
 62
   256
 40
0.24
 40
0.0
 40
0.24
 71
     3
340
55
 62
   256
 40
0.24
 90
        1
 40
0.75
 90
        1
300
%<\AcVar ViewType \f "%tc1">% %<\AcVar ViewSectionStartId>%-%<\AcVar ViewSectionEndId>%\PSCALE %<\AcVar ViewScale \f "%sn">%
 71
     4
 62
   256
 62
   257
300
ANSI31
 40
1.0
 90
        0
290
     0
290
     0
 90
        6
 40
0.0
 40
1.570796326794896
 40
0.2617993877991494
 40
1.308996938995747
 40
-0.2617993877991494
 40
1.832595714594046
  0
TABLESTYLE
  5
65
102
{ACAD_XDICTIONARY
360
188
102
}
102
{ACAD_REACTORS
330
64
102
}
330
64
100
AcDbTableStyle
280
     0
  3
Standard
 70
     0
 71
     0
 40
0.06
 41
0.06
280
     0
281
     0
  7
Standard
140
0.18
170
     2
 62
     0
 63
     7
283
     0
 90
      512
 91
        0
  1

274
    -2
284
     1
 64
     0
275
    -2
285
     1
 65
     0
276
    -2
286
     1
 66
     0
277
    -2
287
     1
 67
     0
278
    -2
288
     1
 68
     0
279
    -2
289
     1
 69
     0
  7
Standard
140
0.25
170
     5
 62
     0
 63
     7
283
     0
 90
      512
 91
        0
  1

274
    -2
284
     1
 64
     0
275
    -2
285
     1
 65
     0
276
    -2
286
     1
 66
     0
277
    -2
287
     1
 67
     0
278
    -2
288
     1
 68
     0
279
    -2
289
     1
 69
     0
  7
Standard
140
0.18
170
     5
 62
     0
 63
     7
283
     0
 90
      512
 91
        0
  1

274
    -2
284
     1
 64
     0
275
    -2
285
     1
 65
     0
276
    -2
286
     1
 66
     0
277
    -2
287
     1
 67
     0
278
    -2
288
     1
 68
     0
279
    -2
289
     1
 69
     0
  0
VISUALSTYLE
  5
2F
102
{ACAD_REACTORS
330
29
102
}
330
29
100
AcDbVisualStyle
  2
2dWireframe
 70
     4
177
     3
291
     0
 70
    58
 90
        0
176
     1
 90
        2
176
     1
 90
        0
176
     1
 90
        0
176
     1
 40
0.6
176
     1
 40
30.0
176
     1
 62
     7
420
 16777215
176
     1
 90
        1
176
     1
 90
        4
176
     1
 62
     7
176
     1
 62
   257
176
     1
 90
        1
176
     1
 90
        1
176
     1
 40
1.0
176
     1
 90
        0
176
     1
 62
   257
176
     1
 40
1.0
176
     1
 90
        1
176
     1
 90
        6
176
     1
 90
        2
176
     1
 62
     7
176
     1
 90
        5
176
     1
 90
        0
176
     1
 90
        0
176
     1
290
     0
176
     1
 90
        1
176
     1
 40
0.0
176
     1
 90
        0
176
     1
290
     1
176
     1
290
     1
176
     1
290
     0
176
     1
290
     0
176
     1
290
     0
176
     1
290
     0
176
     1
290
     0
176
     1
290
     0
176
     1
290
     0
176
     1
 90
       50
176
     1
 40
0.0
176
     1
 40
1.0
176
     1
 90
        0
176
     1
 62
    18
420
        0
176
     1
 90
       50
176
     1
 90
        3
176
     1
 62
     5
420
      255
176
     1
290
     0
176
     1
 90
       50
176
     1
 90
       50
176
     1
 90
       50
176
     1
290
     0
176
     1
 90
       50
176
     1
 62
   256
176
     0
 40
1.0
176
     0
 90
        2
176
     1
  1
strokes_ogs.tif
176
     1
290
     0
176
     1
 40
1.0
176
     1
 40
1.0
176
     1
  0
VISUALSTYLE
  5
2E
102
{ACAD_REACTORS
330
29
102
}
330
29
100
AcDbVisualStyle
  2
Basic
 70
     7
177
     3
291
     1
 70
    58
 90
        1
176
     1
 90
        0
176
     1
 90
        1
176
     1
 90
        0
176
     1
 40
0.6
176
     1
 40
30.0
176
     1
 62
     7
420
 16777215
176
     1
 90
        0
176
     1
 90
        4
176
     1
 62
     7
176
     1
 62
   257
176
     1
 90
        1
176
     1
 90
        1
176
     1
 40
1.0
176
     1
 90
        8
176
     1
 62
     7
176
     1
 40
1.0
176
     1
 90
        1
176
     1
 90
        6
176
     1
 90
        2
176
     1
 62
     7
176
     1
 90
        5
176
     1
 90
        0
176
     1
 90
        0
176
     1
290
     0
176
     1
 90
        1
176
     1
 40
0.0
176
     1
 90
        0
176
     1
290
     0
176
     1
290
     1
176
     1
290
     1
176
     1
290
     0
176
     1
290
     0
176
     1
290
     0
176
     1
290
     0
176
     1
290
     0
176
     1
290
     0
176
     1
 90
       50
176
     1
 40
0.0
176
     1
 40
1.0
176
     1
 90
        0
176
     1
 62
    18
420
        0
176
     1
 90
       50
176
     1
 90
        3
176
     1
 62
     5
420
      255
176
     1
290
     0
176
     1
 90
       50
176
     1
 90
       50
176
     1
 90
       50
176
     1
290
     0
176
     1
 90
       50
176
     1
 62
   256
176
     0
 40
1.0
176
     0
 90
        2
176
     1
  1
strokes_ogs.tif
176
     1
290
     0
176
     1
 40
1.0
176
     1
 40
1.0
176
     1
  0
VISUALSTYLE
  5
35
102
{ACAD_REACTORS
330
29
102
}
330
29
100
AcDbVisualStyle
  2
Brighten
 70
    12
177
     3
291
     1
 70
    58
 90
        2
176
     1
 90
        2
176
     1
 90
        0
176
     1
 90
        0
176
     1
 40
0.6
176
     1
 40
30.0
176
     1
 62
     7
420
 16777215
176
     1
 90
        1
176
     1
 90
        4
176
     1
 62
     7
176
     1
 62
   257
176
     1
 90
        1
176
     1
 90
        1
176
     1
 40
1.0
176
     1
 90
        8
176
     1
 62
     7
176
     1
 40
1.0
176
     1
 90
        1
176
     1
 90
        6
176
     1
 90
        2
176
     1
 62
     7
176
     1
 90
        5
176
     1
 90
        0
176
     1
 90
        0
176
     1
290
     0
176
     1
 90
        1
176
     1
 40
50.0
176
     1
 90
        0
176
     1
290
     0
176
     1
290
     1
176
     1
290
     1
176
     1
290
     0
176
     1
290
     0
176
     1
290
     0
176
     1
290
     0
176
     1
290
     0
176
     1
290
     0
176
     1
 90
       50
176
     1
 40
0.0
176
     1
 40
1.0
176
     1
 90
        0
176
     1
 62
    18
420
        0
176
     1
 90
       50
176
     1
 90
        3
176
     1
 62
     5
420
      255
176
     1
290
     0
176
     1
 90
       50
176
     1
 90
       50
176
     1
 90
       50
176
     1
290
     0
176
     1
 90
       50
176
     1
 62
   256
176
     0
 40
1.0
176
     0
 90
        2
176
     1
  1
strokes_ogs.tif
176
     1
290
     0
176
     1
 40
1.0
176
     1
 40
1.0
176
     1
  0
VISUALSTYLE
  5
39
102
{ACAD_REACTORS
330
29
102
}
330
29
100
AcDbVisualStyle
  2
ColorChange
 70
    16
177
     3
291
     1
 70
    58
 90
        2
176
     1
 90
        2
176
     1
 90
        3
176
     1
 90
        0
176
     1
 40
0.6
176
     1
 40
30.0
176
     1
 62
     8
420
  8421504
176
     1
 90
        1
176
     1
 90
        4
176
     1
 62
     7
176
     1
 62
   257
176
     1
 90
        1
176
     1
 90
        1
176
     1
 40
1.0
176
     1
 90
        8
176
     1
 62
     8
420
  8421504
176
     1
 40
1.0
176
     1
 90
        1
176
     1
 90
        6
176
     1
 90
        2
176
     1
 62
     7
176
     1
 90
        5
176
     1
 90
        0
176
     1
 90
        0
176
     1
290
     0
176
     1
 90
        1
176
     1
 40
0.0
176
     1
 90
        0
176
     1
290
     0
176
     1
290
     1
176
     1
290
     1
176
     1
290
     0
176
     1
290
     0
176
     1
290
     0
176
     1
290
     0
176
     1
290
     0
176
     1
290
     0
176
     1
 90
       50
176
     1
 40
0.0
176
     1
 40
1.0
176
     1
 90
        0
176
     1
 62
    18
420
        0
176
     1
 90
       50
176
     1
 90
        3
176
     1
 62
     5
420
      255
176
     1
290
     0
176
     1
 90
       50
176
     1
 90
       50
176
     1
 90
       50
176
     1
290
     0
176
     1
 90
       50
176
     1
 62
   256
176
     0
 40
1.0
176
     0
 90
        2
176
     1
  1
strokes_ogs.tif
176
     1
290
     0
176
     1
 40
1.0
176
     1
 40
1.0
176
     1
  0
VISUALSTYLE
  5
32
102
{ACAD_REACTORS
330
29
102
}
330
29
100
AcDbVisualStyle
  2
Conceptual
 70
     9
177
     3
291
     0
 70
    58
 90
        3
176
     1
 90
        2
176
     1
 90
        0
176
     1
 90
        0
176
     1
 40
0.6
176
     1
 40
30.0
176
     1
 62
     7
420
 16777215
176
     1
 90
        2
176
     1
 90
        2
176
     1
 62
     7
176
     1
 62
   257
176
     1
 90
        1
176
     1
 90
        1
176
     1
 40
179.0
176
     1
 90
        8
176
     1
 62
     7
176
     1
 40
1.0
176
     1
 90
        1
176
     1
 90
        6
176
     1
 90
        2
176
     1
 62
     7
176
     1
 90
        3
176
     1
 90
        0
176
     1
 90
        0
176
     1
290
     0
176
     1
 90
        1
176
     1
 40
0.0
176
     1
 90
        0
176
     1
290
     0
176
     1
290
     1
176
     1
290
     1
176
     1
290
     0
176
     1
290
     0
176
     1
290
     0
176
     1
290
     0
176
     1
290
     0
176
     1
290
     0
176
     1
 90
       50
176
     1
 40
0.0
176
     1
 40
1.0
176
     1
 90
        0
176
     1
 62
    18
420
        0
176
     1
 90
       50
176
     1
 90
        3
176
     1
 62
     5
420
      255
176
     1
290
     0
176
     1
 90
       50
176
     1
 90
       50
176
     1
 90
       50
176
     1
290
     0
176
     1
 90
       50
176
     1
 62
   256
176
     0
 40
1.0
176
     0
 90
        2
176
     1
  1
strokes_ogs.tif
176
     1
290
     0
176
     1
 40
1.0
176
     1
 40
1.0
176
     1
  0
VISUALSTYLE
  5
34
102
{ACAD_REACTORS
330
29
102
}
330
29
100
AcDbVisualStyle
  2
Dim
 70
    11
177
     3
291
     1
 70
    58
 90
        2
176
     1
 90
        2
176
     1
 90
        0
176
     1
 90
        0
176
     1
 40
0.6
176
     1
 40
30.0
176
     1
 62
     7
420
 16777215
176
     1
 90
        1
176
     1
 90
        4
176
     1
 62
     7
176
     1
 62
   257
176
     1
 90
        1
176
     1
 90
        1
176
     1
 40
1.0
176
     1
 90
        8
176
     1
 62
     7
176
     1
 40
1.0
176
     1
 90
        1
176
     1
 90
        6
176
     1
 90
        2
176
     1
 62
     7
176
     1
 90
        5
176
     1
 90
        0
176
     1
 90
        0
176
     1
290
     0
176
     1
 90
        1
176
     1
 40
-50.0
176
     1
 90
        0
176
     1
290
     0
176
     1
290
     1
176
     1
290
     1
176
     1
290
     0
176
     1
290
     0
176
     1
290
     0
176
     1
290
     0
176
     1
290
     0
176
     1
290
     0
176
     1
 90
       50
176
     1
 40
0.0
176
     1
 40
1.0
176
     1
 90
        0
176
     1
 62
    18
420
        0
176
     1
 90
       50
176
     1
 90
        3
176
     1
 62
     5
420
      255
176
     1
290
     0
176
     1
 90
       50
176
     1
 90
       50
176
     1
 90
       50
176
     1
290
     0
176
     1
 90
       50
176
     1
 62
   256
176
     0
 40
1.0
176
     0
 90
        2
176
     1
  1
strokes_ogs.tif
176
     1
290
     0
176
     1
 40
1.0
176
     1
 40
1.0
176
     1
  0
VISUALSTYLE
  5
41
102
{ACAD_REACTORS
330
29
102
}
330
29
100
AcDbVisualStyle
  2
EdgeColorOff
 70
    22
177
     3
291
     1
 70
    58
 90
        2
176
     0
 90
        2
176
     0
 90
        0
176
     0
 90
        0
176
     0
 40
0.6
176
     0
 40
30.0
176
     0
 62
     7
420
 16777215
176
     0
 90
        1
176
     0
 90
        4
176
     0
 62
     7
176
     0
 62
   257
176
     0
 90
        1
176
     0
 90
        1
176
     0
 40
1.0
176
     0
 90
        8
176
     2
 62
     7
176
     0
 40
1.0
176
     0
 90
        1
176
     0
 90
        6
176
     0
 90
        2
176
     0
 62
     7
176
     0
 90
        5
176
     0
 90
        0
176
     0
 90
        0
176
     0
290
     0
176
     0
 90
        1
176
     0
 40
0.0
176
     0
 90
        0
176
     0
290
     0
176
     0
290
     1
176
     0
290
     1
176
     0
290
     0
176
     0
290
     0
176
     0
290
     0
176
     0
290
     0
176
     0
290
     0
176
     0
290
     0
176
     0
 90
       50
176
     0
 40
0.0
176
     0
 40
1.0
176
     0
 90
        0
176
     0
 62
    18
420
        0
176
     0
 90
       50
176
     0
 90
        3
176
     0
 62
     5
420
      255
176
     0
290
     0
176
     0
 90
       50
176
     0
 90
       50
176
     0
 90
       50
176
     0
290
     0
176
     0
 90
       50
176
     0
 62
   256
176
     0
 40
1.0
176
     0
 90
        2
176
     0
  1
strokes_ogs.tif
176
     0
290
     0
176
     0
 40
1.0
176
     0
 40
1.0
176
     0
  0
VISUALSTYLE
  5
38
102
{ACAD_REACTORS
330
29
102
}
330
29
100
AcDbVisualStyle
  2
Facepattern
 70
    15
177
     3
291
     1
 70
    58
 90
        2
176
     1
 90
        2
176
     1
 90
        0
176
     1
 90
        0
176
     1
 40
0.6
176
     1
 40
30.0
176
     1
 62
     7
420
 16777215
176
     1
 90
        1
176
     1
 90
        4
176
     1
 62
     7
176
     1
 62
   257
176
     1
 90
        1
176
     1
 90
        1
176
     1
 40
1.0
176
     1
 90
        8
176
     1
 62
     7
176
     1
 40
1.0
176
     1
 90
        1
176
     1
 90
        6
176
     1
 90
        2
176
     1
 62
     7
176
     1
 90
        5
176
     1
 90
        0
176
     1
 90
        0
176
     1
290
     0
176
     1
 90
        1
176
     1
 40
0.0
176
     1
 90
        0
176
     1
290
     0
176
     1
290
     1
176
     1
290
     1
176
     1
290
     0
176
     1
290
     0
176
     1
290
     0
176
     1
290
     0
176
     1
290
     0
176
     1
290
     0
176
     1
 90
       50
176
     1
 40
0.0
176
     1
 40
1.0
176
     1
 90
        0
176
     1
 62
    18
420
        0
176
     1
 90
       50
176
     1
 90
        3
176
     1
 62
     5
420
      255
176
     1
290
     0
176
     1
 90
       50
176
     1
 90
       50
176
     1
 90
       50
176
     1
290
     0
176
     1
 90
       50
176
     1
 62
   256
176
     0
 40
1.0
176
     0
 90
        2
176
     1
  1
strokes_ogs.tif
176
     1
290
     0
176
     1
 40
1.0
176
     1
 40
1.0
176
     1
  0
VISUALSTYLE
  5
2A
102
{ACAD_REACTORS
330
29
102
}
330
29
100
AcDbVisualStyle
  2
Flat
 70
     0
177
     3
291
     1
 70
    58
 90
        2
176
     1
 90
        1
176
     1
 90
        1
176
     1
 90
        2
176
     1
 40
0.6
176
     1
 40
30.0
176
     1
 62
     7
420
 16777215
176
     1
 90
        0
176
     1
 90
        0
176
     1
 62
     7
176
     1
 62
   257
176
     1
 90
        1
176
     1
 90
        1
176
     1
 40
1.0
176
     1
 90
        8
176
     1
 62
     7
176
     1
 40
1.0
176
     1
 90
        1
176
     1
 90
        6
176
     1
 90
        2
176
     1
 62
     7
176
     1
 90
        5
176
     1
 90
        0
176
     1
 90
        0
176
     1
290
     0
176
     1
 90
       13
176
     1
 40
0.0
176
     1
 90
        0
176
     1
290
     0
176
     1
290
     1
176
     1
290
     1
176
     1
290
     0
176
     1
290
     0
176
     1
290
     0
176
     1
290
     0
176
     1
290
     0
176
     1
290
     0
176
     1
 90
       50
176
     1
 40
0.0
176
     1
 40
1.0
176
     1
 90
        0
176
     1
 62
    18
420
        0
176
     1
 90
       50
176
     1
 90
        3
176
     1
 62
     5
420
      255
176
     1
290
     0
176
     1
 90
       50
176
     1
 90
       50
176
     1
 90
       50
176
     1
290
     0
176
     1
 90
       50
176
     1
 62
   256
176
     0
 40
1.0
176
     0
 90
        2
176
     1
  1
strokes_ogs.tif
176
     1
290
     0
176
     1
 40
1.0
176
     1
 40
1.0
176
     1
  0
VISUALSTYLE
  5
2B
102
{ACAD_REACTORS
330
29
102
}
330
29
100
AcDbVisualStyle
  2
FlatWithEdges
 70
     1
177
     3
291
     1
 70
    58
 90
        2
176
     1
 90
        1
176
     1
 90
        1
176
     1
 90
        2
176
     1
 40
0.6
176
     1
 40
30.0
176
     1
 62
     7
420
 16777215
176
     1
 90
        1
176
     1
 90
        0
176
     1
 62
     7
176
     1
 62
   257
176
     1
 90
        1
176
     1
 90
        1
176
     1
 40
1.0
176
     1
 90
        0
176
     1
 62
   257
176
     1
 40
1.0
176
     1
 90
        1
176
     1
 90
        6
176
     1
 90
        2
176
     1
 62
     7
176
     1
 90
        5
176
     1
 90
        0
176
     1
 90
        0
176
     1
290
     0
176
     1
 90
       13
176
     1
 40
0.0
176
     1
 90
        0
176
     1
290
     0
176
     1
290
     1
176
     1
290
     1
176
     1
290
     0
176
     1
290
     0
176
     1
290
     0
176
     1
290
     0
176
     1
290
     0
176
     1
290
     0
176
     1
 90
       50
176
     1
 40
0.0
176
     1
 40
1.0
176
     1
 90
        0
176
     1
 62
    18
420
        0
176
     1
 90
       50
176
     1
 90
        3
176
     1
 62
     5
420
      255
176
     1
290
     0
176
     1
 90
       50
176
     1
 90
       50
176
     1
 90
       50
176
     1
290
     0
176
     1
 90
       50
176
     1
 62
   256
176
     0
 40
1.0
176
     0
 90
        2
176
     1
  1
strokes_ogs.tif
176
     1
290
     0
176
     1
 40
1.0
176
     1
 40
1.0
176
     1
  0
VISUALSTYLE
  5
2C
102
{ACAD_REACTORS
330
29
102
}
330
29
100
AcDbVisualStyle
  2
Gouraud
 70
     2
177
     3
291
     1
 70
    58
 90
        2
176
     1
 90
        2
176
     1
 90
        1
176
     1
 90
        2
176
     1
 40
0.6
176
     1
 40
30.0
176
     1
 62
     7
420
 16777215
176
     1
 90
        0
176
     1
 90
        0
176
     1
 62
     7
176
     1
 62
   257
176
     1
 90
        1
176
     1
 90
        1
176
     1
 40
1.0
176
     1
 90
        0
176
     1
 62
     7
176
     1
 40
1.0
176
     1
 90
        1
176
     1
 90
        6
176
     1
 90
        2
176
     1
 62
     7
176
     1
 90
        5
176
     1
 90
        0
176
     1
 90
        0
176
     1
290
     0
176
     1
 90
       13
176
     1
 40
0.0
176
     1
 90
        0
176
     1
290
     0
176
     1
290
     1
176
     1
290
     1
176
     1
290
     0
176
     1
290
     0
176
     1
290
     0
176
     1
290
     0
176
     1
290
     0
176
     1
290
     0
176
     1
 90
       50
176
     1
 40
0.0
176
     1
 40
1.0
176
     1
 90
        0
176
     1
 62
    18
420
        0
176
     1
 90
       50
176
     1
 90
        3
176
     1
 62
     5
420
      255
176
     1
290
     0
176
     1
 90
       50
176
     1
 90
       50
176
     1
 90
       50
176
     1
290
     0
176
     1
 90
       50
176
     1
 62
   256
176
     0
 40
1.0
176
     0
 90
        2
176
     1
  1
strokes_ogs.tif
176
     1
290
     0
176
     1
 40
1.0
176
     1
 40
1.0
176
     1
  0
VISUALSTYLE
  5
2D
102
{ACAD_REACTORS
330
29
102
}
330
29
100
AcDbVisualStyle
  2
GouraudWithEdges
 70
     3
177
     3
291
     1
 70
    58
 90
        2
176
     1
 90
        2
176
     1
 90
        1
176
     1
 90
        2
176
     1
 40
0.6
176
     1
 40
30.0
176
     1
 62
     7
420
 16777215
176
     1
 90
        1
176
     1
 90
        0
176
     1
 62
     7
176
     1
 62
   257
176
     1
 90
        1
176
     1
 90
        1
176
     1
 40
1.0
176
     1
 90
        0
176
     1
 62
   257
176
     1
 40
1.0
176
     1
 90
        1
176
     1
 90
        6
176
     1
 90
        2
176
     1
 62
     7
176
     1
 90
        5
176
     1
 90
        0
176
     1
 90
        0
176
     1
290
     0
176
     1
 90
       13
176
     1
 40
0.0
176
     1
 90
        0
176
     1
290
     0
176
     1
290
     1
176
     1
290
     1
176
     1
290
     0
176
     1
290
     0
176
     1
290
     0
176
     1
290
     0
176
     1
290
     0
176
     1
290
     0
176
     1
 90
       50
176
     1
 40
0.0
176
     1
 40
1.0
176
     1
 90
        0
176
     1
 62
    18
420
        0
176
     1
 90
       50
176
     1
 90
        3
176
     1
 62
     5
420
      255
176
     1
290
     0
176
     1
 90
       50
176
     1
 90
       50
176
     1
 90
       50
176
     1
290
     0
176
     1
 90
       50
176
     1
 62
   256
176
     0
 40
1.0
176
     0
 90
        2
176
     1
  1
strokes_ogs.tif
176
     1
290
     0
176
     1
 40
1.0
176
     1
 40
1.0
176
     1
  0
VISUALSTYLE
  5
31
102
{ACAD_REACTORS
330
29
102
}
330
29
100
AcDbVisualStyle
  2
Hidden
 70
     6
177
     3
291
     0
 70
    58
 90
        1
176
     1
 90
        2
176
     1
 90
        2
176
     1
 90
        0
176
     1
 40
0.6
176
     1
 40
30.0
176
     1
 62
     7
420
 16777215
176
     1
 90
        2
176
     1
 90
        2
176
     1
 62
     7
176
     1
 62
   257
176
     1
 90
        2
176
     1
 90
        1
176
     1
 40
40.0
176
     1
 90
        0
176
     1
 62
   257
176
     1
 40
1.0
176
     1
 90
        1
176
     1
 90
        6
176
     1
 90
        2
176
     1
 62
     7
176
     1
 90
        3
176
     1
 90
        0
176
     1
 90
        0
176
     1
290
     0
176
     1
 90
        1
176
     1
 40
0.0
176
     1
 90
        0
176
     1
290
     0
176
     1
290
     1
176
     1
290
     1
176
     1
290
     0
176
     1
290
     0
176
     1
290
     0
176
     1
290
     0
176
     1
290
     0
176
     1
290
     0
176
     1
 90
       50
176
     1
 40
0.0
176
     1
 40
1.0
176
     1
 90
        0
176
     1
 62
    18
420
        0
176
     1
 90
       50
176
     1
 90
        3
176
     1
 62
     5
420
      255
176
     1
290
     0
176
     1
 90
       50
176
     1
 90
       50
176
     1
 90
       50
176
     1
290
     0
176
     1
 90
       50
176
     1
 62
   256
176
     0
 40
1.0
176
     0
 90
        2
176
     1
  1
strokes_ogs.tif
176
     1
290
     0
176
     1
 40
1.0
176
     1
 40
1.0
176
     1
  0
VISUALSTYLE
  5
3F
102
{ACAD_REACTORS
330
29
102
}
330
29
100
AcDbVisualStyle
  2
JitterOff
 70
    20
177
     3
291
     1
 70
    58
 90
        2
176
     0
 90
        2
176
     0
 90
        0
176
     0
 90
        0
176
     0
 40
0.6
176
     0
 40
30.0
176
     0
 62
     7
420
 16777215
176
     0
 90
        1
176
     0
 90
        4
176
     0
 62
     7
176
     0
 62
   257
176
     0
 90
        1
176
     0
 90
        1
176
     0
 40
1.0
176
     0
 90
       10
176
     2
 62
     7
176
     0
 40
1.0
176
     0
 90
        1
176
     0
 90
        6
176
     0
 90
        2
176
     0
 62
     7
176
     0
 90
        5
176
     0
 90
        0
176
     0
 90
        0
176
     0
290
     0
176
     0
 90
        1
176
     0
 40
0.0
176
     0
 90
        0
176
     0
290
     0
176
     0
290
     1
176
     0
290
     1
176
     0
290
     0
176
     0
290
     0
176
     0
290
     0
176
     0
290
     0
176
     0
290
     0
176
     0
290
     0
176
     0
 90
       50
176
     0
 40
0.0
176
     0
 40
1.0
176
     0
 90
        0
176
     0
 62
    18
420
        0
176
     0
 90
       50
176
     0
 90
        3
176
     0
 62
     5
420
      255
176
     0
290
     0
176
     0
 90
       50
176
     0
 90
       50
176
     0
 90
       50
176
     0
290
     0
176
     0
 90
       50
176
     0
 62
   256
176
     0
 40
1.0
176
     0
 90
        2
176
     0
  1
strokes_ogs.tif
176
     0
290
     0
176
     0
 40
1.0
176
     0
 40
1.0
176
     0
  0
VISUALSTYLE
  5
37
102
{ACAD_REACTORS
330
29
102
}
330
29
100
AcDbVisualStyle
  2
Linepattern
 70
    14
177
     3
291
     1
 70
    58
 90
        2
176
     1
 90
        2
176
     1
 90
        0
176
     1
 90
        0
176
     1
 40
0.6
176
     1
 40
30.0
176
     1
 62
     7
420
 16777215
176
     1
 90
        1
176
     1
 90
        4
176
     1
 62
     7
176
     1
 62
   257
176
     1
 90
        7
176
     1
 90
        7
176
     1
 40
1.0
176
     1
 90
        8
176
     1
 62
     7
176
     1
 40
1.0
176
     1
 90
        1
176
     1
 90
        6
176
     1
 90
        2
176
     1
 62
     7
176
     1
 90
        5
176
     1
 90
        0
176
     1
 90
        0
176
     1
290
     0
176
     1
 90
        1
176
     1
 40
0.0
176
     1
 90
        0
176
     1
290
     0
176
     1
290
     1
176
     1
290
     1
176
     1
290
     0
176
     1
290
     0
176
     1
290
     0
176
     1
290
     0
176
     1
290
     0
176
     1
290
     0
176
     1
 90
       50
176
     1
 40
0.0
176
     1
 40
1.0
176
     1
 90
        0
176
     1
 62
    18
420
        0
176
     1
 90
       50
176
     1
 90
        3
176
     1
 62
     5
420
      255
176
     1
290
     0
176
     1
 90
       50
176
     1
 90
       50
176
     1
 90
       50
176
     1
290
     0
176
     1
 90
       50
176
     1
 62
   256
176
     0
 40
1.0
176
     0
 90
        2
176
     1
  1
strokes_ogs.tif
176
     1
290
     0
176
     1
 40
1.0
176
     1
 40
1.0
176
     1
  0
VISUALSTYLE
  5
40
102
{ACAD_REACTORS
330
29
102
}
330
29
100
AcDbVisualStyle
  2
OverhangOff
 70
    21
177
     3
291
     1
 70
    58
 90
        2
176
     0
 90
        2
176
     0
 90
        0
176
     0
 90
        0
176
     0
 40
0.6
176
     0
 40
30.0
176
     0
 62
     7
420
 16777215
176
     0
 90
        1
176
     0
 90
        4
176
     0
 62
     7
176
     0
 62
   257
176
     0
 90
        1
176
     0
 90
        1
176
     0
 40
1.0
176
     0
 90
        9
176
     2
 62
     7
176
     0
 40
1.0
176
     0
 90
        1
176
     0
 90
        6
176
     0
 90
        2
176
     0
 62
     7
176
     0
 90
        5
176
     0
 90
        0
176
     0
 90
        0
176
     0
290
     0
176
     0
 90
        1
176
     0
 40
0.0
176
     0
 90
        0
176
     0
290
     0
176
     0
290
     1
176
     0
290
     1
176
     0
290
     0
176
     0
290
     0
176
     0
290
     0
176
     0
290
     0
176
     0
290
     0
176
     0
290
     0
176
     0
 90
       50
176
     0
 40
0.0
176
     0
 40
1.0
176
     0
 90
        0
176
     0
 62
    18
420
        0
176
     0
 90
       50
176
     0
 90
        3
176
     0
 62
     5
420
      255
176
     0
290
     0
176
     0
 90
       50
176
     0
 90
       50
176
     0
 90
       50
176
     0
290
     0
176
     0
 90
       50
176
     0
 62
   256
176
     0
 40
1.0
176
     0
 90
        2
176
     0
  1
strokes_ogs.tif
176
     0
290
     0
176
     0
 40
1.0
176
     0
 40
1.0
176
     0
  0
VISUALSTYLE
  5
33
102
{ACAD_REACTORS
330
29
102
}
330
29
100
AcDbVisualStyle
  2
Realistic
 70
     8
177
     3
291
     0
 70
    58
 90
        2
176
     1
 90
        3
176
     1
 90
        0
176
     1
 90
        2
176
     1
 40
0.6
176
     1
 40
30.0
176
     1
 62
     7
420
 16777215
176
     1
 90
        0
176
     1
 90
        0
176
     1
 62
     7
176
     1
 62
   257
176
     1
 90
        1
176
     1
 90
        1
176
     1
 40
1.0
176
     1
 90
        8
176
     1
 62
   257
176
     1
 40
1.0
176
     1
 90
        1
176
     1
 90
        6
176
     1
 90
        2
176
     1
 62
     7
176
     1
 90
        3
176
     1
 90
        0
176
     1
 90
        0
176
     1
290
     0
176
     1
 90
       13
176
     1
 40
0.0
176
     1
 90
        0
176
     1
290
     0
176
     1
290
     1
176
     1
290
     1
176
     1
290
     0
176
     1
290
     0
176
     1
290
     0
176
     1
290
     0
176
     1
290
     0
176
     1
290
     0
176
     1
 90
       50
176
     1
 40
0.0
176
     1
 40
1.0
176
     1
 90
        0
176
     1
 62
    18
420
        0
176
     1
 90
       50
176
     1
 90
        3
176
     1
 62
     5
420
      255
176
     1
290
     0
176
     1
 90
       50
176
     1
 90
       50
176
     1
 90
       50
176
     1
290
     0
176
     1
 90
       50
176
     1
 62
   256
176
     0
 40
1.0
176
     0
 90
        2
176
     1
  1
strokes_ogs.tif
176
     1
290
     0
176
     1
 40
1.0
176
     1
 40
1.0
176
     1
  0
VISUALSTYLE
  5
3E
102
{ACAD_REACTORS
330
29
102
}
330
29
100
AcDbVisualStyle
  2
Shaded
 70
    27
177
     3
291
     0
 70
    58
 90
        2
176
     1
 90
        2
176
     1
 90
        1
176
     1
 90
        2
176
     1
 40
0.6
176
     1
 40
30.0
176
     1
 62
     7
420
 16777215
176
     1
 90
        0
176
     1
 90
        4
176
     1
 62
     7
176
     1
 62
   257
176
     1
 90
        1
176
     1
 90
        1
176
     1
 40
1.0
176
     1
 90
        8
176
     1
 62
   257
176
     1
 40
1.0
176
     1
 90
        1
176
     1
 90
        6
176
     1
 90
        2
176
     1
 62
     8
420
  7895160
176
     1
 90
        3
176
     1
 90
        0
176
     1
 90
        0
176
     1
290
     0
176
     1
 90
        5
176
     1
 40
0.0
176
     1
 90
        0
176
     1
290
     0
176
     1
290
     1
176
     1
290
     1
176
     1
290
     0
176
     1
290
     0
176
     1
290
     0
176
     1
290
     0
176
     1
290
     0
176
     1
290
     0
176
     1
 90
       50
176
     1
 40
0.0
176
     1
 40
1.0
176
     1
 90
        0
176
     1
 62
    18
420
        0
176
     1
 90
       50
176
     1
 90
        3
176
     1
 62
     5
420
      255
176
     1
290
     0
176
     1
 90
       50
176
     1
 90
       50
176
     1
 90
       50
176
     1
290
     0
176
     1
 90
       50
176
     1
 62
   256
176
     0
 40
1.0
176
     0
 90
        2
176
     1
  1
strokes_ogs.tif
176
     1
290
     0
176
     1
 40
1.0
176
     1
 40
1.0
176
     1
  0
VISUALSTYLE
  5
3D
102
{ACAD_REACTORS
330
29
102
}
330
29
100
AcDbVisualStyle
  2
Shaded with edges
 70
    26
177
     3
291
     0
 70
    58
 90
        2
176
     1
 90
        2
176
     1
 90
        1
176
     1
 90
        2
176
     1
 40
0.6
176
     1
 40
30.0
176
     1
 62
     7
420
 16777215
176
     1
 90
        1
176
     1
 90
        2
176
     1
 62
     7
176
     1
 62
   257
176
     1
 90
        2
176
     1
 90
        1
176
     1
 40
1.0
176
     1
 90
        8
176
     1
 62
   257
176
     1
 40
1.0
176
     1
 90
        1
176
     1
 90
        6
176
     1
 90
        2
176
     1
 62
     7
176
     1
 90
        3
176
     1
 90
        0
176
     1
 90
        0
176
     1
290
     0
176
     1
 90
        5
176
     1
 40
0.0
176
     1
 90
        0
176
     1
290
     0
176
     1
290
     1
176
     1
290
     1
176
     1
290
     0
176
     1
290
     0
176
     1
290
     0
176
     1
290
     0
176
     1
290
     0
176
     1
290
     0
176
     1
 90
       50
176
     1
 40
0.0
176
     1
 40
1.0
176
     1
 90
        0
176
     1
 62
    18
420
        0
176
     1
 90
       50
176
     1
 90
        3
176
     1
 62
     5
420
      255
176
     1
290
     0
176
     1
 90
       50
176
     1
 90
       50
176
     1
 90
       50
176
     1
290
     0
176
     1
 90
       50
176
     1
 62
   256
176
     0
 40
1.0
176
     0
 90
        2
176
     1
  1
strokes_ogs.tif
176
     1
290
     0
176
     1
 40
1.0
176
     1
 40
1.0
176
     1
  0
VISUALSTYLE
  5
3A
102
{ACAD_REACTORS
330
29
102
}
330
29
100
AcDbVisualStyle
  2
Shades of Gray
 70
    23
177
     3
291
     0
 70
    58
 90
        2
176
     1
 90
        2
176
     1
 90
        3
176
     1
 90
        0
176
     1
 40
0.6
176
     1
 40
30.0
176
     1
 62
     7
420
 16777215
176
     1
 90
        2
176
     1
 90
        2
176
     1
 62
     7
176
     1
 62
     7
176
     1
 90
        1
176
     1
 90
        1
176
     1
 40
40.0
176
     1
 90
        8
176
     1
 62
     7
176
     1
 40
1.0
176
     1
 90
        1
176
     1
 90
        6
176
     1
 90
        2
176
     1
 62
     7
176
     1
 90
        3
176
     1
 90
        0
176
     1
 90
        0
176
     1
290
     0
176
     1
 90
        1
176
     1
 40
0.0
176
     1
 90
        0
176
     1
290
     0
176
     1
290
     1
176
     1
290
     1
176
     1
290
     0
176
     1
290
     0
176
     1
290
     0
176
     1
290
     0
176
     1
290
     0
176
     1
290
     0
176
     1
 90
       50
176
     1
 40
0.0
176
     1
 40
1.0
176
     1
 90
        0
176
     1
 62
    18
420
        0
176
     1
 90
       50
176
     1
 90
        3
176
     1
 62
     5
420
      255
176
     1
290
     0
176
     1
 90
       50
176
     1
 90
       50
176
     1
 90
       50
176
     1
290
     0
176
     1
 90
       50
176
     1
 62
   256
176
     0
 40
1.0
176
     0
 90
        2
176
     1
  1
strokes_ogs.tif
176
     1
290
     0
176
     1
 40
1.0
176
     1
 40
1.0
176
     1
  0
VISUALSTYLE
  5
3B
102
{ACAD_REACTORS
330
29
102
}
330
29
100
AcDbVisualStyle
  2
Sketchy
 70
    24
177
     3
291
     0
 70
    58
 90
        1
176
     1
 90
        2
176
     1
 90
        2
176
     1
 90
        0
176
     1
 40
0.6
176
     1
 40
30.0
176
     1
 62
     7
420
 16777215
176
     1
 90
        2
176
     1
 90
        2
176
     1
 62
     7
176
     1
 62
     7
176
     1
 90
        1
176
     1
 90
        1
176
     1
 40
40.0
176
     1
 90
       11
176
     1
 62
     7
176
     1
 40
1.0
176
     1
 90
        1
176
     1
 90
        6
176
     1
 90
        2
176
     1
 62
     7
176
     1
 90
        6
176
     1
 90
        0
176
     1
 90
        0
176
     1
290
     0
176
     1
 90
        1
176
     1
 40
0.0
176
     1
 90
        0
176
     1
290
     0
176
     1
290
     1
176
     1
290
     1
176
     1
290
     0
176
     1
290
     0
176
     1
290
     0
176
     1
290
     0
176
     1
290
     0
176
     1
290
     0
176
     1
 90
       50
176
     1
 40
0.0
176
     1
 40
1.0
176
     1
 90
        0
176
     1
 62
    18
420
        0
176
     1
 90
       50
176
     1
 90
        3
176
     1
 62
     5
420
      255
176
     1
290
     0
176
     1
 90
       50
176
     1
 90
       50
176
     1
 90
       50
176
     1
290
     0
176
     1
 90
       50
176
     1
 62
   256
176
     0
 40
1.0
176
     0
 90
        2
176
     1
  1
strokes_ogs.tif
176
     1
290
     0
176
     1
 40
1.0
176
     1
 40
1.0
176
     1
  0
VISUALSTYLE
  5
36
102
{ACAD_REACTORS
330
29
102
}
330
29
100
AcDbVisualStyle
  2
Thicken
 70
    13
177
     3
291
     1
 70
    58
 90
        2
176
     1
 90
        2
176
     1
 90
        0
176
     1
 90
        0
176
     1
 40
0.6
176
     1
 40
30.0
176
     1
 62
     7
420
 16777215
176
     1
 90
        1
176
     1
 90
        4
176
     1
 62
     7
176
     1
 62
   257
176
     1
 90
        1
176
     1
 90
        1
176
     1
 40
1.0
176
     1
 90
       12
176
     1
 62
     7
176
     1
 40
1.0
176
     1
 90
        1
176
     1
 90
        6
176
     1
 90
        2
176
     1
 62
     7
176
     1
 90
        5
176
     1
 90
        0
176
     1
 90
        0
176
     1
290
     0
176
     1
 90
        1
176
     1
 40
0.0
176
     1
 90
        0
176
     1
290
     0
176
     1
290
     1
176
     1
290
     1
176
     1
290
     0
176
     1
290
     0
176
     1
290
     0
176
     1
290
     0
176
     1
290
     0
176
     1
290
     0
176
     1
 90
       50
176
     1
 40
0.0
176
     1
 40
1.0
176
     1
 90
        0
176
     1
 62
    18
420
        0
176
     1
 90
       50
176
     1
 90
        3
176
     1
 62
     5
420
      255
176
     1
290
     0
176
     1
 90
       50
176
     1
 90
       50
176
     1
 90
       50
176
     1
290
     0
176
     1
 90
       50
176
     1
 62
   256
176
     0
 40
1.0
176
     0
 90
        2
176
     1
  1
strokes_ogs.tif
176
     1
290
     0
176
     1
 40
1.0
176
     1
 40
1.0
176
     1
  0
VISUALSTYLE
  5
30
102
{ACAD_REACTORS
330
29
102
}
330
29
100
AcDbVisualStyle
  2
Wireframe
 70
     5
177
     3
291
     0
 70
    58
 90
        0
176
     1
 90
        2
176
     1
 90
        0
176
     1
 90
        0
176
     1
 40
0.6
176
     1
 40
30.0
176
     1
 62
     7
420
 16777215
176
     1
 90
        1
176
     1
 90
        4
176
     1
 62
     7
176
     1
 62
   257
176
     1
 90
        1
176
     1
 90
        1
176
     1
 40
1.0
176
     1
 90
        0
176
     1
 62
   257
176
     1
 40
1.0
176
     1
 90
        1
176
     1
 90
        6
176
     1
 90
        2
176
     1
 62
     7
176
     1
 90
        3
176
     1
 90
        0
176
     1
 90
        0
176
     1
290
     0
176
     1
 90
        1
176
     1
 40
0.0
176
     1
 90
        0
176
     1
290
     0
176
     1
290
     1
176
     1
290
     1
176
     1
290
     0
176
     1
290
     0
176
     1
290
     0
176
     1
290
     0
176
     1
290
     0
176
     1
290
     0
176
     1
 90
       50
176
     1
 40
0.0
176
     1
 40
1.0
176
     1
 90
        0
176
     1
 62
    18
420
        0
176
     1
 90
       50
176
     1
 90
        3
176
     1
 62
     5
420
      255
176
     1
290
     0
176
     1
 90
       50
176
     1
 90
       50
176
     1
 90
       50
176
     1
290
     0
176
     1
 90
       50
176
     1
 62
   256
176
     0
 40
1.0
176
     0
 90
        2
176
     1
  1
strokes_ogs.tif
176
     1
290
     0
176
     1
 40
1.0
176
     1
 40
1.0
176
     1
  0
VISUALSTYLE
  5
3C
102
{ACAD_REACTORS
330
29
102
}
330
29
100
AcDbVisualStyle
  2
X-Ray
 70
    25
177
     3
291
     0
 70
    58
 90
        2
176
     1
 90
        2
176
     1
 90
        1
176
     1
 90
        1
176
     1
 40
0.5
176
     1
 40
30.0
176
     1
 62
     7
420
 16777215
176
     1
 90
        1
176
     1
 90
        0
176
     1
 62
     7
176
     1
 62
   257
176
     1
 90
        1
176
     1
 90
        1
176
     1
 40
1.0
176
     1
 90
        8
176
     1
 62
     7
176
     1
 40
1.0
176
     1
 90
        1
176
     1
 90
        6
176
     1
 90
        2
176
     1
 62
     7
176
     1
 90
        3
176
     1
 90
        0
176
     1
 90
        0
176
     1
290
     0
176
     1
 90
       13
176
     1
 40
0.0
176
     1
 90
        0
176
     1
290
     0
176
     1
290
     1
176
     1
290
     1
176
     1
290
     0
176
     1
290
     0
176
     1
290
     0
176
     1
290
     0
176
     1
290
     0
176
     1
290
     0
176
     1
 90
       50
176
     1
 40
0.0
176
     1
 40
1.0
176
     1
 90
        0
176
     1
 62
    18
420
        0
176
     1
 90
       50
176
     1
 90
        3
176
     1
 62
     5
420
      255
176
     1
290
     0
176
     1
 90
       50
176
     1
 90
       50
176
     1
 90
       50
176
     1
290
     0
176
     1
 90
       50
176
     1
 62
   256
176
     0
 40
1.0
176
     0
 90
        2
176
     1
  1
strokes_ogs.tif
176
     1
290
     0
176
     1
 40
1.0
176
     1
 40
1.0
176
     1
  0
DICTIONARYVAR
  5
187
102
{ACAD_REACTORS
330
182
102
}
330
182
100
DictionaryVariables
280
     0
  1
1:1
  0
DICTIONARYVAR
  5
184
102
{ACAD_REACTORS
330
182
102
}
330
182
100
DictionaryVariables
280
     0
  1
STANDARD
  0
DICTIONARYVAR
  5
183
102
{ACAD_REACTORS
330
182
102
}
330
182
100
DictionaryVariables
280
     0
  1
STANDARD
  0
DICTIONARYVAR
  5
185
102
{ACAD_REACTORS
330
182
102
}
330
182
100
DictionaryVariables
280
     0
  1
Imperial24
  0
DICTIONARYVAR
  5
186
102
{ACAD_REACTORS
330
182
102
}
330
182
100
DictionaryVariables
280
     0
  1
Imperial24
  0
DICTIONARY
  5
1A
330
19
100
AcDbDictionary
280
     1
281
     1
  3
BUMPTILE
360
1C
  3
DIFFUSETILE
360
1B
  3
OPACITYTILE
360
1F
  3
REFLECTIONTILE
360
1E
  3
REFRACTIONTILE
360
20
  3
SPECULARTILE
360
1D
  0
DICTIONARY
  5
12
330
11
100
AcDbDictionary
280
     1
281
     1
  3
BUMPTILE
360
14
  3
DIFFUSETILE
360
13
  3
OPACITYTILE
360
17
  3
REFLECTIONTILE
360
16
  3
REFRACTIONTILE
360
18
  3
SPECULARTILE
360
15
  0
DICTIONARY
  5
22
330
21
100
AcDbDictionary
280
     1
281
     1
  3
BUMPTILE
360
24
  3
DIFFUSETILE
360
23
  3
OPACITYTILE
360
27
  3
REFLECTIONTILE
360
26
  3
REFRACTIONTILE
360
28
  3
SPECULARTILE
360
25
  0
DICTIONARY
  5
188
330
65
100
AcDbDictionary
280
     1
281
     1
  3
ACAD_ROUNDTRIP_2008_TABLESTYLE_CELLSTYLEMAP
360
189
  0
XRECORD
  5
1C
102
{ACAD_REACTORS
330
1A
102
}
330
1A
100
AcDbXrecord
280
     1
270
     1
271
     1
  0
XRECORD
  5
1B
102
{ACAD_REACTORS
330
1A
102
}
330
1A
100
AcDbXrecord
280
     1
270
     1
271
     1
  0
XRECORD
  5
1F
102
{ACAD_REACTORS
330
1A
102
}
330
1A
100
AcDbXrecord
280
     1
270
     1
271
     1
  0
XRECORD
  5
1E
102
{ACAD_REACTORS
330
1A
102
}
330
1A
100
AcDbXrecord
280
     1
270
     1
271
     1
  0
XRECORD
  5
20
102
{ACAD_REACTORS
330
1A
102
}
330
1A
100
AcDbXrecord
280
     1
270
     1
271
     1
  0
XRECORD
  5
1D
102
{ACAD_REACTORS
330
1A
102
}
330
1A
100
AcDbXrecord
280
     1
270
     1
271
     1
  0
XRECORD
  5
14
102
{ACAD_REACTORS
330
12
102
}
330
12
100
AcDbXrecord
280
     1
270
     1
271
     1
  0
XRECORD
  5
13
102
{ACAD_REACTORS
330
12
102
}
330
12
100
AcDbXrecord
280
     1
270
     1
271
     1
  0
XRECORD
  5
17
102
{ACAD_REACTORS
330
12
102
}
330
12
100
AcDbXrecord
280
     1
270
     1
271
     1
  0
XRECORD
  5
16
102
{ACAD_REACTORS
330
12
102
}
330
12
100
AcDbXrecord
280
     1
270
     1
271
     1
  0
XRECORD
  5
18
102
{ACAD_REACTORS
330
12
102
}
330
12
100
AcDbXrecord
280
     1
270
     1
271
     1
  0
XRECORD
  5
15
102
{ACAD_REACTORS
330
12
102
}
330
12
100
AcDbXrecord
280
     1
270
     1
271
     1
  0
XRECORD
  5
24
102
{ACAD_REACTORS
330
22
102
}
330
22
100
AcDbXrecord
280
     1
270
     1
271
     1
  0
XRECORD
  5
23
102
{ACAD_REACTORS
330
22
102
}
330
22
100
AcDbXrecord
280
     1
270
     1
271
     1
  0
XRECORD
  5
27
102
{ACAD_REACTORS
330
22
102
}
330
22
100
AcDbXrecord
280
     1
270
     1
271
     1
  0
XRECORD
  5
26
102
{ACAD_REACTORS
330
22
102
}
330
22
100
AcDbXrecord
280
     1
270
     1
271
     1
  0
XRECORD
  5
28
102
{ACAD_REACTORS
330
22
102
}
330
22
100
AcDbXrecord
280
     1
270
     1
271
     1
  0
XRECORD
  5
25
102
{ACAD_REACTORS
330
22
102
}
330
22
100
AcDbXrecord
280
     1
270
     1
271
     1
  0
CELLSTYLEMAP
  5
189
102
{ACAD_REACTORS
330
188
102
}
330
188
100
AcDbCellStyleMap
 90
        3
300
CELLSTYLE
  1
TABLEFORMAT_BEGIN
 90
        5
170
     1
 91
        0
 92
    32768
 62
   257
 93
        1
300
CONTENTFORMAT
  1
CONTENTFORMAT_BEGIN
 90
        0
 91
        0
 92
      512
 93
        0
300

 40
0.0
140
1.0
 94
        5
 62
     0
340
55
144
0.25
309
CONTENTFORMAT_END
171
     0
 94
        0
309
TABLEFORMAT_END
  1
CELLSTYLE_BEGIN
 90
        1
 91
        1
300
_TITLE
309
CELLSTYLE_END
300
CELLSTYLE
  1
TABLEFORMAT_BEGIN
 90
        5
170
     1
 91
        0
 92
        0
 62
   257
 93
        1
300
CONTENTFORMAT
  1
CONTENTFORMAT_BEGIN
 90
        0
 91
        0
 92
      512
 93
        0
300

 40
0.0
140
1.0
 94
        5
 62
     0
340
55
144
0.18
309
CONTENTFORMAT_END
171
     0
 94
        0
309
TABLEFORMAT_END
  1
CELLSTYLE_BEGIN
 90
        2
 91
        1
300
_HEADER
309
CELLSTYLE_END
300
CELLSTYLE
  1
TABLEFORMAT_BEGIN
 90
        5
170
     1
 91
        0
 92
        0
 62
   257
 93
        1
300
CONTENTFORMAT
  1
CONTENTFORMAT_BEGIN
 90
        0
 91
        0
 92
      512
 93
        0
300

 40
0.0
140
1.0
 94
        2
 62
     0
340
55
144
0.18
309
CONTENTFORMAT_END
171
     0
 94
        0
309
TABLEFORMAT_END
  1
CELLSTYLE_BEGIN
 90
        3
 91
        2
300
_DATA
309
CELLSTYLE_END
  0
ENDSEC
  0
EOF
