  0
SECTION
  2
HEADER
  9
$ACADVER
  1
AC1009
  9
$INSBASE
 10
0
 20
0
 30
0
  9
$EXTMIN
 10
0
 20
0
  9
$EXTMAX
 10
594
 20
420
  9
$LIMMIN
 10
0
 20
0
  9
$LIMMAX
 10
594
 20
420
  9
$LTSCALE
 40
2
  0
ENDSEC
  0
SECTION
  2
TABLES
  0
TABLE
  2
LTYPE
 70
     9
  0
LTYPE
  2
CONTINUOUS
 70
    64
  3
実線
 72
    65
 73
     0
 40
0.0
  0
LTYPE
  2
DASHED1
 70
    64
  3
--  --  --  --  --  --  --  --  
 72
    65
 73
     2
 40
2.5
 49
1.25
 49
-1.25
  0
LTYPE
  2
DASHED2
 70
    64
  3
----    ----    ----    ----    
 72
    65
 73
     2
 40
5.0
 49
2.5
 49
-2.5
  0
LTYPE
  2
DASHED3
 70
    64
  3
------  ------  ------  ------  
 72
    65
 73
     2
 40
5.0
 49
3.75
 49
-1.25
  0
LTYPE
  2
CENTER1
 70
    64
  3
----- - ----- - ----- - ----- - 
 72
    65
 73
     4
 40
10.0
 49
6.25
 49
-1.25
 49
1.25
 49
-1.25
  0
LTYPE
  2
CENTER2
 70
    64
  3
----------  --  ----------  --  
 72
    65
 73
     4
 40
20.0
 49
12.5
 49
-2.5
 49
2.5
 49
-2.5
  0
LTYPE
  2
PHANTOM1
 70
    64
  3
--- - - --- - - --- - - --- - - 
 72
    65
 73
     6
 40
10.0
 49
3.25
 49
-1.25
 49
1.25
 49
-1.25
 49
1.25
 49
-1.25
  0
LTYPE
  2
PHANTOM2
 70
    64
  3
--------  -  -  --------  -  -  
 72
    65
 73
     6
 40
20.0
 49
10.0
 49
-2.5
 49
1.25
 49
-2.5
 49
1.25
 49
-2.5
  0
LTYPE
  2
DOT
 70
    64
  3
-   -   -   -   -   -   -   -   
 72
    65
 73
     2
 40
2.5
 49
0.625
 49
-1.875
  0
LTYPE
  2
DUMMY
 70
    64
  3
ダミー
 72
    65
 73
     0
 40
0.0
  0
LTYPE
  2
RAND1
 70
    64
  3
ランダム線1
 72
    65
 73
     4
 40
10.0
 49
1.0
 49
-2.0
 49
3.0
 49
-4.0
  0
LTYPE
  2
RAND2
 70
    64
  3
ランダム線2
 72
    65
 73
     4
 40
14.0
 49
2.0
 49
-3.0
 49
4.0
 49
-5.0
  0
LTYPE
  2
RAND3
 70
    64
  3
ランダム線3
 72
    65
 73
     4
 40
18.0
 49
3.0
 49
-4.0
 49
5.0
 49
-6.0
  0
LTYPE
  2
RAND4
 70
    64
  3
ランダム線4
 72
    65
 73
     4
 40
22.0
 49
4.0
 49
-5.0
 49
6.0
 49
-7.0
  0
LTYPE
  2
RAND5
 70
    64
  3
ランダム線5
 72
    65
 73
     4
 40
26.0
 49
5.0
 49
-6.0
 49
7.0
 49
-8.0
  0
LTYPE
  2
LONG1
 70
    64
  3
----------  --  ----------  --  
 72
    65
 73
     4
 40
40.0
 49
32.5
 49
-2.5
 49
2.5
 49
-2.5
  0
LTYPE
  2
LONG2
 70
    64
  3
--------  -  -  --------  -  -  
 72
    65
 73
     6
 40
40.0
 49
30.0
 49
-2.5
 49
1.25
 49
-2.5
 49
1.25
 49
-2.5
  0
LTYPE
  2
LONG3
 70
    64
  3
+++++++++++++++..+++++++++++++++
 72
    65
 73
     2
 40
40.0
 49
37.5
 49
-2.5
  0
LTYPE
  2
LONG4
 70
    64
  3
+++++++++++++++..+++++++++++++++
 72
    65
 73
     2
 40
80.0
 49
75.0
 49
-5.0
  0
LTYPE
  2
LONG5
 70
    64
  3
----------  --  ----------  --  
 72
    65
 73
     4
 40
60.0
 49
37.5
 49
-7.5
 49
7.5
 49
-7.5
  0
LTYPE
  2
dashed
 70
   64
  3
-------   -------------   ------
 72
   65
 73
    2
 40
7.5
 49
6
 49
-1.5
  0
LTYPE
  2
dashed_spaced
 70
   64
  3
----        --------        ----
 72
   65
 73
    2
 40
12
 49
6
 49
-6
  0
LTYPE
  2
long_dashed_dotted
 70
   64
  3
------------- --- --------------
 72
   65
 73
    4
 40
15.25
 49
12
 49
-1.5
 49
0.25
 49
-1.5
  0
LTYPE
  2
long_dashed_double-dotted
 70
   64
  3
----------- --- --- ------------
 72
   65
 73
    6
 40
17
 49
12
 49
-1.5
 49
0.25
 49
-1.5
 49
0.25
 49
-1.5
  0
LTYPE
  2
long_dashed_triplicate-dotted
 70
   64
  3
--------- --- --- --- ----------
 72
   65
 73
    8
 40
18.75
 49
12
 49
-1.5
 49
0.25
 49
-1.5
 49
0.25
 49
-1.5
 49
0.25
 49
-1.5
  0
LTYPE
  2
dotted
 70
   64
  3
   -       -       -       -    
 72
   65
 73
    2
 40
1.75
 49
0.25
 49
-1.5
  0
LTYPE
  2
chain
 70
   64
  3
-------------- -- --------------
 72
   65
 73
    4
 40
18.5
 49
12
 49
-1.5
 49
3.5
 49
-1.5
  0
LTYPE
  2
chain_double_dash
 70
   64
  3
------------ -- -- -------------
 72
   65
 73
    6
 40
23.5
 49
12
 49
-1.5
 49
3.5
 49
-1.5
 49
3.5
 49
-1.5
  0
LTYPE
  2
dashed_dotted
 70
   64
  3
-----------     -     ----------
 72
   65
 73
    4
 40
9.25
 49
6
 49
-1.5
 49
0.25
 49
-1.5
  0
LTYPE
  2
double-dashed_dotted
 70
   64
  3
------   -----------   -   -----
 72
   65
 73
    6
 40
16.75
 49
6
 49
-1.5
 49
6
 49
-1.5
 49
0.25
 49
-1.5
  0
LTYPE
  2
dashed_double-dotted
 70
   64
  3
---------    -    -    ---------
 72
   65
 73
    6
 40
11
 49
6
 49
-1.5
 49
0.25
 49
-1.5
 49
0.25
 49
-1.5
  0
LTYPE
  2
double-dashed_double-dotted
 70
   64
  3
-----   ---------   -   -   ----
 72
   65
 73
    8
 40
18.5
 49
6
 49
-1.5
 49
6
 49
-1.5
 49
0.25
 49
-1.5
 49
0.25
 49
-1.5
  0
LTYPE
  2
dashed_triplicate-dotted
 70
   64
  3
-------    -    -    -    ------
 72
   65
 73
    8
 40
12.75
 49
6
 49
-1.5
 49
0.25
 49
-1.5
 49
0.25
 49
-1.5
 49
0.25
 49
-1.5
  0
LTYPE
  2
double-dashed_triplicate-dotted
 70
   64
  3
-----  ---------  -  -  -  -----
 72
   65
 73
   10
 40
20.25
 49
6
 49
-1.5
 49
6
 49
-1.5
 49
0.25
 49
-1.5
 49
0.25
 49
-1.5
 49
0.25
 49
-1.5
  0
LTYPE
  2
undefined
 70
   64
  3
--------------------------------
 72
   65
 73
    0
 40
0
  0
LTYPE
  2
_
 70
   64
  3
                                
 72
   65
 73
    0
 40
0
  0
LTYPE
  2
__18
 70
   64
  3
                                
 72
   65
 73
    0
 40
0
  0
LTYPE
  2
__19
 70
   64
  3
                                
 72
   65
 73
    0
 40
0
  0
LTYPE
  2
__20
 70
   64
  3
                                
 72
   65
 73
    0
 40
0
  0
LTYPE
  2
__21
 70
   64
  3
                                
 72
   65
 73
    0
 40
0
  0
LTYPE
  2
__22
 70
   64
  3
                                
 72
   65
 73
    0
 40
0
  0
LTYPE
  2
__23
 70
   64
  3
                                
 72
   65
 73
    0
 40
0
  0
LTYPE
  2
__24
 70
   64
  3
                                
 72
   65
 73
    0
 40
0
  0
LTYPE
  2
__25
 70
   64
  3
                                
 72
   65
 73
    0
 40
0
  0
LTYPE
  2
__26
 70
   64
  3
                                
 72
   65
 73
    0
 40
0
  0
LTYPE
  2
__27
 70
   64
  3
                                
 72
   65
 73
    0
 40
0
  0
LTYPE
  2
__28
 70
   64
  3
                                
 72
   65
 73
    0
 40
0
  0
LTYPE
  2
__29
 70
   64
  3
                                
 72
   65
 73
    0
 40
0
  0
LTYPE
  2
__30
 70
   64
  3
                                
 72
   65
 73
    0
 40
0
  0
LTYPE
  2
__31
 70
   64
  3
                                
 72
   65
 73
    0
 40
0
  0
LTYPE
  2
__32
 70
   64
  3
                                
 72
   65
 73
    0
 40
0
  0
ENDTAB
  0
TABLE
  2
STYLE
  5
3
100
AcDbSymbolTable
 70
     1
  0
STYLE
  5
10
100
AcDbSymbolTableRecord
100
AcDbTextStyleTableRecord
  2
STANDARD
 70
     0
 40
0.0
 41
1.0
 50
0.0
 71
     0
 42
0.2
  3
txt
  4
bigfont.shx
  0
STYLE
  5
26
100
AcDbSymbolTableRecord
100
AcDbTextStyleTableRecord
  2
TATEGAKI
 70
    68
 40
0.0
 41
1.0
 50
0.0
 71
     0
 42
1.0
  3
txt
  4
bigfont.shx
  0
ENDTAB
  0
TABLE
  2
LAYER
 70
    2
  0
LAYER
  2
_0-0_
 70
   64
 62
    7
  6
CONTINUOUS
  0
LAYER
  2
ADD_LINE
 70
   64
 62
    7
  6
CONTINUOUS
  0
ENDTAB
  0
ENDSEC
  0
SECTION
  2
BLOCKS
  0
ENDSEC
  0
SECTION
  2
ENTITIES
  0
LINE
  8
_0-0_
  6
CONTINUOUS
 62
    7
 10
252.60468718392468
 20
99.895838410992226
 11
207.60468718392468
 21
99.895838410992226
  0
LINE
  8
_0-0_
  6
CONTINUOUS
 62
    7
 10
207.60468718392468
 20
99.895838410992226
 11
207.60468718392468
 21
92.895838410992226
  0
LINE
  8
_0-0_
  6
CONTINUOUS
 62
    7
 10
207.60468718392468
 20
92.895838410992226
 11
252.60468718392468
 21
92.895838410992226
  0
LINE
  8
_0-0_
  6
CONTINUOUS
 62
    7
 10
252.60468718392468
 20
92.895838410992226
 11
252.60468718392468
 21
99.895838410992226
  0
CIRCLE
  8
_0-0_
  6
CONTINUOUS
 62
    7
 10
230.10468718392468
 20
137.85639354987034
 40
30
  0
CIRCLE
  8
_0-0_
  6
CONTINUOUS
 62
    7
 10
230.10468718392468
 20
137.85639354987034
 40
20
  0
CIRCLE
  8
_0-0_
  6
CONTINUOUS
 62
    4
 10
230.10468718392468
 20
137.85639354987034
 40
21
  0
LINE
  8
_0-0_
  6
CONTINUOUS
 62
    7
 10
252.60468718392468
 20
216.48463306635977
 11
207.60468718392468
 21
216.48463306635977
  0
LINE
  8
_0-0_
  6
CONTINUOUS
 62
    7
 10
207.60468718392468
 20
216.48463306635977
 11
207.60468718392468
 21
209.48463306635977
  0
LINE
  8
_0-0_
  6
CONTINUOUS
 62
    7
 10
207.60468718392468
 20
209.48463306635977
 11
252.60468718392468
 21
209.48463306635977
  0
LINE
  8
_0-0_
  6
CONTINUOUS
 62
    7
 10
252.60468718392468
 20
209.48463306635977
 11
252.60468718392468
 21
216.48463306635977
  0
CIRCLE
  8
_0-0_
  6
CONTINUOUS
 62
    7
 10
230.10468718392468
 20
254.44518820523791
 40
31
  0
CIRCLE
  8
_0-0_
  6
CONTINUOUS
 62
    4
 10
230.10468718392468
 20
254.44518820523791
 40
28
  0
LINE
  8
_0-0_
  6
CONTINUOUS
 62
    7
 10
245.97386108340202
 20
239.9393507682559
 11
245.08224666693394
 21
240.45412459161701
  0
LINE
  8
_0-0_
  6
CONTINUOUS
 62
    7
 10
244.6105246209068
 20
238.57601430576067
 11
244.09575079754557
 21
239.46762872222876
  0
ARC
  8
_0-0_
  6
CONTINUOUS
 62
    7
 10
247.06144893697631
 20
237.48842645218638
 40
3.565474313462841
 50
123.71774729193273
 51
146.28225270806731
  0
LINE
  8
_0-0_
  6
CONTINUOUS
 62
    7
 10
215.59884974694267
 20
270.31436210471525
 11
216.11362357030378
 21
269.42274768824705
  0
LINE
  8
_0-0_
  6
CONTINUOUS
 62
    7
 10
214.23551328444744
 20
268.95102564222003
 11
215.12712770091553
 21
268.43625181885869
  0
ARC
  8
_0-0_
  6
CONTINUOUS
 62
    7
 10
213.14792543087315
 20
271.40194995828943
 40
3.565474313462841
 50
303.71774729193271
 51
326.28225270806723
  0
LINE
  8
_0-0_
  6
CONTINUOUS
 62
    7
 10
215.59884974694267
 20
238.57601430576067
 11
216.1136235703039
 21
239.46762872222876
  0
LINE
  8
_0-0_
  6
CONTINUOUS
 62
    7
 10
214.23551328444744
 20
239.93935076825579
 11
215.12712770091553
 21
240.45412459161701
  0
ARC
  8
_0-0_
  6
CONTINUOUS
 62
    7
 10
213.14792543087315
 20
237.48842645218638
 40
3.565474313462841
 50
33.717747291932717
 51
56.282252708067289
  0
LINE
  8
_0-0_
  6
CONTINUOUS
 62
    7
 10
245.97386108340191
 20
268.9510256422198
 11
245.08224666693382
 21
268.43625181885869
  0
LINE
  8
_0-0_
  6
CONTINUOUS
 62
    7
 10
244.61052462090668
 20
270.31436210471503
 11
244.09575079754557
 21
269.42274768824705
  0
ARC
  8
_0-0_
  6
CONTINUOUS
 62
    7
 10
247.0614489369762
 20
271.40194995828943
 40
3.565474313462841
 50
213.71774729193279
 51
236.2822527080674
  0
ARC
  8
_0-0_
  6
CONTINUOUS
 62
    7
 10
230.10468718392468
 20
254.44518820523791
 40
21.5
 50
227.5699096511245
 51
312.43009034887586
  0
ARC
  8
_0-0_
  6
CONTINUOUS
 62
    7
 10
230.10468718392468
 20
254.44518820523791
 40
21.5
 50
317.56990965112441
 51
42.43009034887563
  0
ARC
  8
_0-0_
  6
CONTINUOUS
 62
    7
 10
230.10468718392468
 20
254.44518820523791
 40
21.5
 50
137.56990965112422
 51
222.43009034887563
  0
ARC
  8
_0-0_
  6
CONTINUOUS
 62
    7
 10
230.10468718392468
 20
254.44518820523791
 40
21.5
 50
47.569909651124497
 51
132.43009034887543
  0
LINE
  8
_0-0_
  6
CONTINUOUS
 62
    4
 10
230.10468718392468
 20
293.45782811083023
 11
230.10468718392468
 21
297.03952320764898
  0
LINE
  8
_0-0_
  6
CONTINUOUS
 62
    7
 10
199.10468718392465
 20
296.45782811083023
 11
261.10468718392468
 21
296.45782811083023
  0
LINE
  8
_0-0_
  6
CONTINUOUS
 62
    7
 10
199.10468718392465
 20
298.98945316484565
 11
199.10468718392465
 21
296.45782811083023
  0
ARC
  8
_0-0_
  6
CONTINUOUS
 62
    7
 10
200.10468718392468
 20
298.98945316484565
 40
1
 50
129.80557109226521
 51
180
  0
LINE
  8
_0-0_
  6
CONTINUOUS
 62
    7
 10
261.10468718392468
 20
298.98945316484565
 11
261.10468718392468
 21
296.45782811083023
  0
ARC
  8
_0-0_
  6
CONTINUOUS
 62
    7
 10
257.74263724874327
 20
300.95782811083023
 40
1
 50
50.194428907734874
 51
90.000000000000056
  0
LINE
  8
_0-0_
  6
CONTINUOUS
 62
    7
 10
260.74487158358914
 20
299.75767444444301
 11
258.38282164840785
 21
301.72604939042759
  0
ARC
  8
_0-0_
  6
CONTINUOUS
 62
    7
 10
260.10468718392468
 20
298.98945316484565
 40
1
 50
0
 51
50.194428907734796
  0
LINE
  8
_0-0_
  6
CONTINUOUS
 62
    7
 10
199.4645027842601
 20
299.75767444444301
 11
201.8265527194415
 21
301.72604939042759
  0
LINE
  8
_0-0_
  6
CONTINUOUS
 62
    7
 10
257.74263724874327
 20
301.95782811083023
 11
202.46673711910608
 21
301.95782811083023
  0
ARC
  8
_0-0_
  6
CONTINUOUS
 62
    7
 10
202.46673711910608
 20
300.95782811083023
 40
1
 50
90
 51
129.80557109226512
  0
LINE
  8
_0-0_
  6
DASHED1
 62
    4
 10
208.60468718392468
 20
296.45782811083023
 11
208.60468718392468
 21
301.95782811083023
  0
LINE
  8
_0-0_
  6
DASHED1
 62
    4
 10
251.60468718392468
 20
296.45782811083023
 11
251.60468718392468
 21
301.95782811083023
  0
LINE
  8
_0-0_
  6
CONTINUOUS
 62
    4
 10
261.10468682149786
 20
316.95782811083023
 11
199.10468682149783
 21
316.95782811083023
  0
LINE
  8
_0-0_
  6
CONTINUOUS
 62
    7
 10
261.10468682149786
 20
316.95782811083023
 11
258.20690934263058
 21
316.18137097552249
  0
LINE
  8
_0-0_
  6
CONTINUOUS
 62
    7
 10
261.10468682149786
 20
316.95782811083023
 11
258.20690934263058
 21
317.73428524613774
  0
LINE
  8
_0-0_
  6
CONTINUOUS
 62
    7
 10
199.10468682149783
 20
316.95782811083023
 11
202.00246430036503
 21
317.73428524613774
  0
LINE
  8
_0-0_
  6
CONTINUOUS
 62
    7
 10
199.10468682149783
 20
316.95782811083023
 11
202.00246430036503
 21
316.18137097552249
  0
LINE
  8
_0-0_
  6
CONTINUOUS
 62
    4
 10
261.10468682149786
 20
301.95782811083023
 11
261.10468682149786
 21
316.95782811083023
  0
LINE
  8
_0-0_
  6
CONTINUOUS
 62
    4
 10
199.10468682149783
 20
301.95782811083023
 11
199.10468682149783
 21
316.95782811083023
  0
LINE
  8
_0-0_
  6
CENTER1
 62
    4
 10
230.10468718392468
 20
312.0783002077913
 11
230.10468718392468
 21
219.65062856428352
  0
LINE
  8
_0-0_
  6
CONTINUOUS
 62
    7
 10
200.10468718392468
 20
181.01177407117103
 11
260.10468718392468
 21
181.01177407117103
  0
LINE
  8
_0-0_
  6
CONTINUOUS
 62
    7
 10
200.10468718392468
 20
184.01177407117103
 11
200.10468718392468
 21
181.01177407117103
  0
LINE
  8
_0-0_
  6
CONTINUOUS
 62
    7
 10
260.10468718392468
 20
184.01177407117103
 11
260.10468718392468
 21
181.01177407117103
  0
LINE
  8
_0-0_
  6
CONTINUOUS
 62
    4
 10
230.10468718392468
 20
181.01177407117103
 11
230.10468718392468
 21
175.01177407117103
  0
LINE
  8
_0-0_
  6
CONTINUOUS
 62
    7
 10
207.35468718392468
 20
181.01177407117103
 11
207.35468718392468
 21
175.01177407117103
  0
LINE
  8
_0-0_
  6
CONTINUOUS
 62
    7
 10
207.35468718392468
 20
175.01177407117103
 11
252.85468718392468
 21
175.01177407117103
  0
LINE
  8
_0-0_
  6
CONTINUOUS
 62
    7
 10
252.85468718392468
 20
181.01177407117103
 11
252.85468718392468
 21
175.01177407117103
  0
LINE
  8
_0-0_
  6
CONTINUOUS
 62
    7
 10
200.10468718392468
 20
184.01177407117103
 11
260.10468718392468
 21
184.01177407117103
  0
LINE
  8
_0-0_
  6
DASHED1
 62
    4
 10
250.10468718392468
 20
175.01177407117103
 11
250.10468718392468
 21
184.01177407117103
  0
LINE
  8
_0-0_
  6
DASHED1
 62
    4
 10
210.10468718392468
 20
175.01177407117103
 11
210.10468718392468
 21
184.01177407117103
  0
LINE
  8
_0-0_
  6
CONTINUOUS
 62
    4
 10
260.10468682149786
 20
199.01177407117103
 11
200.10468682149786
 21
199.01177407117103
  0
LINE
  8
_0-0_
  6
CONTINUOUS
 62
    7
 10
260.10468682149786
 20
199.01177407117103
 11
257.20690934263058
 21
198.2353169358634
  0
LINE
  8
_0-0_
  6
CONTINUOUS
 62
    7
 10
260.10468682149786
 20
199.01177407117103
 11
257.20690934263058
 21
199.78823120647854
  0
LINE
  8
_0-0_
  6
CONTINUOUS
 62
    7
 10
200.10468682149786
 20
199.01177407117103
 11
203.00246430036503
 21
199.78823120647854
  0
LINE
  8
_0-0_
  6
CONTINUOUS
 62
    7
 10
200.10468682149786
 20
199.01177407117103
 11
203.00246430036503
 21
198.2353169358634
  0
LINE
  8
_0-0_
  6
CONTINUOUS
 62
    4
 10
260.10468682149786
 20
184.01177407117103
 11
260.10468682149786
 21
199.01177407117103
  0
LINE
  8
_0-0_
  6
CONTINUOUS
 62
    4
 10
200.10468682149786
 20
184.01177407117103
 11
200.10468682149786
 21
199.01177407117103
  0
LINE
  8
_0-0_
  6
CENTER1
 62
    4
 10
230.10468718392468
 20
193.74324340909589
 11
230.10468718392468
 21
103.77902840011195
  0
TEXT
  8
_0-0_
 62
    7
 10
218.10468718392468
 20
94.395838410992226
 40
4
 41
1
 50
0
  1
座付きナット
  0
TEXT
  8
_0-0_
 62
    7
 10
218.10468718392468
 20
210.98463306635977
 40
4
 41
1
 50
0
  1
樹脂パッキン
  0
TEXT
  8
_0-0_
 62
    7
 10
254.60468718392468
 20
94.395838410992226
 40
4
 41
1
 50
0
  1
S=1/2
  0
TEXT
  8
_0-0_
 62
    7
 10
254.60468718392468
 20
210.98463306635977
 40
4
 41
1
 50
0
  1
S=1/2
  0
LINE
  8
_0-0_
  6
CONTINUOUS
 62
    4
 10
140.71142896808746
 20
249.30820204595516
 11
203.98435713900659
 21
334.74963423337641
  0
LINE
  8
_0-0_
  6
CONTINUOUS
 62
    4
 10
241.65169256771719
 20
160.85639354987034
 11
218.55768180013222
 21
160.85639354987034
  0
ARC
  8
_0-0_
  6
CONTINUOUS
 62
    4
 10
218.55768180013222
 20
157.85639354987034
 40
3
 50
90
 51
149.99999999999982
  0
LINE
  8
_0-0_
  6
CONTINUOUS
 62
    4
 10
204.41260020498629
 20
139.35639354987034
 11
215.95960558877891
 21
159.35639354987034
  0
ARC
  8
_0-0_
  6
CONTINUOUS
 62
    4
 10
207.0106764163396
 20
137.85639354987034
 40
3
 50
149.99999999999977
 51
209.99999999999997
  0
LINE
  8
_0-0_
  6
CONTINUOUS
 62
    4
 10
215.95960558877885
 20
116.35639354987036
 11
204.41260020498629
 21
136.35639354987034
  0
ARC
  8
_0-0_
  6
CONTINUOUS
 62
    4
 10
218.55768180013217
 20
117.85639354987036
 40
3
 50
210.00000000000005
 51
270
  0
LINE
  8
_0-0_
  6
CONTINUOUS
 62
    4
 10
218.55768180013217
 20
114.85639354987036
 11
241.65169256771719
 21
114.85639354987036
  0
ARC
  8
_0-0_
  6
CONTINUOUS
 62
    4
 10
241.65169256771719
 20
117.85639354987036
 40
3
 50
270
 51
329.99999999999988
  0
LINE
  8
_0-0_
  6
CONTINUOUS
 62
    4
 10
244.2497687790705
 20
116.35639354987036
 11
255.79677416286307
 21
136.35639354987023
  0
ARC
  8
_0-0_
  6
CONTINUOUS
 62
    4
 10
253.19869795150975
 20
137.85639354987023
 40
3
 50
329.99999999999994
 51
30.000000000000042
  0
LINE
  8
_0-0_
  6
CONTINUOUS
 62
    4
 10
255.79677416286307
 20
139.35639354987023
 11
244.2497687790705
 21
159.35639354987034
  0
ARC
  8
_0-0_
  6
CONTINUOUS
 62
    4
 10
241.65169256771719
 20
157.85639354987034
 40
3
 50
29.999999999999964
 51
90
  0
LINE
  8
_0-0_
  6
CENTER1
 62
    4
 10
270.93103960395609
 20
137.85639354987034
 11
183.64334067305557
 21
137.85639354987034
  0
TEXT
  8
_0-0_
 62
    7
 10
208.10468718392468
 20
332.69471992418044
 40
4
 41
1
 50
0
  1
スチロールパッキンφ60
  0
LINE
  8
_0-0_
  6
CONTINUOUS
 62
    7
 10
204.60468718392468
 20
338.19471992418044
 11
204.60468718392468
 21
331.19471992418044
  0
LINE
  8
_0-0_
  6
CONTINUOUS
 62
    7
 10
255.60468718392468
 20
338.19471992418044
 11
204.60468718392468
 21
338.19471992418044
  0
LINE
  8
_0-0_
  6
CONTINUOUS
 62
    7
 10
255.60468718392468
 20
331.19471992418044
 11
255.60468718392468
 21
338.19471992418044
  0
LINE
  8
_0-0_
  6
CONTINUOUS
 62
    7
 10
204.60468718392468
 20
331.19471992418044
 11
255.60468718392468
 21
331.19471992418044
  0
TEXT
  8
_0-0_
 62
    4
 10
225.10468682149786
 20
317.95782811083023
 40
5
 41
1
 50
0
  1
φ62
  0
TEXT
  8
_0-0_
 62
    4
 10
225.10468682149786
 20
200.01177407117103
 40
5
 41
1
 50
0
  1
φ60
  0
LINE
  8
_0-0_
  6
CONTINUOUS
 62
    7
 10
91.874810448852286
 20
191.69919139568196
 11
93.374810448852286
 21
190.50259201056974
  0
LINE
  8
_0-0_
  6
CONTINUOUS
 62
    7
 10
93.374810448852286
 20
190.50259201056974
 11
91.874810448852286
 21
189.19755889051987
  0
LINE
  8
_0-0_
  6
CONTINUOUS
 62
    7
 10
91.874810448852286
 20
189.19755889051987
 11
93.374810448852286
 21
188.00095950540764
  0
LINE
  8
_0-0_
  6
CONTINUOUS
 62
    7
 10
105.12481044885228
 20
266.6819044766558
 11
105.12481044885228
 21
257.68190447665591
  0
LINE
  8
_0-0_
  6
CONTINUOUS
 62
    7
 10
120.12481044885228
 20
266.6819044766558
 11
120.12481044885228
 21
257.68190447665591
  0
LINE
  8
_0-0_
  6
CONTINUOUS
 62
    7
 10
82.124810448852286
 20
247.68190447665591
 11
143.12481044885228
 21
247.68190447665591
  0
LINE
  8
_0-0_
  6
CONTINUOUS
 62
    7
 10
143.12481044885228
 20
253.68190447665591
 11
143.12481044885228
 21
247.68190447665591
  0
LINE
  8
_0-0_
  6
CONTINUOUS
 62
    7
 10
82.124810448852286
 20
253.68190447665591
 11
143.12481044885228
 21
253.68190447665591
  0
LINE
  8
_0-0_
  6
CONTINUOUS
 62
    7
 10
82.124810448852286
 20
253.68190447665591
 11
82.124810448852286
 21
247.68190447665591
  0
LINE
  8
_0-0_
  6
CONTINUOUS
 62
    7
 10
91.874810448852286
 20
237.68190447665591
 11
133.37481044885228
 21
237.68190447665591
  0
LINE
  8
_0-0_
  6
CONTINUOUS
 62
    7
 10
93.374810448852286
 20
228.02707958800124
 11
91.874810448852286
 21
226.72204646795137
  0
LINE
  8
_0-0_
  6
CONTINUOUS
 62
    7
 10
91.874810448852286
 20
226.72204646795137
 11
93.374810448852286
 21
225.52544708283915
  0
LINE
  8
_0-0_
  6
CONTINUOUS
 62
    7
 10
93.374810448852286
 20
225.52544708283915
 11
91.874810448852286
 21
224.22041396278928
  0
LINE
  8
_0-0_
  6
CONTINUOUS
 62
    7
 10
91.874810448852286
 20
224.22041396278928
 11
93.374810448852286
 21
223.023814577677
  0
LINE
  8
_0-0_
  6
CONTINUOUS
 62
    7
 10
93.374810448852286
 20
223.023814577677
 11
91.874810448852286
 21
221.71878145762718
  0
LINE
  8
_0-0_
  6
CONTINUOUS
 62
    7
 10
91.874810448852286
 20
221.71878145762718
 11
93.374810448852286
 21
220.5221820725149
  0
LINE
  8
_0-0_
  6
CONTINUOUS
 62
    7
 10
93.374810448852286
 20
220.5221820725149
 11
91.874810448852286
 21
219.21714895246509
  0
LINE
  8
_0-0_
  6
CONTINUOUS
 62
    7
 10
91.874810448852286
 20
219.21714895246509
 11
93.374810448852286
 21
218.02054956735281
  0
LINE
  8
_0-0_
  6
CONTINUOUS
 62
    7
 10
93.374810448852286
 20
218.02054956735281
 11
91.874810448852286
 21
216.71551644730294
  0
LINE
  8
_0-0_
  6
CONTINUOUS
 62
    7
 10
91.874810448852286
 20
216.71551644730294
 11
93.374810448852286
 21
215.51891706219072
  0
LINE
  8
_0-0_
  6
CONTINUOUS
 62
    7
 10
93.374810448852286
 20
215.51891706219072
 11
91.874810448852286
 21
214.21388394214085
  0
LINE
  8
_0-0_
  6
CONTINUOUS
 62
    7
 10
91.874810448852286
 20
214.21388394214085
 11
93.374810448852286
 21
213.01728455702863
  0
LINE
  8
_0-0_
  6
CONTINUOUS
 62
    7
 10
93.374810448852286
 20
213.01728455702863
 11
91.874810448852286
 21
211.71225143697876
  0
LINE
  8
_0-0_
  6
CONTINUOUS
 62
    7
 10
91.874810448852286
 20
196.7024564060062
 11
93.374810448852286
 21
195.50585702089392
  0
LINE
  8
_0-0_
  6
CONTINUOUS
 62
    7
 10
93.374810448852286
 20
195.50585702089392
 11
91.874810448852286
 21
194.20082390084411
  0
LINE
  8
_0-0_
  6
CONTINUOUS
 62
    7
 10
91.874810448852286
 20
194.20082390084411
 11
93.374810448852286
 21
193.00422451573183
  0
LINE
  8
_0-0_
  6
CONTINUOUS
 62
    7
 10
93.374810448852286
 20
193.00422451573183
 11
91.874810448852286
 21
191.69919139568196
  0
LINE
  8
_0-0_
  6
CONTINUOUS
 62
    7
 10
91.874810448852286
 20
229.22367897311346
 11
93.374810448852286
 21
228.02707958800124
  0
LINE
  8
_0-0_
  6
CONTINUOUS
 62
    7
 10
131.87481044885228
 20
229.41864585303386
 11
133.37481044885228
 21
228.11361273298399
  0
LINE
  8
_0-0_
  6
CONTINUOUS
 62
    7
 10
133.37481044885228
 20
228.11361273298399
 11
131.87481044885228
 21
226.91701334787171
  0
LINE
  8
_0-0_
  6
CONTINUOUS
 62
    7
 10
131.87481044885228
 20
226.91701334787171
 11
133.37481044885228
 21
225.61198022782184
  0
LINE
  8
_0-0_
  6
CONTINUOUS
 62
    7
 10
133.37481044885228
 20
225.61198022782184
 11
131.87481044885228
 21
224.41538084270962
  0
LINE
  8
_0-0_
  6
CONTINUOUS
 62
    7
 10
131.87481044885228
 20
224.41538084270956
 11
133.37481044885228
 21
223.11034772265969
  0
LINE
  8
_0-0_
  6
CONTINUOUS
 62
    7
 10
133.37481044885228
 20
223.11034772265969
 11
131.87481044885228
 21
221.91374833754747
  0
LINE
  8
_0-0_
  6
CONTINUOUS
 62
    7
 10
131.87481044885228
 20
221.91374833754747
 11
133.37481044885228
 21
220.6087152174976
  0
LINE
  8
_0-0_
  6
CONTINUOUS
 62
    7
 10
133.37481044885228
 20
220.6087152174976
 11
131.87481044885228
 21
219.41211583238538
  0
LINE
  8
_0-0_
  6
CONTINUOUS
 62
    7
 10
131.87481044885228
 20
219.41211583238532
 11
133.37481044885228
 21
218.10708271233551
  0
LINE
  8
_0-0_
  6
CONTINUOUS
 62
    7
 10
133.37481044885228
 20
218.10708271233551
 11
131.87481044885228
 21
216.91048332722328
  0
LINE
  8
_0-0_
  6
CONTINUOUS
 62
    7
 10
131.87481044885228
 20
216.91048332722323
 11
133.37481044885228
 21
215.60545020717336
  0
LINE
  8
_0-0_
  6
CONTINUOUS
 62
    7
 10
133.37481044885228
 20
215.60545020717336
 11
131.87481044885228
 21
214.40885082206114
  0
LINE
  8
_0-0_
  6
CONTINUOUS
 62
    7
 10
131.87481044885228
 20
214.40885082206108
 11
133.37481044885228
 21
213.10381770201121
  0
LINE
  8
_0-0_
  6
CONTINUOUS
 62
    7
 10
133.37481044885228
 20
213.10381770201121
 11
131.87481044885228
 21
211.90721831689899
  0
LINE
  8
_0-0_
  6
CONTINUOUS
 62
    7
 10
131.87481044885228
 20
196.89742328592626
 11
133.37481044885228
 21
195.59239016587639
  0
LINE
  8
_0-0_
  6
CONTINUOUS
 62
    7
 10
133.37481044885228
 20
195.59239016587639
 11
131.87481044885228
 21
194.39579078076417
  0
LINE
  8
_0-0_
  6
CONTINUOUS
 62
    7
 10
131.87481044885228
 20
194.39579078076411
 11
133.37481044885228
 21
193.09075766071424
  0
LINE
  8
_0-0_
  6
CONTINUOUS
 62
    7
 10
133.37481044885228
 20
193.09075766071424
 11
131.87481044885228
 21
191.89415827560202
  0
LINE
  8
_0-0_
  6
CONTINUOUS
 62
    7
 10
131.87481044885228
 20
191.89415827560202
 11
133.37481044885228
 21
190.58912515555215
  0
LINE
  8
_0-0_
  6
CONTINUOUS
 62
    7
 10
133.37481044885228
 20
190.58912515555215
 11
131.87481044885228
 21
189.39252577043993
  0
LINE
  8
_0-0_
  6
CONTINUOUS
 62
    7
 10
131.87481044885228
 20
189.39252577043987
 11
133.37481044885228
 21
188.08749265039006
  0
LINE
  8
_0-0_
  6
CONTINUOUS
 62
    7
 10
131.87481044885228
 20
229.4186458530338
 11
93.374810448852286
 21
228.02707958800124
  0
LINE
  8
_0-0_
  6
CONTINUOUS
 62
    7
 10
131.87481044885228
 20
189.39252577043993
 11
93.374810448852286
 21
188.00095950540736
  0
LINE
  8
_0-0_
  6
CONTINUOUS
 62
    7
 10
131.87481044885228
 20
191.89415827560202
 11
93.374810448852286
 21
190.50259201056945
  0
LINE
  8
_0-0_
  6
CONTINUOUS
 62
    7
 10
131.87481044885228
 20
194.39579078076411
 11
93.374810448852286
 21
193.00422451573155
  0
LINE
  8
_0-0_
  6
CONTINUOUS
 62
    7
 10
131.87481044885228
 20
196.89742328592626
 11
93.374810448852286
 21
195.50585702089364
  0
LINE
  8
_0-0_
  6
CONTINUOUS
 62
    7
 10
131.87481044885228
 20
214.40885082206108
 11
93.374810448852286
 21
213.01728455702846
  0
LINE
  8
_0-0_
  6
CONTINUOUS
 62
    7
 10
131.87481044885228
 20
216.91048332722317
 11
93.374810448852286
 21
215.51891706219061
  0
LINE
  8
_0-0_
  6
CONTINUOUS
 62
    7
 10
131.87481044885228
 20
219.41211583238526
 11
93.374810448852286
 21
218.0205495673527
  0
LINE
  8
_0-0_
  6
CONTINUOUS
 62
    7
 10
131.87481044885228
 20
221.91374833754747
 11
93.374810448852286
 21
220.5221820725149
  0
LINE
  8
_0-0_
  6
CONTINUOUS
 62
    7
 10
131.87481044885228
 20
224.41538084270962
 11
93.374810448852286
 21
223.023814577677
  0
LINE
  8
_0-0_
  6
CONTINUOUS
 62
    7
 10
131.87481044885228
 20
226.91701334787171
 11
93.374810448852286
 21
225.52544708283915
  0
LINE
  8
_0-0_
  6
CONTINUOUS
 62
    7
 10
91.874810448852286
 20
230.18190447665585
 11
133.37481044885228
 21
230.18190447665585
  0
LINE
  8
_0-0_
  6
CONTINUOUS
 62
    7
 10
92.976191121289645
 20
230.18190447665585
 11
91.874810448852286
 21
229.22367897311346
  0
LINE
  8
_0-0_
  6
CONTINUOUS
 62
    7
 10
132.83159510851149
 20
230.18190447665585
 11
131.87481044885228
 21
229.41864585303386
  0
LINE
  8
_0-0_
  6
CONTINUOUS
 62
    4
 10
91.874810448852286
 20
226.72204646795137
 11
133.37481044885228
 21
228.11361273298399
  0
LINE
  8
_0-0_
  6
CONTINUOUS
 62
    4
 10
91.874810448852286
 20
229.22367897311346
 11
118.38571604738481
 21
230.18190447665585
  0
LINE
  8
_0-0_
  6
CONTINUOUS
 62
    4
 10
91.874810448852286
 20
224.22041396278928
 11
133.37481044885228
 21
225.6119802278219
  0
LINE
  8
_0-0_
  6
CONTINUOUS
 62
    4
 10
91.874810448852286
 20
221.71878145762718
 11
133.37481044885228
 21
223.11034772265975
  0
LINE
  8
_0-0_
  6
CONTINUOUS
 62
    4
 10
91.874810448852286
 20
219.21714895246509
 11
133.37481044885228
 21
220.60871521749766
  0
LINE
  8
_0-0_
  6
CONTINUOUS
 62
    4
 10
91.874810448852286
 20
216.71551644730294
 11
133.37481044885228
 21
218.10708271233556
  0
LINE
  8
_0-0_
  6
CONTINUOUS
 62
    4
 10
91.874810448852286
 20
214.21388394214085
 11
133.37481044885228
 21
215.60545020717347
  0
LINE
  8
_0-0_
  6
CONTINUOUS
 62
    4
 10
91.874810448852286
 20
211.71225143697876
 11
133.37481044885228
 21
213.10381770201138
  0
LINE
  8
_0-0_
  6
CONTINUOUS
 62
    4
 10
91.874810448852286
 20
194.20082390084411
 11
133.37481044885228
 21
195.59239016587667
  0
LINE
  8
_0-0_
  6
CONTINUOUS
 62
    4
 10
91.874810448852286
 20
191.69919139568196
 11
133.37481044885228
 21
193.09075766071458
  0
LINE
  8
_0-0_
  6
CONTINUOUS
 62
    4
 10
91.874810448852286
 20
189.19755889051987
 11
133.37481044885228
 21
190.58912515555249
  0
LINE
  8
_0-0_
  6
CONTINUOUS
 62
    4
 10
121.27915274793124
 20
187.6819044766558
 11
133.37481044885228
 21
188.0874926503904
  0
LINE
  8
_0-0_
  6
CONTINUOUS
 62
    7
 10
93.374810448852286
 20
188.00095950540764
 11
93.008089837877008
 21
187.6819044766558
  0
LINE
  8
_0-0_
  6
CONTINUOUS
 62
    7
 10
132.62481044885228
 20
187.6819044766558
 11
132.62481044885228
 21
186.6819044766558
  0
LINE
  8
_0-0_
  6
CONTINUOUS
 62
    7
 10
132.62481044885228
 20
186.6819044766558
 11
92.594256386202943
 21
186.6819044766558
  0
LINE
  8
_0-0_
  6
CONTINUOUS
 62
    7
 10
82.624810448852286
 20
203.1819044766558
 11
142.62481044885228
 21
203.1819044766558
  0
LINE
  8
_0-0_
  6
CONTINUOUS
 62
    7
 10
81.624810448852286
 20
208.71352953067139
 11
81.624810448852286
 21
206.1819044766558
  0
ARC
  8
_0-0_
  6
CONTINUOUS
 62
    7
 10
82.624810448852286
 20
208.71352953067139
 40
1
 50
129.80557109226521
 51
180
  0
LINE
  8
_0-0_
  6
CONTINUOUS
 62
    7
 10
143.62481044885228
 20
208.71352953067139
 11
143.62481044885228
 21
206.1819044766558
  0
LINE
  8
_0-0_
  6
CONTINUOUS
 62
    7
 10
81.624810448852286
 20
206.1819044766558
 11
143.62481044885228
 21
206.1819044766558
  0
ARC
  8
_0-0_
  6
CONTINUOUS
 62
    7
 10
140.26276051367099
 20
210.6819044766558
 40
1
 50
50.194428907734874
 51
90.000000000000056
  0
LINE
  8
_0-0_
  6
CONTINUOUS
 62
    7
 10
143.26499484851674
 20
209.4817508102688
 11
140.90294491333546
 21
211.45012575625321
  0
ARC
  8
_0-0_
  6
CONTINUOUS
 62
    7
 10
142.62481044885228
 20
208.71352953067139
 40
1
 50
0
 51
50.194428907734796
  0
LINE
  8
_0-0_
  6
CONTINUOUS
 62
    7
 10
81.984626049187824
 20
209.4817508102688
 11
84.346675984369113
 21
211.45012575625321
  0
LINE
  8
_0-0_
  6
CONTINUOUS
 62
    7
 10
140.26276051367099
 20
211.6819044766558
 11
84.98686038403369
 21
211.6819044766558
  0
ARC
  8
_0-0_
  6
CONTINUOUS
 62
    7
 10
84.98686038403369
 20
210.6819044766558
 40
1
 50
90
 51
129.80557109226512
  0
LINE
  8
_0-0_
  6
CONTINUOUS
 62
    7
 10
82.624810448852286
 20
206.1819044766558
 11
82.624810448852286
 21
203.1819044766558
  0
LINE
  8
_0-0_
  6
CONTINUOUS
 62
    7
 10
142.62481044885228
 20
206.1819044766558
 11
142.62481044885228
 21
203.1819044766558
  0
LINE
  8
_0-0_
  6
CONTINUOUS
 62
    4
 10
112.62481044885228
 20
203.1819044766558
 11
112.62481044885228
 21
197.1819044766558
  0
LINE
  8
_0-0_
  6
CONTINUOUS
 62
    7
 10
89.874810448852286
 20
203.1819044766558
 11
89.874810448852286
 21
197.1819044766558
  0
LINE
  8
_0-0_
  6
CONTINUOUS
 62
    7
 10
89.874810448852286
 20
197.1819044766558
 11
135.37481044885228
 21
197.1819044766558
  0
LINE
  8
_0-0_
  6
CONTINUOUS
 62
    7
 10
135.37481044885228
 20
203.1819044766558
 11
135.37481044885228
 21
197.1819044766558
  0
LINE
  8
_0-0_
  6
CONTINUOUS
 62
    7
 10
92.425886199287702
 20
197.1819044766558
 11
91.874810448852286
 21
196.7024564060062
  0
LINE
  8
_0-0_
  6
CONTINUOUS
 62
    4
 10
91.874810448852286
 20
196.7024564060062
 11
106.17315572491739
 21
197.1819044766558
  0
LINE
  8
_0-0_
  6
CONTINUOUS
 62
    7
 10
132.23142252086532
 20
197.1819044766558
 11
131.87481044885228
 21
196.89742328592626
  0
LINE
  8
_0-0_
  6
CONTINUOUS
 62
    7
 10
91.874810448852286
 20
211.71225143697876
 11
91.912851953010516
 21
211.6819044766558
  0
LINE
  8
_0-0_
  6
CONTINUOUS
 62
    7
 10
131.87481044885228
 20
211.90721831689899
 11
132.13378530180605
 21
211.6819044766558
  0
LINE
  8
_0-0_
  6
CONTINUOUS
 62
    7
 10
131.87481044885228
 20
211.90721831689899
 11
125.64112753533518
 21
211.6819044766558
  0
LINE
  8
_0-0_
  6
CONTINUOUS
 62
    4
 10
148.62481166505941
 20
298.86707674919824
 11
76.624811665059411
 21
298.86707674919824
  0
LINE
  8
_0-0_
  6
CONTINUOUS
 62
    7
 10
76.624810448852286
 20
266.88190447665584
 11
76.624810448852286
 21
267.11264893516016
  0
ARC
  8
_0-0_
  6
CONTINUOUS
 62
    7
 10
76.824810448852332
 20
266.88190447665584
 40
0.2
 50
180
 51
270
  0
LINE
  8
_0-0_
  6
CONTINUOUS
 62
    7
 10
148.62481044885228
 20
266.88190447665584
 11
148.62481044885228
 21
267.11264893516016
  0
ARC
  8
_0-0_
  6
CONTINUOUS
 62
    7
 10
148.42481044885224
 20
266.88190447665584
 40
0.2
 50
270
 51
0
  0
LINE
  8
_0-0_
  6
CONTINUOUS
 62
    7
 10
76.824810448852332
 20
266.6819044766558
 11
148.42481044885224
 21
266.6819044766558
  0
ARC
  8
_0-0_
  6
CONTINUOUS
 62
    7
 10
77.624810448852286
 20
267.04288927910585
 40
1
 50
114.62431835216361
 51
180.00000000000039
  0
ARC
  8
_0-0_
  6
CONTINUOUS
 62
    7
 10
112.62481044885228
 20
190.68190447665585
 40
84.999999999999957
 50
65.375681647835918
 51
114.62431835216408
  0
ARC
  8
_0-0_
  6
CONTINUOUS
 62
    7
 10
147.62481044885228
 20
267.04288927910585
 40
1
 50
0.0000000000004071
 51
65.375681647835662
  0
LINE
  8
_0-0_
  6
CONTINUOUS
 62
    7
 10
76.624811665059411
 20
298.86707674919824
 11
79.52258914392658
 21
299.64353388450575
  0
LINE
  8
_0-0_
  6
CONTINUOUS
 62
    7
 10
76.624811665059411
 20
298.86707674919824
 11
79.52258914392658
 21
298.09061961389073
  0
LINE
  8
_0-0_
  6
CONTINUOUS
 62
    7
 10
148.62481166505941
 20
298.86707674919824
 11
145.72703418619212
 21
298.09061961389073
  0
LINE
  8
_0-0_
  6
CONTINUOUS
 62
    7
 10
148.62481166505941
 20
298.86707674919824
 11
145.72703418619212
 21
299.64353388450575
  0
LINE
  8
_0-0_
  6
CONTINUOUS
 62
    4
 10
76.624811665059411
 20
268.95616189939158
 11
76.624811665059411
 21
298.86707674919824
  0
LINE
  8
_0-0_
  6
CONTINUOUS
 62
    4
 10
148.62481166505941
 20
268.95616189939158
 11
148.62481166505941
 21
298.86707674919824
  0
LINE
  8
_0-0_
  6
CONTINUOUS
 62
    7
 10
91.874810448852286
 20
247.68190447665591
 11
91.874810448852286
 21
230.18190447665585
  0
LINE
  8
_0-0_
  6
CONTINUOUS
 62
    7
 10
133.37481044885228
 20
247.68190447665591
 11
133.37481044885228
 21
230.18190447665585
  0
LINE
  8
_0-0_
  6
DASHED1
 62
    4
 10
91.874810448852286
 20
247.68190447665591
 11
91.874810448852286
 21
253.68190447665591
  0
LINE
  8
_0-0_
  6
DASHED1
 62
    4
 10
133.37481044885228
 20
247.68190447665591
 11
133.37481044885228
 21
253.68190447665591
  0
LINE
  8
_0-0_
  6
CONTINUOUS
 62
    7
 10
133.37481044885228
 20
188.08749265039006
 11
132.86638443077927
 21
187.6819044766558
  0
LINE
  8
_0-0_
  6
CONTINUOUS
 62
    7
 10
92.594256386202943
 20
187.6819044766558
 11
92.594256386202943
 21
186.6819044766558
  0
LINE
  8
_0-0_
  6
CONTINUOUS
 62
    7
 10
92.594256386202943
 20
187.6819044766558
 11
132.86638443077927
 21
187.6819044766558
  0
LINE
  8
_0-0_
  6
CENTER1
 62
    4
 10
112.62481044885228
 20
292.97333772457824
 11
112.62481044885228
 21
174.07136202609859
  0
LINE
  8
_0-0_
  6
CONTINUOUS
 62
    7
 10
52.509184626812412
 20
257.6819044766558
 11
53.285641762119922
 21
254.78412699778851
  0
LINE
  8
_0-0_
  6
CONTINUOUS
 62
    7
 10
52.509184626812412
 20
257.6819044766558
 11
51.732727491504903
 21
254.78412699778851
  0
LINE
  8
_0-0_
  6
CONTINUOUS
 62
    4
 10
63.69492741374907
 20
256.6819044766558
 11
63.69492741374907
 21
191.6819044766558
  0
LINE
  8
_0-0_
  6
CONTINUOUS
 62
    7
 10
63.69492741374907
 20
256.6819044766558
 11
64.471384549056637
 21
253.78412699778851
  0
LINE
  8
_0-0_
  6
CONTINUOUS
 62
    7
 10
63.69492741374907
 20
256.6819044766558
 11
62.918470278441503
 21
253.78412699778851
  0
LINE
  8
_0-0_
  6
CONTINUOUS
 62
    7
 10
63.69492741374907
 20
191.6819044766558
 11
62.918470278441503
 21
194.57968195552297
  0
LINE
  8
_0-0_
  6
CONTINUOUS
 62
    7
 10
63.69492741374907
 20
191.6819044766558
 11
64.471384549056637
 21
194.57968195552297
  0
LINE
  8
_0-0_
  6
CONTINUOUS
 62
    4
 10
63.69492741374907
 20
191.6819044766558
 11
81.874810448852286
 21
191.6819044766558
  0
LINE
  8
_0-0_
  6
CONTINUOUS
 62
    4
 10
52.509184626812412
 20
187.6819044766558
 11
52.509184626812412
 21
257.6819044766558
  0
LINE
  8
_0-0_
  6
CONTINUOUS
 62
    7
 10
52.509184626812412
 20
187.6819044766558
 11
51.732727491504846
 21
190.57968195552302
  0
LINE
  8
_0-0_
  6
CONTINUOUS
 62
    7
 10
52.509184626812412
 20
187.6819044766558
 11
53.285641762119979
 21
190.57968195552302
  0
LINE
  8
_0-0_
  6
CONTINUOUS
 62
    4
 10
52.509184626812412
 20
187.6819044766558
 11
81.874810448852286
 21
187.6819044766558
  0
LINE
  8
_0-0_
  6
CONTINUOUS
 62
    7
 10
74.12481044885223
 20
168.19431220083515
 11
151.12481044885234
 21
168.19431220083515
  0
LINE
  8
_0-0_
  6
CONTINUOUS
 62
    7
 10
151.12481044885234
 20
161.19431220083515
 11
151.12481044885234
 21
168.19431220083515
  0
LINE
  8
_0-0_
  6
CONTINUOUS
 62
    7
 10
74.12481044885223
 20
161.19431220083515
 11
151.12481044885234
 21
161.19431220083515
  0
LINE
  8
_0-0_
  6
CONTINUOUS
 62
    7
 10
74.12481044885223
 20
168.19431220083515
 11
74.12481044885223
 21
161.19431220083515
  0
TEXT
  8
_0-0_
 62
    7
 10
76.624810448852286
 20
162.69431220083515
 40
4
 41
1
 50
0
  1
JORGER製 排水金具 クロームメッキ70㎜
  0
TEXT
  8
_0-0_
 62
    7
 10
153.12481044885234
 20
162.69431220083515
 40
4
 41
1
 50
0
  1
S=1/2
  0
LINE
  8
_0-0_
  6
CONTINUOUS
 62
    7
 10
80.624810448852286
 20
256.68190447665591
 11
91.874810448852286
 21
253.68190447665591
  0
LINE
  8
_0-0_
  6
CONTINUOUS
 62
    4
 10
63.69492741374907
 20
256.6819044766558
 11
80.624810448852286
 21
256.6819044766558
  0
LINE
  8
_0-0_
  6
CONTINUOUS
 62
    4
 10
52.509184626812412
 20
257.6819044766558
 11
80.624810448852286
 21
257.6819044766558
  0
ARC
  8
_0-0_
  6
CONTINUOUS
 62
    7
 10
80.624810448852286
 20
257.18190447665591
 40
0.5
 50
90
 51
270
  0
LINE
  8
_0-0_
  6
CONTINUOUS
 62
    7
 10
144.62481044885228
 20
256.68190447665591
 11
133.37481044885228
 21
253.68190447665591
  0
LINE
  8
_0-0_
  6
CONTINUOUS
 62
    7
 10
80.624810448852286
 20
257.68190447665591
 11
144.62481044885228
 21
257.68190447665591
  0
ARC
  8
_0-0_
  6
CONTINUOUS
 62
    7
 10
144.62481044885228
 20
257.18190447665591
 40
0.5
 50
270
 51
90
  0
LINE
  8
_0-0_
  6
CONTINUOUS
 62
    7
 10
80.624810448852286
 20
256.68190447665591
 11
144.6248104488524
 21
256.68190447665591
  0
LINE
  8
_0-0_
  6
CONTINUOUS
 62
    4
 10
140.99752979130877
 20
209.14864901992007
 11
197.80234023927951
 21
292.94653758046848
  0
LINE
  8
_0-0_
  6
CONTINUOUS
 62
    4
 10
131.93144508831483
 20
199.45731709603001
 11
198.9035789381817
 21
181.38044360230202
  0
TEXT
  8
_0-0_
 62
    4
 10
107.62481166505941
 20
298.86707674919824
 40
5
 41
1
 50
0
  1
φ72
  0
TEXT
  8
_0-0_
 62
    4
 10
63.69492741374907
 20
216.6819044766558
 40
5
 41
1
 50
90
  1
45～65
  0
TEXT
  8
_0-0_
 62
    4
 10
52.509184626812412
 20
220.1819044766558
 40
5
 41
1
 50
90
  1
70
  0
LINE
  8
_0-0_
  6
CONTINUOUS
 62
    7
 10
366.94194531642517
 20
253.68190447665585
 11
427.94194531642517
 21
253.68190447665585
  0
LINE
  8
_0-0_
  6
CONTINUOUS
 62
    4
 10
376.69194531642517
 20
191.69919139568196
 11
418.19194531642517
 21
193.09075766071464
  0
LINE
  8
_0-0_
  6
CONTINUOUS
 62
    7
 10
389.94194531642517
 20
266.68190447665585
 11
389.94194531642517
 21
257.68190447665585
  0
LINE
  8
_0-0_
  6
CONTINUOUS
 62
    7
 10
404.94194531642517
 20
266.68190447665585
 11
404.94194531642517
 21
257.68190447665585
  0
LINE
  8
_0-0_
  6
CONTINUOUS
 62
    7
 10
366.94194531642517
 20
247.68190447665585
 11
427.94194531642517
 21
247.68190447665585
  0
LINE
  8
_0-0_
  6
CONTINUOUS
 62
    7
 10
427.94194531642517
 20
253.68190447665585
 11
427.94194531642517
 21
247.68190447665585
  0
LINE
  8
_0-0_
  6
CONTINUOUS
 62
    7
 10
366.94194531642517
 20
253.68190447665585
 11
366.94194531642517
 21
247.68190447665585
  0
LINE
  8
_0-0_
  6
CONTINUOUS
 62
    7
 10
376.69194531642517
 20
237.68190447665585
 11
418.19194531642517
 21
237.68190447665585
  0
LINE
  8
_0-0_
  6
CONTINUOUS
 62
    7
 10
378.19194531642517
 20
228.02707958800124
 11
376.69194531642517
 21
226.72204646795137
  0
LINE
  8
_0-0_
  6
CONTINUOUS
 62
    7
 10
376.69194531642517
 20
226.72204646795137
 11
378.19194531642517
 21
225.52544708283915
  0
LINE
  8
_0-0_
  6
CONTINUOUS
 62
    7
 10
378.19194531642517
 20
225.52544708283915
 11
376.69194531642517
 21
224.22041396278928
  0
LINE
  8
_0-0_
  6
CONTINUOUS
 62
    7
 10
376.69194531642517
 20
224.22041396278928
 11
378.19194531642517
 21
223.02381457767705
  0
LINE
  8
_0-0_
  6
CONTINUOUS
 62
    7
 10
378.19194531642517
 20
223.02381457767705
 11
376.69194531642517
 21
221.71878145762718
  0
LINE
  8
_0-0_
  6
CONTINUOUS
 62
    7
 10
376.69194531642517
 20
221.71878145762718
 11
378.19194531642517
 21
220.52218207251496
  0
LINE
  8
_0-0_
  6
CONTINUOUS
 62
    7
 10
378.19194531642517
 20
220.52218207251496
 11
376.69194531642517
 21
219.21714895246509
  0
LINE
  8
_0-0_
  6
CONTINUOUS
 62
    7
 10
376.69194531642517
 20
219.21714895246509
 11
378.19194531642517
 21
218.02054956735287
  0
LINE
  8
_0-0_
  6
CONTINUOUS
 62
    7
 10
378.19194531642517
 20
218.02054956735287
 11
376.69194531642517
 21
216.715516447303
  0
LINE
  8
_0-0_
  6
CONTINUOUS
 62
    7
 10
376.69194531642517
 20
216.715516447303
 11
378.19194531642517
 21
215.51891706219078
  0
LINE
  8
_0-0_
  6
CONTINUOUS
 62
    7
 10
378.19194531642517
 20
215.51891706219078
 11
376.69194531642517
 21
214.21388394214091
  0
LINE
  8
_0-0_
  6
CONTINUOUS
 62
    7
 10
376.69194531642517
 20
214.21388394214091
 11
378.19194531642517
 21
213.01728455702868
  0
LINE
  8
_0-0_
  6
CONTINUOUS
 62
    7
 10
378.19194531642517
 20
213.01728455702868
 11
376.69194531642517
 21
211.71225143697881
  0
LINE
  8
_0-0_
  6
CONTINUOUS
 62
    7
 10
376.69194531642517
 20
211.71225143697881
 11
378.19194531642517
 21
210.51565205186648
  0
LINE
  8
_0-0_
  6
CONTINUOUS
 62
    7
 10
378.19194531642517
 20
210.51565205186648
 11
376.69194531642517
 21
209.21061893181672
  0
LINE
  8
_0-0_
  6
CONTINUOUS
 62
    7
 10
376.69194531642517
 20
209.21061893181672
 11
378.19194531642517
 21
208.01401954670438
  0
LINE
  8
_0-0_
  6
CONTINUOUS
 62
    7
 10
378.19194531642517
 20
208.01401954670438
 11
376.69194531642517
 21
206.70898642665463
  0
LINE
  8
_0-0_
  6
CONTINUOUS
 62
    7
 10
376.69194531642517
 20
206.70898642665463
 11
378.19194531642517
 21
205.51238704154229
  0
LINE
  8
_0-0_
  6
CONTINUOUS
 62
    7
 10
378.19194531642517
 20
205.51238704154229
 11
376.69194531642517
 21
204.20735392149242
  0
LINE
  8
_0-0_
  6
CONTINUOUS
 62
    7
 10
376.69194531642517
 20
204.20735392149242
 11
378.19194531642517
 21
203.0107545363802
  0
LINE
  8
_0-0_
  6
CONTINUOUS
 62
    7
 10
378.19194531642517
 20
203.0107545363802
 11
376.69194531642517
 21
201.70572141633044
  0
LINE
  8
_0-0_
  6
CONTINUOUS
 62
    7
 10
376.69194531642517
 20
201.70572141633044
 11
378.19194531642517
 21
200.50912203121811
  0
LINE
  8
_0-0_
  6
CONTINUOUS
 62
    7
 10
378.19194531642517
 20
200.50912203121811
 11
376.69194531642517
 21
199.20408891116824
  0
LINE
  8
_0-0_
  6
CONTINUOUS
 62
    7
 10
376.69194531642517
 20
199.20408891116824
 11
378.19194531642517
 21
198.00748952605601
  0
LINE
  8
_0-0_
  6
CONTINUOUS
 62
    7
 10
378.19194531642517
 20
198.00748952605601
 11
376.69194531642517
 21
196.70245640600614
  0
LINE
  8
_0-0_
  6
CONTINUOUS
 62
    7
 10
376.69194531642517
 20
196.70245640600614
 11
378.19194531642517
 21
195.50585702089392
  0
LINE
  8
_0-0_
  6
CONTINUOUS
 62
    7
 10
378.19194531642517
 20
195.50585702089392
 11
376.69194531642517
 21
194.20082390084405
  0
LINE
  8
_0-0_
  6
CONTINUOUS
 62
    7
 10
376.69194531642517
 20
194.20082390084405
 11
378.19194531642517
 21
193.00422451573183
  0
LINE
  8
_0-0_
  6
CONTINUOUS
 62
    7
 10
378.19194531642517
 20
193.00422451573183
 11
376.69194531642517
 21
191.69919139568196
  0
LINE
  8
_0-0_
  6
CONTINUOUS
 62
    7
 10
376.69194531642517
 20
176.6893963647094
 11
378.19194531642517
 21
175.49279697959718
  0
LINE
  8
_0-0_
  6
CONTINUOUS
 62
    7
 10
378.19194531642517
 20
175.49279697959718
 11
376.69194531642517
 21
174.18776385954731
  0
LINE
  8
_0-0_
  6
CONTINUOUS
 62
    7
 10
376.69194531642517
 20
174.18776385954731
 11
378.19194531642517
 21
172.99116447443509
  0
LINE
  8
_0-0_
  6
CONTINUOUS
 62
    7
 10
378.19194531642517
 20
172.99116447443509
 11
376.69194531642517
 21
171.68613135438522
  0
LINE
  8
_0-0_
  6
CONTINUOUS
 62
    7
 10
376.69194531642517
 20
171.68613135438522
 11
378.19194531642517
 21
170.489531969273
  0
LINE
  8
_0-0_
  6
CONTINUOUS
 62
    7
 10
378.19194531642517
 20
170.489531969273
 11
376.69194531642517
 21
169.18449884922313
  0
LINE
  8
_0-0_
  6
CONTINUOUS
 62
    7
 10
376.69194531642517
 20
169.18449884922313
 11
378.19194531642517
 21
167.98789946411079
  0
LINE
  8
_0-0_
  6
CONTINUOUS
 62
    7
 10
378.19194531642517
 20
167.98789946411079
 11
376.69194531642517
 21
166.68286634406103
  0
LINE
  8
_0-0_
  6
CONTINUOUS
 62
    7
 10
376.69194531642517
 20
166.68286634406103
 11
378.19194531642517
 21
165.4862669589487
  0
LINE
  8
_0-0_
  6
CONTINUOUS
 62
    7
 10
378.19194531642517
 20
165.4862669589487
 11
376.69194531642517
 21
164.18123383889894
  0
LINE
  8
_0-0_
  6
CONTINUOUS
 62
    7
 10
376.69194531642517
 20
164.18123383889894
 11
378.19194531642517
 21
162.98463445378661
  0
LINE
  8
_0-0_
  6
CONTINUOUS
 62
    7
 10
378.19194531642517
 20
162.98463445378661
 11
376.69194531642517
 21
161.67960133373674
  0
LINE
  8
_0-0_
  6
CONTINUOUS
 62
    7
 10
376.69194531642517
 20
161.67960133373674
 11
378.19194531642517
 21
160.48300194862451
  0
LINE
  8
_0-0_
  6
CONTINUOUS
 62
    7
 10
378.19194531642517
 20
160.48300194862451
 11
376.69194531642517
 21
159.17796882857464
  0
LINE
  8
_0-0_
  6
CONTINUOUS
 62
    7
 10
376.69194531642517
 20
159.17796882857464
 11
378.19194531642517
 21
157.98136944346242
  0
LINE
  8
_0-0_
  6
CONTINUOUS
 62
    7
 10
376.69194531642517
 20
229.22367897311346
 11
378.19194531642517
 21
228.02707958800124
  0
LINE
  8
_0-0_
  6
CONTINUOUS
 62
    7
 10
416.69194531642517
 20
229.4186458530338
 11
418.19194531642517
 21
228.11361273298393
  0
LINE
  8
_0-0_
  6
CONTINUOUS
 62
    7
 10
418.19194531642517
 20
228.11361273298393
 11
416.69194531642517
 21
226.91701334787171
  0
LINE
  8
_0-0_
  6
CONTINUOUS
 62
    7
 10
416.69194531642517
 20
226.91701334787171
 11
418.19194531642517
 21
225.61198022782184
  0
LINE
  8
_0-0_
  6
CONTINUOUS
 62
    7
 10
418.19194531642517
 20
225.61198022782184
 11
416.69194531642517
 21
224.41538084270962
  0
LINE
  8
_0-0_
  6
CONTINUOUS
 62
    7
 10
416.69194531642517
 20
224.41538084270962
 11
418.19194531642517
 21
223.11034772265975
  0
LINE
  8
_0-0_
  6
CONTINUOUS
 62
    7
 10
418.19194531642517
 20
223.11034772265975
 11
416.69194531642517
 21
221.91374833754753
  0
LINE
  8
_0-0_
  6
CONTINUOUS
 62
    7
 10
416.69194531642517
 20
221.91374833754741
 11
418.19194531642517
 21
220.60871521749766
  0
LINE
  8
_0-0_
  6
CONTINUOUS
 62
    7
 10
418.19194531642517
 20
220.60871521749766
 11
416.69194531642517
 21
219.41211583238532
  0
LINE
  8
_0-0_
  6
CONTINUOUS
 62
    7
 10
416.69194531642517
 20
219.41211583238532
 11
418.19194531642517
 21
218.10708271233545
  0
LINE
  8
_0-0_
  6
CONTINUOUS
 62
    7
 10
418.19194531642517
 20
218.10708271233545
 11
416.69194531642517
 21
216.91048332722323
  0
LINE
  8
_0-0_
  6
CONTINUOUS
 62
    7
 10
416.69194531642517
 20
216.91048332722323
 11
418.19194531642517
 21
215.60545020717336
  0
LINE
  8
_0-0_
  6
CONTINUOUS
 62
    7
 10
418.19194531642517
 20
215.60545020717336
 11
416.69194531642517
 21
214.40885082206114
  0
LINE
  8
_0-0_
  6
CONTINUOUS
 62
    7
 10
416.69194531642517
 20
214.40885082206114
 11
418.19194531642517
 21
213.10381770201126
  0
LINE
  8
_0-0_
  6
CONTINUOUS
 62
    7
 10
418.19194531642517
 20
213.10381770201126
 11
416.69194531642517
 21
211.90721831689904
  0
LINE
  8
_0-0_
  6
CONTINUOUS
 62
    7
 10
416.69194531642517
 20
211.90721831689893
 11
418.19194531642517
 21
210.60218519684917
  0
LINE
  8
_0-0_
  6
CONTINUOUS
 62
    7
 10
418.19194531642517
 20
210.60218519684917
 11
416.69194531642517
 21
209.40558581173684
  0
LINE
  8
_0-0_
  6
CONTINUOUS
 62
    7
 10
416.69194531642517
 20
209.40558581173684
 11
418.19194531642517
 21
208.10055269168697
  0
LINE
  8
_0-0_
  6
CONTINUOUS
 62
    7
 10
418.19194531642517
 20
208.10055269168697
 11
416.69194531642517
 21
206.90395330657474
  0
LINE
  8
_0-0_
  6
CONTINUOUS
 62
    7
 10
416.69194531642517
 20
206.90395330657474
 11
418.19194531642517
 21
205.59892018652487
  0
LINE
  8
_0-0_
  6
CONTINUOUS
 62
    7
 10
418.19194531642517
 20
205.59892018652487
 11
416.69194531642517
 21
204.40232080141265
  0
LINE
  8
_0-0_
  6
CONTINUOUS
 62
    7
 10
416.69194531642517
 20
204.40232080141265
 11
418.19194531642517
 21
203.09728768136278
  0
LINE
  8
_0-0_
  6
CONTINUOUS
 62
    7
 10
418.19194531642517
 20
203.09728768136278
 11
416.69194531642517
 21
201.90068829625056
  0
LINE
  8
_0-0_
  6
CONTINUOUS
 62
    7
 10
416.69194531642517
 20
201.90068829625056
 11
418.19194531642517
 21
200.59565517620069
  0
LINE
  8
_0-0_
  6
CONTINUOUS
 62
    7
 10
418.19194531642517
 20
200.59565517620069
 11
416.69194531642517
 21
199.39905579108835
  0
LINE
  8
_0-0_
  6
CONTINUOUS
 62
    7
 10
416.69194531642517
 20
199.39905579108835
 11
418.19194531642517
 21
198.09402267103848
  0
LINE
  8
_0-0_
  6
CONTINUOUS
 62
    7
 10
418.19194531642517
 20
198.09402267103848
 11
416.69194531642517
 21
196.89742328592626
  0
LINE
  8
_0-0_
  6
CONTINUOUS
 62
    7
 10
416.69194531642517
 20
196.89742328592626
 11
418.19194531642517
 21
195.59239016587639
  0
LINE
  8
_0-0_
  6
CONTINUOUS
 62
    7
 10
418.19194531642517
 20
195.59239016587639
 11
416.69194531642517
 21
194.39579078076417
  0
LINE
  8
_0-0_
  6
CONTINUOUS
 62
    7
 10
416.69194531642517
 20
194.39579078076417
 11
418.19194531642517
 21
193.0907576607143
  0
LINE
  8
_0-0_
  6
CONTINUOUS
 62
    7
 10
418.19194531642517
 20
193.0907576607143
 11
416.69194531642517
 21
191.89415827560208
  0
LINE
  8
_0-0_
  6
CONTINUOUS
 62
    7
 10
416.69194531642517
 20
176.88436324462929
 11
418.19194531642517
 21
175.57933012457942
  0
LINE
  8
_0-0_
  6
CONTINUOUS
 62
    7
 10
418.19194531642517
 20
175.57933012457942
 11
416.69194531642517
 21
174.3827307394672
  0
LINE
  8
_0-0_
  6
CONTINUOUS
 62
    7
 10
416.69194531642517
 20
174.3827307394672
 11
418.19194531642517
 21
173.07769761941733
  0
LINE
  8
_0-0_
  6
CONTINUOUS
 62
    7
 10
418.19194531642517
 20
173.07769761941733
 11
416.69194531642517
 21
171.88109823430511
  0
LINE
  8
_0-0_
  6
CONTINUOUS
 62
    7
 10
416.69194531642517
 20
171.881098234305
 11
418.19194531642517
 21
170.57606511425524
  0
LINE
  8
_0-0_
  6
CONTINUOUS
 62
    7
 10
418.19194531642517
 20
170.57606511425524
 11
416.69194531642517
 21
169.3794657291429
  0
LINE
  8
_0-0_
  6
CONTINUOUS
 62
    7
 10
416.69194531642517
 20
169.3794657291429
 11
418.19194531642517
 21
168.07443260909303
  0
LINE
  8
_0-0_
  6
CONTINUOUS
 62
    7
 10
418.19194531642517
 20
168.07443260909303
 11
416.69194531642517
 21
166.87783322398081
  0
LINE
  8
_0-0_
  6
CONTINUOUS
 62
    7
 10
416.69194531642517
 20
166.87783322398081
 11
418.19194531642517
 21
165.57280010393094
  0
LINE
  8
_0-0_
  6
CONTINUOUS
 62
    7
 10
418.19194531642517
 20
165.57280010393094
 11
416.69194531642517
 21
164.37620071881872
  0
LINE
  8
_0-0_
  6
CONTINUOUS
 62
    7
 10
416.69194531642517
 20
164.37620071881872
 11
418.19194531642517
 21
163.07116759876885
  0
LINE
  8
_0-0_
  6
CONTINUOUS
 62
    7
 10
418.19194531642517
 20
163.07116759876885
 11
416.69194531642517
 21
161.87456821365663
  0
LINE
  8
_0-0_
  6
CONTINUOUS
 62
    7
 10
416.69194531642517
 20
161.87456821365651
 11
418.19194531642517
 21
160.56953509360675
  0
LINE
  8
_0-0_
  6
CONTINUOUS
 62
    7
 10
418.19194531642517
 20
160.56953509360675
 11
416.69194531642517
 21
159.37293570849442
  0
LINE
  8
_0-0_
  6
CONTINUOUS
 62
    7
 10
416.69194531642517
 20
159.37293570849442
 11
418.19194531642517
 21
158.06790258844455
  0
LINE
  8
_0-0_
  6
CONTINUOUS
 62
    7
 10
416.69194531642517
 20
229.4186458530338
 11
378.19194531642517
 21
228.02707958800124
  0
LINE
  8
_0-0_
  6
CONTINUOUS
 62
    7
 10
416.69194531642517
 20
159.37293570849453
 11
378.19194531642517
 21
157.98136944346197
  0
LINE
  8
_0-0_
  6
CONTINUOUS
 62
    7
 10
416.69194531642517
 20
161.87456821365663
 11
378.19194531642517
 21
160.48300194862406
  0
LINE
  8
_0-0_
  6
CONTINUOUS
 62
    7
 10
416.69194531642517
 20
164.37620071881872
 11
378.19194531642517
 21
162.98463445378615
  0
LINE
  8
_0-0_
  6
CONTINUOUS
 62
    7
 10
416.69194531642517
 20
166.87783322398081
 11
378.19194531642517
 21
165.48626695894824
  0
LINE
  8
_0-0_
  6
CONTINUOUS
 62
    7
 10
416.69194531642517
 20
169.37946572914302
 11
378.19194531642517
 21
167.98789946411034
  0
LINE
  8
_0-0_
  6
CONTINUOUS
 62
    7
 10
416.69194531642517
 20
171.88109823430511
 11
378.19194531642517
 21
170.48953196927254
  0
LINE
  8
_0-0_
  6
CONTINUOUS
 62
    7
 10
416.69194531642517
 20
174.3827307394672
 11
378.19194531642517
 21
172.99116447443464
  0
LINE
  8
_0-0_
  6
CONTINUOUS
 62
    7
 10
416.69194531642517
 20
176.88436324462929
 11
378.19194531642517
 21
175.49279697959673
  0
LINE
  8
_0-0_
  6
CONTINUOUS
 62
    7
 10
416.69194531642517
 20
194.39579078076417
 11
378.19194531642517
 21
193.0042245157316
  0
LINE
  8
_0-0_
  6
CONTINUOUS
 62
    7
 10
416.69194531642517
 20
196.89742328592626
 11
378.19194531642517
 21
195.50585702089369
  0
LINE
  8
_0-0_
  6
CONTINUOUS
 62
    7
 10
416.69194531642517
 20
199.39905579108835
 11
378.19194531642517
 21
198.00748952605579
  0
LINE
  8
_0-0_
  6
CONTINUOUS
 62
    7
 10
416.69194531642517
 20
201.90068829625045
 11
378.19194531642517
 21
200.50912203121788
  0
LINE
  8
_0-0_
  6
CONTINUOUS
 62
    7
 10
416.69194531642517
 20
204.40232080141265
 11
378.19194531642517
 21
203.01075453638009
  0
LINE
  8
_0-0_
  6
CONTINUOUS
 62
    7
 10
416.69194531642517
 20
206.90395330657474
 11
378.19194531642517
 21
205.51238704154218
  0
LINE
  8
_0-0_
  6
CONTINUOUS
 62
    7
 10
416.69194531642517
 20
209.40558581173684
 11
378.19194531642517
 21
208.01401954670427
  0
LINE
  8
_0-0_
  6
CONTINUOUS
 62
    7
 10
416.69194531642517
 20
211.90721831689893
 11
378.19194531642517
 21
210.51565205186636
  0
LINE
  8
_0-0_
  6
CONTINUOUS
 62
    7
 10
416.69194531642517
 20
214.40885082206102
 11
378.19194531642517
 21
213.01728455702846
  0
LINE
  8
_0-0_
  6
CONTINUOUS
 62
    7
 10
416.69194531642517
 20
216.91048332722323
 11
378.19194531642517
 21
215.51891706219055
  0
LINE
  8
_0-0_
  6
CONTINUOUS
 62
    7
 10
416.69194531642517
 20
219.41211583238532
 11
378.19194531642517
 21
218.02054956735264
  0
LINE
  8
_0-0_
  6
CONTINUOUS
 62
    7
 10
416.69194531642517
 20
221.91374833754753
 11
378.19194531642517
 21
220.52218207251496
  0
LINE
  8
_0-0_
  6
CONTINUOUS
 62
    7
 10
416.69194531642517
 20
224.41538084270962
 11
378.19194531642517
 21
223.02381457767705
  0
LINE
  8
_0-0_
  6
CONTINUOUS
 62
    7
 10
416.69194531642517
 20
226.91701334787171
 11
378.19194531642517
 21
225.52544708283915
  0
LINE
  8
_0-0_
  6
CONTINUOUS
 62
    7
 10
376.69194531642517
 20
230.18190447665585
 11
418.19194531642517
 21
230.18190447665585
  0
LINE
  8
_0-0_
  6
CONTINUOUS
 62
    7
 10
377.79332598886253
 20
230.18190447665585
 11
376.69194531642517
 21
229.22367897311346
  0
LINE
  8
_0-0_
  6
CONTINUOUS
 62
    7
 10
417.64872997608438
 20
230.18190447665585
 11
416.69194531642517
 21
229.4186458530338
  0
LINE
  8
_0-0_
  6
CONTINUOUS
 62
    4
 10
376.69194531642517
 20
226.72204646795137
 11
418.19194531642517
 21
228.11361273298393
  0
LINE
  8
_0-0_
  6
CONTINUOUS
 62
    4
 10
376.69194531642517
 20
229.22367897311346
 11
403.2028509149577
 21
230.18190447665585
  0
LINE
  8
_0-0_
  6
CONTINUOUS
 62
    4
 10
376.69194531642517
 20
224.22041396278928
 11
418.19194531642517
 21
225.61198022782184
  0
LINE
  8
_0-0_
  6
CONTINUOUS
 62
    4
 10
376.69194531642517
 20
221.71878145762718
 11
418.19194531642517
 21
223.11034772265975
  0
LINE
  8
_0-0_
  6
CONTINUOUS
 62
    4
 10
376.69194531642517
 20
219.21714895246509
 11
418.19194531642517
 21
220.60871521749766
  0
LINE
  8
_0-0_
  6
CONTINUOUS
 62
    4
 10
376.69194531642517
 20
216.715516447303
 11
418.19194531642517
 21
218.10708271233556
  0
LINE
  8
_0-0_
  6
CONTINUOUS
 62
    4
 10
376.69194531642517
 20
214.21388394214091
 11
418.19194531642517
 21
215.60545020717347
  0
LINE
  8
_0-0_
  6
CONTINUOUS
 62
    4
 10
376.69194531642517
 20
211.71225143697881
 11
418.19194531642517
 21
213.10381770201138
  0
LINE
  8
_0-0_
  6
CONTINUOUS
 62
    4
 10
376.69194531642517
 20
209.21061893181672
 11
418.19194531642517
 21
210.60218519684929
  0
LINE
  8
_0-0_
  6
CONTINUOUS
 62
    4
 10
376.69194531642517
 20
206.70898642665463
 11
418.19194531642517
 21
208.10055269168719
  0
LINE
  8
_0-0_
  6
CONTINUOUS
 62
    4
 10
376.69194531642517
 20
204.20735392149242
 11
418.19194531642517
 21
205.5989201865251
  0
LINE
  8
_0-0_
  6
CONTINUOUS
 62
    4
 10
376.69194531642517
 20
201.70572141633044
 11
418.19194531642517
 21
203.09728768136301
  0
LINE
  8
_0-0_
  6
CONTINUOUS
 62
    4
 10
376.69194531642517
 20
199.20408891116824
 11
418.19194531642517
 21
200.59565517620092
  0
LINE
  8
_0-0_
  6
CONTINUOUS
 62
    4
 10
376.69194531642517
 20
196.70245640600614
 11
418.19194531642517
 21
198.09402267103882
  0
LINE
  8
_0-0_
  6
CONTINUOUS
 62
    4
 10
376.69194531642517
 20
194.20082390084405
 11
418.19194531642517
 21
195.59239016587673
  0
LINE
  8
_0-0_
  6
CONTINUOUS
 62
    4
 10
376.69194531642517
 20
174.18776385954731
 11
418.19194531642517
 21
175.57933012457988
  0
LINE
  8
_0-0_
  6
CONTINUOUS
 62
    4
 10
376.69194531642517
 20
171.68613135438522
 11
418.19194531642517
 21
173.07769761941779
  0
LINE
  8
_0-0_
  6
CONTINUOUS
 62
    4
 10
376.69194531642517
 20
169.18449884922313
 11
418.19194531642517
 21
170.57606511425569
  0
LINE
  8
_0-0_
  6
CONTINUOUS
 62
    4
 10
376.69194531642517
 20
166.68286634406103
 11
418.19194531642517
 21
168.0744326090936
  0
LINE
  8
_0-0_
  6
CONTINUOUS
 62
    4
 10
376.69194531642517
 20
164.18123383889894
 11
418.19194531642517
 21
165.57280010393151
  0
LINE
  8
_0-0_
  6
CONTINUOUS
 62
    4
 10
376.69194531642517
 20
161.67960133373674
 11
418.19194531642517
 21
163.07116759876942
  0
LINE
  8
_0-0_
  6
CONTINUOUS
 62
    4
 10
376.69194531642517
 20
159.17796882857464
 11
418.19194531642517
 21
160.56953509360732
  0
LINE
  8
_0-0_
  6
CONTINUOUS
 62
    7
 10
367.44194531642517
 20
183.18190447665585
 11
427.44194531642517
 21
183.18190447665585
  0
LINE
  8
_0-0_
  6
CONTINUOUS
 62
    7
 10
366.44194531642517
 20
188.71352953067139
 11
366.44194531642517
 21
186.18190447665585
  0
ARC
  8
_0-0_
  6
CONTINUOUS
 62
    7
 10
367.44194531642517
 20
188.71352953067139
 40
1
 50
129.80557109226521
 51
180
  0
LINE
  8
_0-0_
  6
CONTINUOUS
 62
    7
 10
428.44194531642517
 20
188.71352953067139
 11
428.44194531642517
 21
186.18190447665585
  0
LINE
  8
_0-0_
  6
CONTINUOUS
 62
    7
 10
366.44194531642517
 20
186.18190447665585
 11
428.44194531642517
 21
186.18190447665585
  0
ARC
  8
_0-0_
  6
CONTINUOUS
 62
    7
 10
425.07989538124388
 20
190.68190447665585
 40
1
 50
50.194428907734874
 51
90.000000000000056
  0
LINE
  8
_0-0_
  6
CONTINUOUS
 62
    7
 10
428.08212971608963
 20
189.48175081026874
 11
425.72007978090834
 21
191.45012575625321
  0
ARC
  8
_0-0_
  6
CONTINUOUS
 62
    7
 10
427.44194531642517
 20
188.71352953067139
 40
1
 50
0
 51
50.194428907734796
  0
LINE
  8
_0-0_
  6
CONTINUOUS
 62
    7
 10
366.80176091676071
 20
189.48175081026874
 11
369.163810851942
 21
191.45012575625321
  0
LINE
  8
_0-0_
  6
CONTINUOUS
 62
    7
 10
425.07989538124388
 20
191.68190447665585
 11
369.80399525160657
 21
191.68190447665585
  0
ARC
  8
_0-0_
  6
CONTINUOUS
 62
    7
 10
369.80399525160657
 20
190.68190447665585
 40
1
 50
90
 51
129.80557109226512
  0
LINE
  8
_0-0_
  6
CONTINUOUS
 62
    7
 10
367.44194531642517
 20
186.18190447665585
 11
367.44194531642517
 21
183.18190447665585
  0
LINE
  8
_0-0_
  6
CONTINUOUS
 62
    7
 10
427.44194531642517
 20
186.18190447665585
 11
427.44194531642517
 21
183.18190447665585
  0
LINE
  8
_0-0_
  6
CONTINUOUS
 62
    4
 10
397.44194531642517
 20
183.18190447665585
 11
397.44194531642517
 21
177.18190447665585
  0
LINE
  8
_0-0_
  6
CONTINUOUS
 62
    7
 10
374.69194531642517
 20
183.18190447665585
 11
374.69194531642517
 21
177.18190447665585
  0
LINE
  8
_0-0_
  6
CONTINUOUS
 62
    7
 10
374.69194531642517
 20
177.18190447665585
 11
420.19194531642517
 21
177.18190447665585
  0
LINE
  8
_0-0_
  6
CONTINUOUS
 62
    7
 10
420.19194531642517
 20
183.18190447665585
 11
420.19194531642517
 21
177.18190447665585
  0
LINE
  8
_0-0_
  6
CONTINUOUS
 62
    7
 10
417.06492883421128
 20
177.18190447665585
 11
416.69194531642517
 21
176.88436324462929
  0
LINE
  8
_0-0_
  6
CONTINUOUS
 62
    4
 10
376.69194531642517
 20
176.6893963647094
 11
391.37977381541497
 21
177.18190447665585
  0
LINE
  8
_0-0_
  6
CONTINUOUS
 62
    7
 10
377.2580322276076
 20
177.18190447665585
 11
376.69194531642517
 21
176.6893963647094
  0
LINE
  8
_0-0_
  6
CONTINUOUS
 62
    7
 10
376.69194531642517
 20
191.69919139568196
 11
376.7136153748105
 21
191.68190447665585
  0
LINE
  8
_0-0_
  6
CONTINUOUS
 62
    7
 10
416.69194531642517
 20
191.89415827560208
 11
410.81959021213037
 21
191.68190447665585
  0
LINE
  8
_0-0_
  6
CONTINUOUS
 62
    7
 10
416.69194531642517
 20
191.89415827560208
 11
416.93590900863182
 21
191.68190447665585
  0
LINE
  8
_0-0_
  6
CONTINUOUS
 62
    7
 10
376.69194531642517
 20
247.68190447665585
 11
376.69194531642517
 21
230.18190447665585
  0
LINE
  8
_0-0_
  6
CONTINUOUS
 62
    7
 10
418.19194531642517
 20
247.68190447665585
 11
418.19194531642517
 21
230.18190447665585
  0
LINE
  8
_0-0_
  6
DASHED1
 62
    4
 10
376.69194531642517
 20
253.68190447665585
 11
376.69194531642517
 21
247.68190447665585
  0
LINE
  8
_0-0_
  6
DASHED1
 62
    4
 10
418.19194531642517
 20
247.68190447665585
 11
418.19194531642517
 21
253.68190447665585
  0
LINE
  8
_0-0_
  6
CONTINUOUS
 62
    7
 10
378.19194531642517
 20
157.98136944346242
 11
377.84774144657035
 21
157.68190447665585
  0
LINE
  8
_0-0_
  6
CONTINUOUS
 62
    7
 10
417.44194531642517
 20
156.68190447665585
 11
377.41139125377583
 21
156.68190447665585
  0
LINE
  8
_0-0_
  6
CONTINUOUS
 62
    7
 10
417.44194531642517
 20
157.68190447665585
 11
417.44194531642517
 21
156.68190447665585
  0
LINE
  8
_0-0_
  6
CONTINUOUS
 62
    4
 10
406.68051244990783
 20
157.68190447665585
 11
418.19194531642449
 21
158.06790258844455
  0
LINE
  8
_0-0_
  6
CONTINUOUS
 62
    7
 10
418.19194531642517
 20
158.06790258844455
 11
417.70807646701177
 21
157.68190447665585
  0
LINE
  8
_0-0_
  6
CONTINUOUS
 62
    4
 10
433.4419465326323
 20
298.86707674919819
 11
361.4419465326323
 21
298.86707674919819
  0
LINE
  8
_0-0_
  6
CONTINUOUS
 62
    7
 10
361.44194531642517
 20
266.8819044766559
 11
361.44194531642517
 21
267.1126489351601
  0
ARC
  8
_0-0_
  6
CONTINUOUS
 62
    7
 10
361.64194531642522
 20
266.8819044766559
 40
0.2
 50
180
 51
270
  0
LINE
  8
_0-0_
  6
CONTINUOUS
 62
    7
 10
433.44194531642517
 20
266.8819044766559
 11
433.44194531642517
 21
267.1126489351601
  0
ARC
  8
_0-0_
  6
CONTINUOUS
 62
    7
 10
433.24194531642524
 20
266.8819044766559
 40
0.2
 50
270
 51
0
  0
LINE
  8
_0-0_
  6
CONTINUOUS
 62
    7
 10
361.64194531642522
 20
266.68190447665585
 11
433.24194531642524
 21
266.68190447665585
  0
ARC
  8
_0-0_
  6
CONTINUOUS
 62
    7
 10
362.44194531642517
 20
267.04288927910567
 40
1
 50
114.62431835216361
 51
180.00000000000039
  0
ARC
  8
_0-0_
  6
CONTINUOUS
 62
    7
 10
397.44194531642517
 20
190.68190447665585
 40
84.999999999999957
 50
65.375681647835918
 51
114.62431835216408
  0
ARC
  8
_0-0_
  6
CONTINUOUS
 62
    7
 10
432.44194531642517
 20
267.04288927910567
 40
1
 50
0.0000000000004071
 51
65.375681647835662
  0
LINE
  8
_0-0_
  6
CONTINUOUS
 62
    7
 10
361.4419465326323
 20
298.86707674919819
 11
364.33972401149947
 21
299.6435338845057
  0
LINE
  8
_0-0_
  6
CONTINUOUS
 62
    7
 10
361.4419465326323
 20
298.86707674919819
 11
364.33972401149947
 21
298.09061961389068
  0
LINE
  8
_0-0_
  6
CONTINUOUS
 62
    7
 10
433.4419465326323
 20
298.86707674919819
 11
430.54416905376501
 21
298.09061961389068
  0
LINE
  8
_0-0_
  6
CONTINUOUS
 62
    7
 10
433.4419465326323
 20
298.86707674919819
 11
430.54416905376501
 21
299.6435338845057
  0
LINE
  8
_0-0_
  6
CONTINUOUS
 62
    4
 10
361.4419465326323
 20
268.95616189939153
 11
361.4419465326323
 21
298.86707674919819
  0
LINE
  8
_0-0_
  6
CONTINUOUS
 62
    4
 10
433.4419465326323
 20
268.95616189939153
 11
433.4419465326323
 21
298.86707674919819
  0
LINE
  8
_0-0_
  6
CONTINUOUS
 62
    4
 10
337.3263194943853
 20
257.68190447665585
 11
337.3263194943853
 21
157.68190447665585
  0
LINE
  8
_0-0_
  6
CONTINUOUS
 62
    7
 10
337.3263194943853
 20
257.68190447665585
 11
338.10277662969281
 21
254.78412699778857
  0
LINE
  8
_0-0_
  6
CONTINUOUS
 62
    7
 10
337.3263194943853
 20
257.68190447665585
 11
336.54986235907779
 21
254.78412699778857
  0
LINE
  8
_0-0_
  6
CONTINUOUS
 62
    7
 10
337.3263194943853
 20
157.68190447665585
 11
336.54986235907767
 21
160.57968195552302
  0
LINE
  8
_0-0_
  6
CONTINUOUS
 62
    7
 10
337.3263194943853
 20
157.68190447665585
 11
338.10277662969281
 21
160.57968195552302
  0
LINE
  8
_0-0_
  6
CONTINUOUS
 62
    4
 10
337.3263194943853
 20
157.68190447665585
 11
366.69194531642517
 21
157.68190447665585
  0
LINE
  8
_0-0_
  6
CONTINUOUS
 62
    7
 10
377.41139125377583
 20
157.68190447665585
 11
377.41139125377583
 21
156.68190447665585
  0
LINE
  8
_0-0_
  6
CONTINUOUS
 62
    7
 10
377.41139125377583
 20
157.68190447665585
 11
417.70807646701177
 21
157.68190447665585
  0
LINE
  8
_0-0_
  6
CONTINUOUS
 62
    4
 10
348.51206228132195
 20
256.68190447665585
 11
348.51206228132195
 21
191.68190447665585
  0
LINE
  8
_0-0_
  6
CONTINUOUS
 62
    7
 10
348.51206228132195
 20
256.68190447665585
 11
349.28851941662952
 21
253.78412699778857
  0
LINE
  8
_0-0_
  6
CONTINUOUS
 62
    7
 10
348.51206228132195
 20
256.68190447665585
 11
347.73560514601439
 21
253.78412699778857
  0
LINE
  8
_0-0_
  6
CONTINUOUS
 62
    7
 10
348.51206228132195
 20
191.68190447665585
 11
347.73560514601439
 21
194.57968195552302
  0
LINE
  8
_0-0_
  6
CONTINUOUS
 62
    7
 10
348.51206228132195
 20
191.68190447665585
 11
349.28851941662952
 21
194.57968195552302
  0
LINE
  8
_0-0_
  6
CONTINUOUS
 62
    4
 10
348.51206228132195
 20
191.68190447665585
 11
366.69194531642517
 21
191.68190447665585
  0
TEXT
  8
_0-0_
 62
    7
 10
360.44194531642517
 20
136.62683297569856
 40
4
 41
1
 50
0
  1
JORGER製 排水金具 クロームメッキ100㎜
  0
LINE
  8
_0-0_
  6
CONTINUOUS
 62
    7
 10
358.94194531642506
 20
142.12683297569856
 11
435.94194531642523
 21
142.12683297569856
  0
LINE
  8
_0-0_
  6
CONTINUOUS
 62
    7
 10
435.94194531642523
 20
135.12683297569856
 11
435.94194531642523
 21
142.12683297569856
  0
LINE
  8
_0-0_
  6
CONTINUOUS
 62
    7
 10
358.94194531642506
 20
135.12683297569856
 11
435.94194531642523
 21
135.12683297569856
  0
LINE
  8
_0-0_
  6
CONTINUOUS
 62
    7
 10
358.94194531642506
 20
142.12683297569856
 11
358.94194531642506
 21
135.12683297569856
  0
TEXT
  8
_0-0_
 62
    7
 10
437.94194531642523
 20
136.62683297569856
 40
4
 41
1
 50
0
  1
S=1/2
  0
ARC
  8
_0-0_
  6
CONTINUOUS
 62
    7
 10
365.44194531642517
 20
257.18190447665585
 40
0.5
 50
90
 51
270
  0
LINE
  8
_0-0_
  6
CONTINUOUS
 62
    7
 10
365.44194531642517
 20
256.68190447665585
 11
376.69194531642517
 21
253.68190447665585
  0
LINE
  8
_0-0_
  6
CONTINUOUS
 62
    7
 10
429.44194531642517
 20
256.68190447665585
 11
418.19194531642517
 21
253.68190447665585
  0
LINE
  8
_0-0_
  6
CONTINUOUS
 62
    7
 10
365.44194531642517
 20
257.68190447665585
 11
429.44194531642517
 21
257.68190447665585
  0
LINE
  8
_0-0_
  6
CONTINUOUS
 62
    7
 10
365.44194531642517
 20
256.68190447665585
 11
429.44194531642517
 21
256.68190447665585
  0
ARC
  8
_0-0_
  6
CONTINUOUS
 62
    7
 10
429.44194531642517
 20
257.18190447665585
 40
0.5
 50
270
 51
90
  0
LINE
  8
_0-0_
  6
CONTINUOUS
 62
    4
 10
337.3263194943853
 20
257.68190447665585
 11
365.44194531642517
 21
257.68190447665585
  0
LINE
  8
_0-0_
  6
CONTINUOUS
 62
    4
 10
348.51206228132195
 20
256.68190447665585
 11
365.44194531642517
 21
256.68190447665585
  0
LINE
  8
_0-0_
  6
CENTER1
 62
    4
 10
397.44194531642517
 20
292.97333772457807
 11
397.44194531642517
 21
145.48827107468855
  0
LINE
  8
_0-0_
  6
CONTINUOUS
 62
    7
 10
537.42182205149754
 20
99.895838410992041
 11
492.42182205149754
 21
99.895838410992041
  0
LINE
  8
_0-0_
  6
CONTINUOUS
 62
    7
 10
492.42182205149754
 20
99.895838410992041
 11
492.42182205149754
 21
92.895838410992041
  0
LINE
  8
_0-0_
  6
CONTINUOUS
 62
    7
 10
492.42182205149754
 20
92.895838410992041
 11
537.42182205149754
 21
92.895838410992041
  0
LINE
  8
_0-0_
  6
CONTINUOUS
 62
    7
 10
537.42182205149754
 20
92.895838410992041
 11
537.42182205149754
 21
99.895838410992041
  0
CIRCLE
  8
_0-0_
  6
CONTINUOUS
 62
    7
 10
514.92182205149754
 20
137.85639354987017
 40
30
  0
CIRCLE
  8
_0-0_
  6
CONTINUOUS
 62
    7
 10
514.92182205149754
 20
137.85639354987017
 40
20
  0
CIRCLE
  8
_0-0_
  6
CONTINUOUS
 62
    4
 10
514.92182205149754
 20
137.85639354987017
 40
21
  0
LINE
  8
_0-0_
  6
CONTINUOUS
 62
    7
 10
537.42182205149754
 20
216.4846330663596
 11
492.42182205149754
 21
216.4846330663596
  0
LINE
  8
_0-0_
  6
CONTINUOUS
 62
    7
 10
492.42182205149754
 20
216.4846330663596
 11
492.42182205149754
 21
209.4846330663596
  0
LINE
  8
_0-0_
  6
CONTINUOUS
 62
    7
 10
492.42182205149754
 20
209.4846330663596
 11
537.42182205149754
 21
209.4846330663596
  0
LINE
  8
_0-0_
  6
CONTINUOUS
 62
    7
 10
537.42182205149754
 20
209.4846330663596
 11
537.42182205149754
 21
216.4846330663596
  0
CIRCLE
  8
_0-0_
  6
CONTINUOUS
 62
    7
 10
514.92182205149754
 20
254.44518820523774
 40
31
  0
CIRCLE
  8
_0-0_
  6
CONTINUOUS
 62
    4
 10
514.92182205149754
 20
254.44518820523774
 40
28
  0
LINE
  8
_0-0_
  6
CONTINUOUS
 62
    7
 10
530.79099595097488
 20
239.93935076825573
 11
529.8993815345068
 21
240.45412459161684
  0
LINE
  8
_0-0_
  6
CONTINUOUS
 62
    7
 10
529.42765948847966
 20
238.5760143057605
 11
528.91288566511843
 21
239.46762872222859
  0
ARC
  8
_0-0_
  6
CONTINUOUS
 62
    7
 10
531.87858380454918
 20
237.48842645218621
 40
3.565474313462841
 50
123.71774729193273
 51
146.28225270806731
  0
LINE
  8
_0-0_
  6
CONTINUOUS
 62
    7
 10
500.41598461451553
 20
270.31436210471508
 11
500.93075843787664
 21
269.42274768824688
  0
LINE
  8
_0-0_
  6
CONTINUOUS
 62
    7
 10
499.05264815202031
 20
268.95102564221986
 11
499.94426256848839
 21
268.43625181885852
  0
ARC
  8
_0-0_
  6
CONTINUOUS
 62
    7
 10
497.96506029844601
 20
271.40194995828926
 40
3.565474313462841
 50
303.71774729193271
 51
326.28225270806723
  0
LINE
  8
_0-0_
  6
CONTINUOUS
 62
    7
 10
500.41598461451553
 20
238.5760143057605
 11
500.93075843787676
 21
239.46762872222859
  0
LINE
  8
_0-0_
  6
CONTINUOUS
 62
    7
 10
499.05264815202031
 20
239.93935076825562
 11
499.94426256848839
 21
240.45412459161684
  0
ARC
  8
_0-0_
  6
CONTINUOUS
 62
    7
 10
497.96506029844601
 20
237.48842645218621
 40
3.565474313462841
 50
33.717747291932717
 51
56.282252708067289
  0
LINE
  8
_0-0_
  6
CONTINUOUS
 62
    7
 10
530.79099595097477
 20
268.95102564221963
 11
529.89938153450668
 21
268.43625181885852
  0
LINE
  8
_0-0_
  6
CONTINUOUS
 62
    7
 10
529.42765948847954
 20
270.31436210471485
 11
528.91288566511843
 21
269.42274768824688
  0
ARC
  8
_0-0_
  6
CONTINUOUS
 62
    7
 10
531.87858380454906
 20
271.40194995828926
 40
3.565474313462841
 50
213.71774729193279
 51
236.2822527080674
  0
ARC
  8
_0-0_
  6
CONTINUOUS
 62
    7
 10
514.92182205149754
 20
254.44518820523774
 40
21.5
 50
227.5699096511245
 51
312.43009034887586
  0
ARC
  8
_0-0_
  6
CONTINUOUS
 62
    7
 10
514.92182205149754
 20
254.44518820523774
 40
21.5
 50
317.56990965112441
 51
42.43009034887563
  0
ARC
  8
_0-0_
  6
CONTINUOUS
 62
    7
 10
514.92182205149754
 20
254.44518820523774
 40
21.5
 50
137.56990965112422
 51
222.43009034887563
  0
ARC
  8
_0-0_
  6
CONTINUOUS
 62
    7
 10
514.92182205149754
 20
254.44518820523774
 40
21.5
 50
47.569909651124497
 51
132.43009034887543
  0
LINE
  8
_0-0_
  6
CONTINUOUS
 62
    4
 10
514.92182205149754
 20
293.45782811083006
 11
514.92182205149754
 21
297.03952320764881
  0
LINE
  8
_0-0_
  6
CONTINUOUS
 62
    7
 10
483.92182205149754
 20
296.45782811083006
 11
545.92182205149765
 21
296.45782811083006
  0
LINE
  8
_0-0_
  6
CONTINUOUS
 62
    7
 10
483.92182205149754
 20
298.98945316484548
 11
483.92182205149754
 21
296.45782811083006
  0
ARC
  8
_0-0_
  6
CONTINUOUS
 62
    7
 10
484.92182205149754
 20
298.98945316484548
 40
1
 50
129.80557109226521
 51
180
  0
LINE
  8
_0-0_
  6
CONTINUOUS
 62
    7
 10
545.92182205149765
 20
298.98945316484548
 11
545.92182205149765
 21
296.45782811083006
  0
ARC
  8
_0-0_
  6
CONTINUOUS
 62
    7
 10
542.55977211631613
 20
300.95782811083006
 40
1
 50
50.194428907734874
 51
90.000000000000056
  0
LINE
  8
_0-0_
  6
CONTINUOUS
 62
    7
 10
545.562006451162
 20
299.75767444444284
 11
543.19995651598071
 21
301.72604939042741
  0
ARC
  8
_0-0_
  6
CONTINUOUS
 62
    7
 10
544.92182205149765
 20
298.98945316484548
 40
1
 50
0
 51
50.194428907734796
  0
LINE
  8
_0-0_
  6
CONTINUOUS
 62
    7
 10
484.28163765183296
 20
299.75767444444284
 11
486.64368758701436
 21
301.72604939042741
  0
LINE
  8
_0-0_
  6
CONTINUOUS
 62
    7
 10
542.55977211631613
 20
301.95782811083006
 11
487.28387198667894
 21
301.95782811083006
  0
ARC
  8
_0-0_
  6
CONTINUOUS
 62
    7
 10
487.28387198667894
 20
300.95782811083006
 40
1
 50
90
 51
129.80557109226512
  0
LINE
  8
_0-0_
  6
DASHED1
 62
    4
 10
493.42182205149754
 20
296.45782811083006
 11
493.42182205149754
 21
301.95782811083006
  0
LINE
  8
_0-0_
  6
DASHED1
 62
    4
 10
536.42182205149754
 20
296.45782811083006
 11
536.42182205149754
 21
301.95782811083006
  0
LINE
  8
_0-0_
  6
CONTINUOUS
 62
    4
 10
545.92182168907083
 20
316.95782811083006
 11
483.92182168907072
 21
316.95782811083006
  0
LINE
  8
_0-0_
  6
CONTINUOUS
 62
    7
 10
545.92182168907083
 20
316.95782811083006
 11
543.02404421020344
 21
316.18137097552232
  0
LINE
  8
_0-0_
  6
CONTINUOUS
 62
    7
 10
545.92182168907083
 20
316.95782811083006
 11
543.02404421020344
 21
317.73428524613757
  0
LINE
  8
_0-0_
  6
CONTINUOUS
 62
    7
 10
483.92182168907072
 20
316.95782811083006
 11
486.81959916793789
 21
317.73428524613757
  0
LINE
  8
_0-0_
  6
CONTINUOUS
 62
    7
 10
483.92182168907072
 20
316.95782811083006
 11
486.81959916793789
 21
316.18137097552232
  0
LINE
  8
_0-0_
  6
CONTINUOUS
 62
    4
 10
545.92182168907083
 20
301.95782811083006
 11
545.92182168907083
 21
316.95782811083006
  0
LINE
  8
_0-0_
  6
CONTINUOUS
 62
    4
 10
483.92182168907072
 20
301.95782811083006
 11
483.92182168907072
 21
316.95782811083006
  0
LINE
  8
_0-0_
  6
CENTER1
 62
    4
 10
514.92182205149754
 20
312.07830020779113
 11
514.92182205149754
 21
219.65062856428335
  0
LINE
  8
_0-0_
  6
CONTINUOUS
 62
    7
 10
484.92182205149754
 20
181.01177407117086
 11
544.92182205149765
 21
181.01177407117086
  0
LINE
  8
_0-0_
  6
CONTINUOUS
 62
    7
 10
484.92182205149754
 20
184.01177407117086
 11
484.92182205149754
 21
181.01177407117086
  0
LINE
  8
_0-0_
  6
CONTINUOUS
 62
    7
 10
544.92182205149765
 20
184.01177407117086
 11
544.92182205149765
 21
181.01177407117086
  0
LINE
  8
_0-0_
  6
CONTINUOUS
 62
    4
 10
514.92182205149754
 20
181.01177407117086
 11
514.92182205149754
 21
175.01177407117086
  0
LINE
  8
_0-0_
  6
CONTINUOUS
 62
    7
 10
492.17182205149754
 20
181.01177407117086
 11
492.17182205149754
 21
175.01177407117086
  0
LINE
  8
_0-0_
  6
CONTINUOUS
 62
    7
 10
492.17182205149754
 20
175.01177407117086
 11
537.67182205149754
 21
175.01177407117086
  0
LINE
  8
_0-0_
  6
CONTINUOUS
 62
    7
 10
537.67182205149754
 20
181.01177407117086
 11
537.67182205149754
 21
175.01177407117086
  0
LINE
  8
_0-0_
  6
CONTINUOUS
 62
    7
 10
484.92182205149754
 20
184.01177407117086
 11
544.92182205149765
 21
184.01177407117086
  0
LINE
  8
_0-0_
  6
DASHED1
 62
    4
 10
534.92182205149754
 20
175.01177407117086
 11
534.92182205149754
 21
184.01177407117086
  0
LINE
  8
_0-0_
  6
DASHED1
 62
    4
 10
494.92182205149754
 20
175.01177407117086
 11
494.92182205149754
 21
184.01177407117086
  0
LINE
  8
_0-0_
  6
CONTINUOUS
 62
    4
 10
544.92182168907083
 20
199.01177407117086
 11
484.92182168907072
 21
199.01177407117086
  0
LINE
  8
_0-0_
  6
CONTINUOUS
 62
    7
 10
544.92182168907083
 20
199.01177407117086
 11
542.02404421020344
 21
198.23531693586323
  0
LINE
  8
_0-0_
  6
CONTINUOUS
 62
    7
 10
544.92182168907083
 20
199.01177407117086
 11
542.02404421020344
 21
199.78823120647837
  0
LINE
  8
_0-0_
  6
CONTINUOUS
 62
    7
 10
484.92182168907072
 20
199.01177407117086
 11
487.81959916793789
 21
199.78823120647837
  0
LINE
  8
_0-0_
  6
CONTINUOUS
 62
    7
 10
484.92182168907072
 20
199.01177407117086
 11
487.81959916793789
 21
198.23531693586323
  0
LINE
  8
_0-0_
  6
CONTINUOUS
 62
    4
 10
544.92182168907083
 20
184.01177407117086
 11
544.92182168907083
 21
199.01177407117086
  0
LINE
  8
_0-0_
  6
CONTINUOUS
 62
    4
 10
484.92182168907072
 20
184.01177407117086
 11
484.92182168907072
 21
199.01177407117086
  0
LINE
  8
_0-0_
  6
CENTER1
 62
    4
 10
514.92182205149754
 20
193.74324340909572
 11
514.92182205149754
 21
103.77902840011176
  0
TEXT
  8
_0-0_
 62
    7
 10
502.92182205149754
 20
94.395838410992041
 40
4
 41
1
 50
0
  1
座付きナット
  0
TEXT
  8
_0-0_
 62
    7
 10
502.92182205149754
 20
210.9846330663596
 40
4
 41
1
 50
0
  1
樹脂パッキン
  0
TEXT
  8
_0-0_
 62
    7
 10
539.42182205149754
 20
94.395838410992041
 40
4
 41
1
 50
0
  1
S=1/2
  0
TEXT
  8
_0-0_
 62
    7
 10
539.42182205149754
 20
210.9846330663596
 40
4
 41
1
 50
0
  1
S=1/2
  0
LINE
  8
_0-0_
  6
CONTINUOUS
 62
    4
 10
425.52856383566034
 20
249.30820204595499
 11
488.80149200657945
 21
334.74963423337624
  0
LINE
  8
_0-0_
  6
CONTINUOUS
 62
    4
 10
425.44194531642517
 20
189.18190447665585
 11
482.6194751068524
 21
292.94653758046831
  0
LINE
  8
_0-0_
  6
CONTINUOUS
 62
    4
 10
418.78929167008442
 20
179.79686588969184
 11
483.72071380575459
 21
181.38044360230185
  0
LINE
  8
_0-0_
  6
CONTINUOUS
 62
    4
 10
526.4688274352901
 20
160.85639354987017
 11
503.37481666770509
 21
160.85639354987017
  0
ARC
  8
_0-0_
  6
CONTINUOUS
 62
    4
 10
503.37481666770509
 20
157.85639354987017
 40
3
 50
90
 51
149.99999999999982
  0
LINE
  8
_0-0_
  6
CONTINUOUS
 62
    4
 10
489.22973507255915
 20
139.35639354987017
 11
500.77674045635183
 21
159.35639354987017
  0
ARC
  8
_0-0_
  6
CONTINUOUS
 62
    4
 10
491.82781128391252
 20
137.85639354987017
 40
3
 50
149.99999999999977
 51
209.99999999999997
  0
LINE
  8
_0-0_
  6
CONTINUOUS
 62
    4
 10
500.77674045635171
 20
116.35639354987017
 11
489.22973507255915
 21
136.35639354987017
  0
ARC
  8
_0-0_
  6
CONTINUOUS
 62
    4
 10
503.37481666770509
 20
117.85639354987017
 40
3
 50
210.00000000000005
 51
270
  0
LINE
  8
_0-0_
  6
CONTINUOUS
 62
    4
 10
503.37481666770509
 20
114.85639354987017
 11
526.4688274352901
 21
114.85639354987017
  0
ARC
  8
_0-0_
  6
CONTINUOUS
 62
    4
 10
526.4688274352901
 20
117.85639354987017
 40
3
 50
270
 51
329.99999999999988
  0
LINE
  8
_0-0_
  6
CONTINUOUS
 62
    4
 10
529.06690364664336
 20
116.35639354987017
 11
540.61390903043593
 21
136.35639354987006
  0
ARC
  8
_0-0_
  6
CONTINUOUS
 62
    4
 10
538.01583281908267
 20
137.85639354987006
 40
3
 50
329.99999999999994
 51
30.000000000000042
  0
LINE
  8
_0-0_
  6
CONTINUOUS
 62
    4
 10
540.61390903043593
 20
139.35639354987006
 11
529.06690364664336
 21
159.35639354987017
  0
ARC
  8
_0-0_
  6
CONTINUOUS
 62
    4
 10
526.4688274352901
 20
157.85639354987017
 40
3
 50
29.999999999999964
 51
90
  0
LINE
  8
_0-0_
  6
CENTER1
 62
    4
 10
555.74817447152895
 20
137.85639354987017
 11
468.46047554062852
 21
137.85639354987017
  0
TEXT
  8
_0-0_
 62
    7
 10
492.92182205149754
 20
332.69471992418027
 40
4
 41
1
 50
0
  1
スチロールパッキンφ60
  0
LINE
  8
_0-0_
  6
CONTINUOUS
 62
    7
 10
489.42182205149754
 20
338.19471992418027
 11
489.42182205149754
 21
331.19471992418027
  0
LINE
  8
_0-0_
  6
CONTINUOUS
 62
    7
 10
540.42182205149754
 20
338.19471992418027
 11
489.42182205149754
 21
338.19471992418027
  0
LINE
  8
_0-0_
  6
CONTINUOUS
 62
    7
 10
540.42182205149754
 20
331.19471992418027
 11
540.42182205149754
 21
338.19471992418027
  0
LINE
  8
_0-0_
  6
CONTINUOUS
 62
    7
 10
489.42182205149754
 20
331.19471992418027
 11
540.42182205149754
 21
331.19471992418027
  0
TEXT
  8
_0-0_
 62
    4
 10
509.92182168907072
 20
317.95782811083006
 40
5
 41
1
 50
0
  1
φ62
  0
TEXT
  8
_0-0_
 62
    4
 10
509.92182168907072
 20
200.01177407117086
 40
5
 41
1
 50
0
  1
φ60
  0
TEXT
  8
_0-0_
 62
    4
 10
392.4419465326323
 20
298.86707674919819
 40
5
 41
1
 50
0
  1
φ72
  0
TEXT
  8
_0-0_
 62
    4
 10
348.51206228132195
 20
216.68190447665585
 40
5
 41
1
 50
90
  1
45～65
  0
TEXT
  8
_0-0_
 62
    4
 10
337.3263194943853
 20
203.93190447665585
 40
5
 41
1
 50
90
  1
100
  0
ENDSEC
  0
EOF
