  0
SECTION
  2
HEADER
  9
$ACADVER
  1
AC1032
  9
$ACADMAINTVER
 90
      197
  9
$DWGCODEPAGE
  3
ANSI_932
  9
$REQUIREDVERSIONS
160
                 0
  9
$INSBASE
 10
0.0
 20
0.0
 30
0.0
  9
$EXTMIN
 10
1.000000000000000E+20
 20
1.000000000000000E+20
 30
1.000000000000000E+20
  9
$EXTMAX
 10
-1.000000000000000E+20
 20
-1.000000000000000E+20
 30
-1.000000000000000E+20
  9
$LIMMIN
 10
0.0
 20
0.0
  9
$LIMMAX
 10
12.0
 20
9.0
  9
$ORTHOMODE
 70
     0
  9
$REGENMODE
 70
     1
  9
$FILLMODE
 70
     1
  9
$QTEXTMODE
 70
     0
  9
$MIRRTEXT
 70
     0
  9
$LTSCALE
 40
1.0
  9
$ATTMODE
 70
     1
  9
$TEXTSIZE
 40
0.2
  9
$TRACEWID
 40
0.05
  9
$TEXTSTYLE
  7
Standard
  9
$CLAYER
  8
0
  9
$CELTYPE
  6
ByLayer
  9
$CECOLOR
 62
   256
  9
$CELTSCALE
 40
1.0
  9
$DISPSILH
 70
     0
  9
$DIMSCALE
 40
1.0
  9
$DIMASZ
 40
0.18
  9
$DIMEXO
 40
0.0625
  9
$DIMDLI
 40
0.38
  9
$DIMRND
 40
0.0
  9
$DIMDLE
 40
0.0
  9
$DIMEXE
 40
0.18
  9
$DIMTP
 40
0.0
  9
$DIMTM
 40
0.0
  9
$DIMTXT
 40
0.18
  9
$DIMCEN
 40
0.09
  9
$DIMTSZ
 40
0.0
  9
$DIMTOL
 70
     0
  9
$DIMLIM
 70
     0
  9
$DIMTIH
 70
     1
  9
$DIMTOH
 70
     1
  9
$DIMSE1
 70
     0
  9
$DIMSE2
 70
     0
  9
$DIMTAD
 70
     0
  9
$DIMZIN
 70
     0
  9
$DIMBLK
  1

  9
$DIMASO
 70
     1
  9
$DIMSHO
 70
     1
  9
$DIMPOST
  1

  9
$DIMAPOST
  1

  9
$DIMALT
 70
     0
  9
$DIMALTD
 70
     2
  9
$DIMALTF
 40
25.4
  9
$DIMLFAC
 40
1.0
  9
$DIMTOFL
 70
     0
  9
$DIMTVP
 40
0.0
  9
$DIMTIX
 70
     0
  9
$DIMSOXD
 70
     0
  9
$DIMSAH
 70
     0
  9
$DIMBLK1
  1

  9
$DIMBLK2
  1

  9
$DIMSTYLE
  2
Standard
  9
$DIMCLRD
 70
     0
  9
$DIMCLRE
 70
     0
  9
$DIMCLRT
 70
     0
  9
$DIMTFAC
 40
1.0
  9
$DIMGAP
 40
0.09
  9
$DIMJUST
 70
     0
  9
$DIMSD1
 70
     0
  9
$DIMSD2
 70
     0
  9
$DIMTOLJ
 70
     1
  9
$DIMTZIN
 70
     0
  9
$DIMALTZ
 70
     0
  9
$DIMALTTZ
 70
     0
  9
$DIMUPT
 70
     0
  9
$DIMDEC
 70
     4
  9
$DIMTDEC
 70
     4
  9
$DIMALTU
 70
     2
  9
$DIMALTTD
 70
     2
  9
$DIMTXSTY
  7
Standard
  9
$DIMAUNIT
 70
     0
  9
$DIMADEC
 70
     0
  9
$DIMALTRND
 40
0.0
  9
$DIMAZIN
 70
     0
  9
$DIMDSEP
 70
    46
  9
$DIMATFIT
 70
     3
  9
$DIMFRAC
 70
     0
  9
$DIMLDRBLK
  1

  9
$DIMLUNIT
 70
     2
  9
$DIMLWD
 70
    -2
  9
$DIMLWE
 70
    -2
  9
$DIMTMOVE
 70
     0
  9
$DIMFXL
 40
1.0
  9
$DIMFXLON
 70
     0
  9
$DIMJOGANG
 40
0.7853981633974483
  9
$DIMTFILL
 70
     0
  9
$DIMTFILLCLR
 70
     0
  9
$DIMARCSYM
 70
     0
  9
$DIMLTYPE
  6

  9
$DIMLTEX1
  6

  9
$DIMLTEX2
  6

  9
$DIMTXTDIRECTION
 70
     0
  9
$LUNITS
 70
     2
  9
$LUPREC
 70
     4
  9
$SKETCHINC
 40
0.1
  9
$FILLETRAD
 40
0.0
  9
$AUNITS
 70
     0
  9
$AUPREC
 70
     0
  9
$MENU
  1
.
  9
$ELEVATION
 40
0.0
  9
$PELEVATION
 40
0.0
  9
$THICKNESS
 40
0.0
  9
$LIMCHECK
 70
     0
  9
$CHAMFERA
 40
0.0
  9
$CHAMFERB
 40
0.0
  9
$CHAMFERC
 40
0.0
  9
$CHAMFERD
 40
0.0
  9
$SKPOLY
 70
     0
  9
$TDCREATE
 40
2459654.582013889
  9
$TDUCREATE
 40
2459654.207013889
  9
$TDUPDATE
 40
2459654.582013889
  9
$TDUUPDATE
 40
2459654.207013889
  9
$TDINDWG
 40
0.0000000000
  9
$TDUSRTIMER
 40
0.0000000000
  9
$USRTIMER
 70
     1
  9
$ANGBASE
 50
0.0
  9
$ANGDIR
 70
     0
  9
$PDMODE
 70
     0
  9
$PDSIZE
 40
0.0
  9
$PLINEWID
 40
0.0
  9
$SPLFRAME
 70
     0
  9
$SPLINETYPE
 70
     6
  9
$SPLINESEGS
 70
     8
  9
$HANDSEED
  5
279
  9
$SURFTAB1
 70
     6
  9
$SURFTAB2
 70
     6
  9
$SURFTYPE
 70
     6
  9
$SURFU
 70
     6
  9
$SURFV
 70
     6
  9
$UCSBASE
  2

  9
$UCSNAME
  2

  9
$UCSORG
 10
0.0
 20
0.0
 30
0.0
  9
$UCSXDIR
 10
1.0
 20
0.0
 30
0.0
  9
$UCSYDIR
 10
0.0
 20
1.0
 30
0.0
  9
$UCSORTHOREF
  2

  9
$UCSORTHOVIEW
 70
     0
  9
$UCSORGTOP
 10
0.0
 20
0.0
 30
0.0
  9
$UCSORGBOTTOM
 10
0.0
 20
0.0
 30
0.0
  9
$UCSORGLEFT
 10
0.0
 20
0.0
 30
0.0
  9
$UCSORGRIGHT
 10
0.0
 20
0.0
 30
0.0
  9
$UCSORGFRONT
 10
0.0
 20
0.0
 30
0.0
  9
$UCSORGBACK
 10
0.0
 20
0.0
 30
0.0
  9
$PUCSBASE
  2

  9
$PUCSNAME
  2

  9
$PUCSORG
 10
0.0
 20
0.0
 30
0.0
  9
$PUCSXDIR
 10
1.0
 20
0.0
 30
0.0
  9
$PUCSYDIR
 10
0.0
 20
1.0
 30
0.0
  9
$PUCSORTHOREF
  2

  9
$PUCSORTHOVIEW
 70
     0
  9
$PUCSORGTOP
 10
0.0
 20
0.0
 30
0.0
  9
$PUCSORGBOTTOM
 10
0.0
 20
0.0
 30
0.0
  9
$PUCSORGLEFT
 10
0.0
 20
0.0
 30
0.0
  9
$PUCSORGRIGHT
 10
0.0
 20
0.0
 30
0.0
  9
$PUCSORGFRONT
 10
0.0
 20
0.0
 30
0.0
  9
$PUCSORGBACK
 10
0.0
 20
0.0
 30
0.0
  9
$USERI1
 70
     0
  9
$USERI2
 70
     0
  9
$USERI3
 70
     0
  9
$USERI4
 70
     0
  9
$USERI5
 70
     0
  9
$USERR1
 40
0.0
  9
$USERR2
 40
0.0
  9
$USERR3
 40
0.0
  9
$USERR4
 40
0.0
  9
$USERR5
 40
0.0
  9
$WORLDVIEW
 70
     1
  9
$SHADEDGE
 70
     3
  9
$SHADEDIF
 70
    70
  9
$TILEMODE
 70
     1
  9
$MAXACTVP
 70
    64
  9
$PINSBASE
 10
0.0
 20
0.0
 30
0.0
  9
$PLIMCHECK
 70
     0
  9
$PEXTMIN
 10
1.000000000000000E+20
 20
1.000000000000000E+20
 30
1.000000000000000E+20
  9
$PEXTMAX
 10
-1.000000000000000E+20
 20
-1.000000000000000E+20
 30
-1.000000000000000E+20
  9
$PLIMMIN
 10
0.0
 20
0.0
  9
$PLIMMAX
 10
12.0
 20
9.0
  9
$UNITMODE
 70
     0
  9
$VISRETAIN
 70
     1
  9
$PLINEGEN
 70
     0
  9
$PSLTSCALE
 70
     1
  9
$TREEDEPTH
 70
  3020
  9
$CMLSTYLE
  2
Standard
  9
$CMLJUST
 70
     0
  9
$CMLSCALE
 40
1.0
  9
$PROXYGRAPHICS
 70
     1
  9
$MEASUREMENT
 70
     0
  9
$CELWEIGHT
370
    -1
  9
$ENDCAPS
280
     0
  9
$JOINSTYLE
280
     0
  9
$LWDISPLAY
290
     1
  9
$INSUNITS
 70
     4
  9
$HYPERLINKBASE
  1

  9
$STYLESHEET
  1

  9
$XEDIT
290
     1
  9
$CEPSNTYPE
380
     0
  9
$PSTYLEMODE
290
     1
  9
$FINGERPRINTGUID
  2
{2ADE3EB4-4459-4749-8062-2D2111E86CD7}
  9
$VERSIONGUID
  2
{EF20ABFC-023B-7C4B-BF7A-BD49FE6EEA64}
  9
$EXTNAMES
290
     1
  9
$PSVPSCALE
 40
0.0
  9
$OLESTARTUP
290
     0
  9
$SORTENTS
280
   127
  9
$INDEXCTL
280
     0
  9
$HIDETEXT
280
     1
  9
$XCLIPFRAME
280
     2
  9
$HALOGAP
280
     0
  9
$OBSCOLOR
 70
   257
  9
$OBSLTYPE
280
     0
  9
$INTERSECTIONDISPLAY
280
     0
  9
$INTERSECTIONCOLOR
 70
   257
  9
$DIMASSOC
280
     2
  9
$PROJECTNAME
  1

  9
$CAMERADISPLAY
290
     0
  9
$LENSLENGTH
 40
50.0
  9
$CAMERAHEIGHT
 40
0.0
  9
$STEPSPERSEC
 40
2.0
  9
$STEPSIZE
 40
6.0
  9
$3DDWFPREC
 40
2.0
  9
$PSOLWIDTH
 40
0.25
  9
$PSOLHEIGHT
 40
4.0
  9
$LOFTANG1
 40
1.570796326794896
  9
$LOFTANG2
 40
1.570796326794896
  9
$LOFTMAG1
 40
0.0
  9
$LOFTMAG2
 40
0.0
  9
$LOFTPARAM
 70
     7
  9
$LOFTNORMALS
280
     1
  9
$LATITUDE
 40
37.795
  9
$LONGITUDE
 40
-122.394
  9
$NORTHDIRECTION
 40
0.0
  9
$TIMEZONE
 70
 -8000
  9
$LIGHTGLYPHDISPLAY
280
     1
  9
$TILEMODELIGHTSYNCH
280
     1
  9
$CMATERIAL
347
11
  9
$SOLIDHIST
280
     0
  9
$SHOWHIST
280
     1
  9
$DWFFRAME
280
     2
  9
$DGNFRAME
280
     0
  9
$REALWORLDSCALE
290
     1
  9
$INTERFERECOLOR
 62
     1
  9
$INTERFEREOBJVS
345
33
  9
$INTERFEREVPVS
346
30
  9
$CSHADOW
280
     0
  9
$SHADOWPLANELOCATION
 40
0.0
  0
ENDSEC
  0
SECTION
  2
CLASSES
  0
CLASS
  1
ACDBDICTIONARYWDFLT
  2
AcDbDictionaryWithDefault
  3
ObjectDBX Classes
 90
        0
 91
        1
280
     0
281
     0
  0
CLASS
  1
MATERIAL
  2
AcDbMaterial
  3
ObjectDBX Classes
 90
     1153
 91
        3
280
     0
281
     0
  0
CLASS
  1
VISUALSTYLE
  2
AcDbVisualStyle
  3
ObjectDBX Classes
 90
     4095
 91
       24
280
     0
281
     0
  0
CLASS
  1
SCALE
  2
AcDbScale
  3
ObjectDBX Classes
 90
     1153
 91
       17
280
     0
281
     0
  0
CLASS
  1
TABLESTYLE
  2
AcDbTableStyle
  3
ObjectDBX Classes
 90
     4095
 91
        1
280
     0
281
     0
  0
CLASS
  1
MLEADERSTYLE
  2
AcDbMLeaderStyle
  3
ACDB_MLEADERSTYLE_CLASS
 90
     4095
 91
        1
280
     0
281
     0
  0
CLASS
  1
ACDBSECTIONVIEWSTYLE
  2
AcDbSectionViewStyle
  3
ObjectDBX Classes
 90
     1025
 91
        1
280
     0
281
     0
  0
CLASS
  1
ACDBDETAILVIEWSTYLE
  2
AcDbDetailViewStyle
  3
ObjectDBX Classes
 90
     1025
 91
        1
280
     0
281
     0
  0
CLASS
  1
DICTIONARYVAR
  2
AcDbDictionaryVar
  3
ObjectDBX Classes
 90
        0
 91
        5
280
     0
281
     0
  0
CLASS
  1
CELLSTYLEMAP
  2
AcDbCellStyleMap
  3
ObjectDBX Classes
 90
     1152
 91
        1
280
     0
281
     0
  0
ENDSEC
  0
SECTION
  2
TABLES
  0
TABLE
  2
VPORT
  5
8
330
0
100
AcDbSymbolTable
 70
     1
  0
VPORT
  5
57
330
8
100
AcDbSymbolTableRecord
100
AcDbViewportTableRecord
  2
*Active
 70
     0
 10
0.0
 20
0.0
 11
1.0
 21
1.0
 12
0.0
 22
0.0
 13
0.0
 23
0.0
 14
1.0
 24
1.0
 15
0.0
 25
0.0
 16
0.0
 26
0.0
 36
1.0
 17
209.9999940135198
 27
148.5194444073147
 37
0.0
 40
303.2346665909216
 41
1.412767189859307
 42
50.0
 43
0.0
 44
0.0
 50
0.0
 51
0.0
 71
     0
 72
   100
 73
     1
 74
     1
 75
     0
 76
     0
 77
     0
 78
     0
281
     0
 65
     1
110
0.0
120
0.0
130
0.0
111
1.0
121
0.0
131
0.0
112
0.0
122
1.0
132
0.0
 79
     0
146
0.0
 60
     3
 61
     5
292
     1
282
     1
141
0.0
142
0.0
 63
   250
421
  3355443
  0
ENDTAB
  0
TABLE
  2
LTYPE
  5
5
330
0
100
AcDbSymbolTable
 70
    10
  0
LTYPE
  5
5B
330
5
100
AcDbSymbolTableRecord
100
AcDbLinetypeTableRecord
  2
ByBlock
 70
     0
  3

 72
    65
 73
     0
 40
0.0
  0
LTYPE
  5
5C
330
5
100
AcDbSymbolTableRecord
100
AcDbLinetypeTableRecord
  2
ByLayer
 70
     0
  3

 72
    65
 73
     0
 40
0.0
  0
LTYPE
  5
5D
330
5
100
AcDbSymbolTableRecord
100
AcDbLinetypeTableRecord
  2
Continuous
 70
     0
  3
Solid line
 72
    65
 73
     0
 40
0.0
  0
LTYPE
  5
BB
330
5
100
AcDbSymbolTableRecord
100
AcDbLinetypeTableRecord
  2
AI-Linetype-0
 70
     0
  3
Adobe Illustrator Linetype No. 0
 72
    65
 73
     4
 40
50.80665332795589
 49
31.75415832997243
 74
     0
 49
-6.350831665994486
 74
     0
 49
6.350831665994486
 74
     0
 49
-6.350831665994486
 74
     0
  0
LTYPE
  5
BF
330
5
100
AcDbSymbolTableRecord
100
AcDbLinetypeTableRecord
  2
AI-Linetype-1
 70
     0
  3
Adobe Illustrator Linetype No. 1
 72
    65
 73
     4
 40
50.80665332795589
 49
31.75415832997243
 74
     0
 49
-6.350831665994486
 74
     0
 49
6.350831665994486
 74
     0
 49
-6.350831665994486
 74
     0
  0
LTYPE
  5
C3
330
5
100
AcDbSymbolTableRecord
100
AcDbLinetypeTableRecord
  2
AI-Linetype-2
 70
     0
  3
Adobe Illustrator Linetype No. 2
 72
    65
 73
     4
 40
50.80665332795589
 49
31.75415832997243
 74
     0
 49
-6.350831665994486
 74
     0
 49
6.350831665994486
 74
     0
 49
-6.350831665994486
 74
     0
  0
LTYPE
  5
DC
330
5
100
AcDbSymbolTableRecord
100
AcDbLinetypeTableRecord
  2
AI-Linetype-3
 70
     0
  3
Adobe Illustrator Linetype No. 3
 72
    65
 73
     4
 40
50.80665332795589
 49
31.75415832997243
 74
     0
 49
-6.350831665994486
 74
     0
 49
6.350831665994486
 74
     0
 49
-6.350831665994486
 74
     0
  0
LTYPE
  5
E0
330
5
100
AcDbSymbolTableRecord
100
AcDbLinetypeTableRecord
  2
AI-Linetype-4
 70
     0
  3
Adobe Illustrator Linetype No. 4
 72
    65
 73
     4
 40
50.80665332795589
 49
31.75415832997243
 74
     0
 49
-6.350831665994486
 74
     0
 49
6.350831665994486
 74
     0
 49
-6.350831665994486
 74
     0
  0
LTYPE
  5
222
330
5
100
AcDbSymbolTableRecord
100
AcDbLinetypeTableRecord
  2
AI-Linetype-5
 70
     0
  3
Adobe Illustrator Linetype No. 5
 72
    65
 73
     4
 40
50.80665332795589
 49
31.75415832997243
 74
     0
 49
-6.350831665994486
 74
     0
 49
6.350831665994486
 74
     0
 49
-6.350831665994486
 74
     0
  0
LTYPE
  5
224
330
5
100
AcDbSymbolTableRecord
100
AcDbLinetypeTableRecord
  2
AI-Linetype-6
 70
     0
  3
Adobe Illustrator Linetype No. 6
 72
    65
 73
     4
 40
50.80665332795589
 49
31.75415832997243
 74
     0
 49
-6.350831665994486
 74
     0
 49
6.350831665994486
 74
     0
 49
-6.350831665994486
 74
     0
  0
LTYPE
  5
22A
330
5
100
AcDbSymbolTableRecord
100
AcDbLinetypeTableRecord
  2
AI-Linetype-7
 70
     0
  3
Adobe Illustrator Linetype No. 7
 72
    65
 73
     4
 40
50.80665332795589
 49
31.75415832997243
 74
     0
 49
-6.350831665994486
 74
     0
 49
6.350831665994486
 74
     0
 49
-6.350831665994486
 74
     0
  0
LTYPE
  5
22C
330
5
100
AcDbSymbolTableRecord
100
AcDbLinetypeTableRecord
  2
AI-Linetype-8
 70
     0
  3
Adobe Illustrator Linetype No. 8
 72
    65
 73
     4
 40
50.80665332795589
 49
31.75415832997243
 74
     0
 49
-6.350831665994486
 74
     0
 49
6.350831665994486
 74
     0
 49
-6.350831665994486
 74
     0
  0
ENDTAB
  0
TABLE
  2
LAYER
  5
2
330
0
100
AcDbSymbolTable
 70
     2
  0
LAYER
  5
54
330
2
100
AcDbSymbolTableRecord
100
AcDbLayerTableRecord
  2
0
 70
     0
 62
     7
  6
Continuous
370
    -3
390
F
347
21
348
0
  0
LAYER
  5
78
330
2
100
AcDbSymbolTableRecord
100
AcDbLayerTableRecord
  2
レイヤー 1
 70
     0
 62
     7
  6
Continuous
370
     0
390
F
347
21
348
0
  0
ENDTAB
  0
TABLE
  2
STYLE
  5
3
330
0
100
AcDbSymbolTable
 70
     2
  0
STYLE
  5
55
330
3
100
AcDbSymbolTableRecord
100
AcDbTextStyleTableRecord
  2
Standard
 70
     0
 40
0.0
 41
1.0
 50
0.0
 71
     0
 42
0.2
  3
txt
  4

  0
STYLE
  5
5A
330
3
100
AcDbSymbolTableRecord
100
AcDbTextStyleTableRecord
  2
Annotative
 70
     0
 40
0.0
 41
1.0
 50
0.0
 71
     0
 42
0.2
  3
txt
  4

1001
AcadAnnotative
1000
AnnotativeData
1002
{
1070
     1
1070
     1
1002
}
  0
ENDTAB
  0
TABLE
  2
VIEW
  5
6
330
0
100
AcDbSymbolTable
 70
     0
  0
ENDTAB
  0
TABLE
  2
UCS
  5
7
330
0
100
AcDbSymbolTable
 70
     0
  0
ENDTAB
  0
TABLE
  2
APPID
  5
9
330
0
100
AcDbSymbolTable
 70
     2
  0
APPID
  5
56
330
9
100
AcDbSymbolTableRecord
100
AcDbRegAppTableRecord
  2
ACAD
 70
     0
  0
APPID
  5
5E
330
9
100
AcDbSymbolTableRecord
100
AcDbRegAppTableRecord
  2
AcadAnnotative
 70
     0
  0
ENDTAB
  0
TABLE
  2
DIMSTYLE
  5
A
330
0
100
AcDbSymbolTable
 70
     2
100
AcDbDimStyleTable
 71
     0
  0
DIMSTYLE
105
58
330
A
100
AcDbSymbolTableRecord
100
AcDbDimStyleTableRecord
  2
Standard
 70
     0
340
55
  0
DIMSTYLE
105
59
330
A
100
AcDbSymbolTableRecord
100
AcDbDimStyleTableRecord
  2
Annotative
 70
     0
340
55
1001
AcadAnnotative
1000
AnnotativeData
1002
{
1070
     1
1070
     1
1002
}
  0
ENDTAB
  0
TABLE
  2
BLOCK_RECORD
  5
1
330
0
100
AcDbSymbolTable
 70
    48
  0
BLOCK_RECORD
  5
70
330
1
100
AcDbSymbolTableRecord
100
AcDbBlockTableRecord
  2
*Model_Space
340
73
 70
     0
280
     1
281
     0
  0
BLOCK_RECORD
  5
6C
330
1
100
AcDbSymbolTableRecord
100
AcDbBlockTableRecord
  2
*Paper_Space
340
6F
 70
     0
280
     1
281
     0
  0
BLOCK_RECORD
  5
74
330
1
100
AcDbSymbolTableRecord
100
AcDbBlockTableRecord
  2
*Paper_Space0
340
77
 70
     0
280
     1
281
     0
  0
BLOCK_RECORD
  5
79
330
1
100
AcDbSymbolTableRecord
100
AcDbBlockTableRecord
  2
Block_0
340
0
102
{BLKREFS
331
7A
102
}
 70
     0
280
     1
281
     0
  0
BLOCK_RECORD
  5
7E
330
1
100
AcDbSymbolTableRecord
100
AcDbBlockTableRecord
  2
Block_1
340
0
102
{BLKREFS
331
7F
102
}
 70
     0
280
     1
281
     0
  0
BLOCK_RECORD
  5
8C
330
1
100
AcDbSymbolTableRecord
100
AcDbBlockTableRecord
  2
Block_2
340
0
102
{BLKREFS
331
8D
102
}
 70
     0
280
     1
281
     0
  0
BLOCK_RECORD
  5
A1
330
1
100
AcDbSymbolTableRecord
100
AcDbBlockTableRecord
  2
Block_3
340
0
102
{BLKREFS
331
A2
102
}
 70
     0
280
     1
281
     0
  0
BLOCK_RECORD
  5
FE
330
1
100
AcDbSymbolTableRecord
100
AcDbBlockTableRecord
  2
Block_4
340
0
102
{BLKREFS
331
FF
102
}
 70
     0
280
     1
281
     0
  0
BLOCK_RECORD
  5
10C
330
1
100
AcDbSymbolTableRecord
100
AcDbBlockTableRecord
  2
Block_5
340
0
102
{BLKREFS
331
10D
102
}
 70
     0
280
     1
281
     0
  0
BLOCK_RECORD
  5
11B
330
1
100
AcDbSymbolTableRecord
100
AcDbBlockTableRecord
  2
Block_6
340
0
102
{BLKREFS
331
11C
102
}
 70
     0
280
     1
281
     0
  0
BLOCK_RECORD
  5
132
330
1
100
AcDbSymbolTableRecord
100
AcDbBlockTableRecord
  2
Block_7
340
0
102
{BLKREFS
331
133
102
}
 70
     0
280
     1
281
     0
  0
BLOCK_RECORD
  5
138
330
1
100
AcDbSymbolTableRecord
100
AcDbBlockTableRecord
  2
Block_8
340
0
102
{BLKREFS
331
139
102
}
 70
     0
280
     1
281
     0
  0
BLOCK_RECORD
  5
13E
330
1
100
AcDbSymbolTableRecord
100
AcDbBlockTableRecord
  2
Block_9
340
0
102
{BLKREFS
331
13F
102
}
 70
     0
280
     1
281
     0
  0
BLOCK_RECORD
  5
146
330
1
100
AcDbSymbolTableRecord
100
AcDbBlockTableRecord
  2
Block_10
340
0
102
{BLKREFS
331
147
102
}
 70
     0
280
     1
281
     0
  0
BLOCK_RECORD
  5
14D
330
1
100
AcDbSymbolTableRecord
100
AcDbBlockTableRecord
  2
Block_11
340
0
102
{BLKREFS
331
14E
102
}
 70
     0
280
     1
281
     0
  0
BLOCK_RECORD
  5
153
330
1
100
AcDbSymbolTableRecord
100
AcDbBlockTableRecord
  2
Block_12
340
0
102
{BLKREFS
331
154
102
}
 70
     0
280
     1
281
     0
  0
BLOCK_RECORD
  5
159
330
1
100
AcDbSymbolTableRecord
100
AcDbBlockTableRecord
  2
Block_13
340
0
102
{BLKREFS
331
15A
102
}
 70
     0
280
     1
281
     0
  0
BLOCK_RECORD
  5
160
330
1
100
AcDbSymbolTableRecord
100
AcDbBlockTableRecord
  2
Block_14
340
0
102
{BLKREFS
331
161
102
}
 70
     0
280
     1
281
     0
  0
BLOCK_RECORD
  5
166
330
1
100
AcDbSymbolTableRecord
100
AcDbBlockTableRecord
  2
Block_15
340
0
102
{BLKREFS
331
167
102
}
 70
     0
280
     1
281
     0
  0
BLOCK_RECORD
  5
16C
330
1
100
AcDbSymbolTableRecord
100
AcDbBlockTableRecord
  2
Block_16
340
0
102
{BLKREFS
331
16D
102
}
 70
     0
280
     1
281
     0
  0
BLOCK_RECORD
  5
172
330
1
100
AcDbSymbolTableRecord
100
AcDbBlockTableRecord
  2
Block_17
340
0
102
{BLKREFS
331
173
102
}
 70
     0
280
     1
281
     0
  0
BLOCK_RECORD
  5
178
330
1
100
AcDbSymbolTableRecord
100
AcDbBlockTableRecord
  2
Block_18
340
0
102
{BLKREFS
331
179
102
}
 70
     0
280
     1
281
     0
  0
BLOCK_RECORD
  5
181
330
1
100
AcDbSymbolTableRecord
100
AcDbBlockTableRecord
  2
Block_19
340
0
102
{BLKREFS
331
182
102
}
 70
     0
280
     1
281
     0
  0
BLOCK_RECORD
  5
187
330
1
100
AcDbSymbolTableRecord
100
AcDbBlockTableRecord
  2
Block_20
340
0
102
{BLKREFS
331
188
102
}
 70
     0
280
     1
281
     0
  0
BLOCK_RECORD
  5
192
330
1
100
AcDbSymbolTableRecord
100
AcDbBlockTableRecord
  2
Block_21
340
0
102
{BLKREFS
331
193
102
}
 70
     0
280
     1
281
     0
  0
BLOCK_RECORD
  5
199
330
1
100
AcDbSymbolTableRecord
100
AcDbBlockTableRecord
  2
Block_22
340
0
102
{BLKREFS
331
19A
102
}
 70
     0
280
     1
281
     0
  0
BLOCK_RECORD
  5
19F
330
1
100
AcDbSymbolTableRecord
100
AcDbBlockTableRecord
  2
Block_23
340
0
102
{BLKREFS
331
1A0
102
}
 70
     0
280
     1
281
     0
  0
BLOCK_RECORD
  5
1AC
330
1
100
AcDbSymbolTableRecord
100
AcDbBlockTableRecord
  2
Block_24
340
0
102
{BLKREFS
331
1AD
102
}
 70
     0
280
     1
281
     0
  0
BLOCK_RECORD
  5
1B3
330
1
100
AcDbSymbolTableRecord
100
AcDbBlockTableRecord
  2
Block_25
340
0
102
{BLKREFS
331
1B4
102
}
 70
     0
280
     1
281
     0
  0
BLOCK_RECORD
  5
1BB
330
1
100
AcDbSymbolTableRecord
100
AcDbBlockTableRecord
  2
Block_26
340
0
102
{BLKREFS
331
1BC
102
}
 70
     0
280
     1
281
     0
  0
BLOCK_RECORD
  5
1C4
330
1
100
AcDbSymbolTableRecord
100
AcDbBlockTableRecord
  2
Block_27
340
0
102
{BLKREFS
331
1C5
102
}
 70
     0
280
     1
281
     0
  0
BLOCK_RECORD
  5
1CB
330
1
100
AcDbSymbolTableRecord
100
AcDbBlockTableRecord
  2
Block_28
340
0
102
{BLKREFS
331
1CC
102
}
 70
     0
280
     1
281
     0
  0
BLOCK_RECORD
  5
1D1
330
1
100
AcDbSymbolTableRecord
100
AcDbBlockTableRecord
  2
Block_29
340
0
102
{BLKREFS
331
1D2
102
}
 70
     0
280
     1
281
     0
  0
BLOCK_RECORD
  5
1D7
330
1
100
AcDbSymbolTableRecord
100
AcDbBlockTableRecord
  2
Block_30
340
0
102
{BLKREFS
331
1D8
102
}
 70
     0
280
     1
281
     0
  0
BLOCK_RECORD
  5
1DE
330
1
100
AcDbSymbolTableRecord
100
AcDbBlockTableRecord
  2
Block_31
340
0
102
{BLKREFS
331
1DF
102
}
 70
     0
280
     1
281
     0
  0
BLOCK_RECORD
  5
1E4
330
1
100
AcDbSymbolTableRecord
100
AcDbBlockTableRecord
  2
Block_32
340
0
102
{BLKREFS
331
1E5
102
}
 70
     0
280
     1
281
     0
  0
BLOCK_RECORD
  5
1EA
330
1
100
AcDbSymbolTableRecord
100
AcDbBlockTableRecord
  2
Block_33
340
0
102
{BLKREFS
331
1EB
102
}
 70
     0
280
     1
281
     0
  0
BLOCK_RECORD
  5
1F0
330
1
100
AcDbSymbolTableRecord
100
AcDbBlockTableRecord
  2
Block_34
340
0
102
{BLKREFS
331
1F1
102
}
 70
     0
280
     1
281
     0
  0
BLOCK_RECORD
  5
1F8
330
1
100
AcDbSymbolTableRecord
100
AcDbBlockTableRecord
  2
Block_35
340
0
102
{BLKREFS
331
1F9
102
}
 70
     0
280
     1
281
     0
  0
BLOCK_RECORD
  5
201
330
1
100
AcDbSymbolTableRecord
100
AcDbBlockTableRecord
  2
Block_36
340
0
102
{BLKREFS
331
202
102
}
 70
     0
280
     1
281
     0
  0
BLOCK_RECORD
  5
20A
330
1
100
AcDbSymbolTableRecord
100
AcDbBlockTableRecord
  2
Block_37
340
0
102
{BLKREFS
331
20B
102
}
 70
     0
280
     1
281
     0
  0
BLOCK_RECORD
  5
210
330
1
100
AcDbSymbolTableRecord
100
AcDbBlockTableRecord
  2
Block_38
340
0
102
{BLKREFS
331
211
102
}
 70
     0
280
     1
281
     0
  0
BLOCK_RECORD
  5
217
330
1
100
AcDbSymbolTableRecord
100
AcDbBlockTableRecord
  2
Block_39
340
0
102
{BLKREFS
331
218
102
}
 70
     0
280
     1
281
     0
  0
BLOCK_RECORD
  5
21D
330
1
100
AcDbSymbolTableRecord
100
AcDbBlockTableRecord
  2
Block_40
340
0
102
{BLKREFS
331
21E
102
}
 70
     0
280
     1
281
     0
  0
BLOCK_RECORD
  5
225
330
1
100
AcDbSymbolTableRecord
100
AcDbBlockTableRecord
  2
Block_41
340
0
102
{BLKREFS
331
226
102
}
 70
     0
280
     1
281
     0
  0
BLOCK_RECORD
  5
22D
330
1
100
AcDbSymbolTableRecord
100
AcDbBlockTableRecord
  2
Block_42
340
0
102
{BLKREFS
331
22E
102
}
 70
     0
280
     1
281
     0
  0
BLOCK_RECORD
  5
233
330
1
100
AcDbSymbolTableRecord
100
AcDbBlockTableRecord
  2
Block_43
340
0
102
{BLKREFS
331
234
102
}
 70
     0
280
     1
281
     0
  0
BLOCK_RECORD
  5
239
330
1
100
AcDbSymbolTableRecord
100
AcDbBlockTableRecord
  2
Block_44
340
0
102
{BLKREFS
331
23A
102
}
 70
     0
280
     1
281
     0
  0
BLOCK_RECORD
  5
23F
330
1
100
AcDbSymbolTableRecord
100
AcDbBlockTableRecord
  2
Block_45
340
0
102
{BLKREFS
331
240
102
}
 70
     0
280
     1
281
     0
  0
BLOCK_RECORD
  5
250
330
1
100
AcDbSymbolTableRecord
100
AcDbBlockTableRecord
  2
Block_46
340
0
102
{BLKREFS
331
251
102
}
 70
     0
280
     1
281
     0
  0
ENDTAB
  0
ENDSEC
  0
SECTION
  2
BLOCKS
  0
BLOCK
  5
71
330
70
100
AcDbEntity
  8
0
100
AcDbBlockBegin
  2
*Model_Space
 70
     0
 10
0.0
 20
0.0
 30
0.0
  3
*Model_Space
  1

  0
ENDBLK
  5
72
330
70
100
AcDbEntity
  8
0
100
AcDbBlockEnd
  0
BLOCK
  5
6D
330
6C
100
AcDbEntity
 67
     1
  8
0
100
AcDbBlockBegin
  2
*Paper_Space
 70
     0
 10
0.0
 20
0.0
 30
0.0
  3
*Paper_Space
  1

  0
ENDBLK
  5
6E
330
6C
100
AcDbEntity
 67
     1
  8
0
100
AcDbBlockEnd
  0
BLOCK
  5
75
330
74
100
AcDbEntity
 67
     1
  8
0
100
AcDbBlockBegin
  2
*Paper_Space0
 70
     0
 10
0.0
 20
0.0
 30
0.0
  3
*Paper_Space0
  1

  0
ENDBLK
  5
76
330
74
100
AcDbEntity
 67
     1
  8
0
100
AcDbBlockEnd
  0
BLOCK
  5
7B
330
79
100
AcDbEntity
  8
0
100
AcDbBlockBegin
  2
Block_0
 70
     0
 10
0.0
 20
0.0
 30
0.0
  3
Block_0
  1

  0
MTEXT
  5
7D
330
79
100
AcDbEntity
  8
レイヤー 1
100
AcDbMText
 10
300.5076693313401
 20
6.750883959036156
 30
0.0
 40
0.2
 41
0.0
 46
0.0
 71
     7
 72
     1
  1
\C143;\c13415014;\FKozGoPr6N-Regular|b0|i0|c128;\H2.500327;\W1.000000;A4
 73
     1
 44
1.0
  0
INSERT
  5
7F
330
79
100
AcDbEntity
  8
レイヤー 1
100
AcDbBlockReference
  2
Block_1
 10
0.0
 20
0.0
 30
0.0
  0
INSERT
  5
8D
330
79
100
AcDbEntity
  8
レイヤー 1
100
AcDbBlockReference
  2
Block_2
 10
0.0
 20
0.0
 30
0.0
  0
MTEXT
  5
94
330
79
100
AcDbEntity
  8
レイヤー 1
100
AcDbMText
 10
192.481984916886
 20
224.2581676346365
 30
0.0
 40
0.2
 41
0.0
 46
0.0
 71
     7
 72
     1
  1
\C143;\c13415014;\FKozGoPr6N-Regular|b0|i0|c128;\H2.500327;\W0.865385;G1  1/4”
 73
     1
 44
1.0
  0
LINE
  5
95
330
79
100
AcDbEntity
  8
レイヤー 1
 62
     3
420
    65280
370
    25
100
AcDbLine
 10
162.8851979029749
 20
180.2806926416115
 30
0.0
 11
162.8851979029749
 21
161.5282625429513
 31
0.0
  0
LINE
  5
96
330
79
100
AcDbEntity
  8
レイヤー 1
 62
     3
420
    65280
370
    25
100
AcDbLine
 10
179.8874238620614
 20
180.2806926416115
 30
0.0
 11
179.8874238620614
 21
161.5282625429513
 31
0.0
  0
SPLINE
  5
97
330
79
100
AcDbEntity
  8
レイヤー 1
 62
     3
420
    65280
370
    25
100
AcDbSpline
210
0.0
220
0.0
230
1.0
 70
     8
 71
     3
 72
    14
 73
    10
 74
     0
 42
0.0000000001
 43
0.0000000001
 40
0.0
 40
0.0
 40
0.0
 40
0.0
 40
1.0
 40
1.0
 40
1.0
 40
2.0
 40
2.0
 40
2.0
 40
3.0
 40
3.0
 40
3.0
 40
3.0
 10
181.3876254625843
 20
210.2845912313629
 30
0.0
 10
182.0780720173436
 20
210.2845852613156
 30
0.0
 10
182.6377943797088
 20
211.6279014014423
 30
0.0
 10
182.6378003497558
 20
213.2849718072288
 30
0.0
 10
182.6378063198031
 20
214.9420422130154
 30
0.0
 10
182.0780936367968
 20
216.2853680325013
 30
0.0
 10
181.3876470820378
 20
216.2853740025483
 30
0.0
 10
181.3876451214524
 20
216.2853740025653
 30
0.0
 10
181.3876431608565
 20
216.2853740025711
 30
0.0
 10
181.3876412002712
 20
216.285374002566
 30
0.0
  0
ELLIPSE
  5
98
330
79
100
AcDbEntity
  8
レイヤー 1
 62
     3
420
    65280
370
    25
100
AcDbEllipse
 10
180.3874973324939
 20
213.2849836170864
 30
0.0
 11
0.0000000000000002
 21
2.625344191181449
 31
0.0
210
0.0
220
0.0
230
1.0
 40
0.8571459999999518
 41
0.0
 42
6.283185307179586
  0
SPLINE
  5
99
330
79
100
AcDbEntity
  8
レイヤー 1
 62
     3
420
    65280
370
    25
100
AcDbSpline
210
0.0
220
0.0
230
1.0
 70
     8
 71
     3
 72
    14
 73
    10
 74
     0
 42
0.0000000001
 43
0.0000000001
 40
0.0
 40
0.0
 40
0.0
 40
0.0
 40
1.0
 40
1.0
 40
1.0
 40
2.0
 40
2.0
 40
2.0
 40
3.0
 40
3.0
 40
3.0
 40
3.0
 10
171.3863063990368
 20
210.6596483544199
 30
0.0
 10
173.8719089788017
 20
210.6596438110425
 30
0.0
 10
175.8868935826041
 20
211.8350458962271
 30
0.0
 10
175.8869004776192
 20
213.2849823914903
 30
0.0
 10
175.8869073726339
 20
214.7349188867536
 30
0.0
 10
173.8719339478594
 20
215.9103283382087
 30
0.0
 10
171.3863313680947
 20
215.9103328815862
 30
0.0
 10
171.3863273256978
 20
215.9103328815935
 30
0.0
 10
171.3863232836381
 20
215.9103328815977
 30
0.0
 10
171.3863192412413
 20
215.910332881599
 30
0.0
  0
SPLINE
  5
9A
330
79
100
AcDbEntity
  8
レイヤー 1
 62
     3
420
    65280
370
    25
100
AcDbSpline
210
0.0
220
0.0
230
1.0
 70
     8
 71
     3
 72
    14
 73
    10
 74
     0
 42
0.0000000001
 43
0.0000000001
 40
0.0
 40
0.0
 40
0.0
 40
0.0
 40
1.0
 40
1.0
 40
1.0
 40
2.0
 40
2.0
 40
2.0
 40
3.0
 40
3.0
 40
3.0
 40
3.0
 10
161.384981564896
 20
216.285374002566
 30
0.0
 10
160.6945350101165
 20
216.2853758286964
 30
0.0
 10
160.1348196937371
 20
214.9420563292537
 30
0.0
 10
160.1348224153742
 20
213.2849859234573
 30
0.0
 10
160.1348251370114
 20
211.627915517661
 30
0.0
 10
160.6945448660368
 20
210.2845930574757
 30
0.0
 10
161.3849914208161
 20
210.2845912313449
 30
0.0
 10
161.3849933814014
 20
210.2845912313398
 30
0.0
 10
161.3849953419976
 20
210.2845912313459
 30
0.0
 10
161.3849973025826
 20
210.2845912313629
 30
0.0
  0
ELLIPSE
  5
9B
330
79
100
AcDbEntity
  8
レイヤー 1
 62
     3
420
    65280
370
    25
100
AcDbEllipse
 10
162.3851254326734
 20
213.2849836170864
 30
0.0
 11
0.0000000000000002
 21
2.625344191181449
 31
0.0
210
0.0
220
0.0
230
1.0
 40
0.8571459999999518
 41
0.0
 42
6.283185307179586
  0
SPLINE
  5
9C
330
79
100
AcDbEntity
  8
レイヤー 1
 62
     3
420
    65280
370
    25
100
AcDbSpline
210
0.0
220
0.0
230
1.0
 70
     8
 71
     3
 72
    14
 73
    10
 74
     0
 42
0.0000000001
 43
0.0000000001
 40
0.0
 40
0.0
 40
0.0
 40
0.0
 40
1.0
 40
1.0
 40
1.0
 40
2.0
 40
2.0
 40
2.0
 40
3.0
 40
3.0
 40
3.0
 40
3.0
 10
171.386303523926
 20
215.910332881599
 30
0.0
 10
168.9007009441517
 20
215.9103322450868
 30
0.0
 10
166.8857220899921
 20
214.7349259607664
 30
0.0
 10
166.8857222875311
 20
213.2849894654961
 30
0.0
 10
166.8857224850698
 20
211.8350529702259
 30
0.0
 10
168.9007016595027
 20
210.6596477178955
 30
0.0
 10
171.3863042392773
 20
210.6596483544074
 30
0.0
 10
171.3863082816739
 20
210.6596483544084
 30
0.0
 10
171.3863123237339
 20
210.6596483544128
 30
0.0
 10
171.3863163661305
 20
210.6596483544199
 30
0.0
  0
LINE
  5
9D
330
79
100
AcDbEntity
  8
レイヤー 1
 62
     3
420
    65280
370
    25
100
AcDbLine
 10
161.3849864928562
 20
210.2846188044436
 30
0.0
 11
171.386310882518
 21
210.2846188044436
 31
0.0
  0
LINE
  5
9E
330
79
100
AcDbEntity
  8
レイヤー 1
 62
     3
420
    65280
370
    25
100
AcDbLine
 10
181.387636272311
 20
210.2846188044436
 30
0.0
 11
171.386310882518
 21
210.2846188044436
 31
0.0
  0
LINE
  5
9F
330
79
100
AcDbEntity
  8
レイヤー 1
 62
     3
420
    65280
370
    25
100
AcDbLine
 10
181.387636272311
 20
216.2854034369313
 30
0.0
 11
171.3863268846131
 21
216.2854034369313
 31
0.0
  0
LINE
  5
A0
330
79
100
AcDbEntity
  8
レイヤー 1
 62
     3
420
    65280
370
    25
100
AcDbLine
 10
161.3849864928562
 20
216.2854034369313
 30
0.0
 11
171.3862958805541
 21
216.2854034369313
 31
0.0
  0
INSERT
  5
A2
330
79
100
AcDbEntity
  8
レイヤー 1
100
AcDbBlockReference
  2
Block_3
 10
0.0
 20
0.0
 30
0.0
  0
SPLINE
  5
AF
330
79
100
AcDbEntity
  8
レイヤー 1
 62
     3
420
    65280
370
    25
100
AcDbSpline
210
0.0
220
0.0
230
1.0
 70
     8
 71
     3
 72
    74
 73
    70
 74
     0
 42
0.0000000001
 43
0.0000000001
 40
0.0
 40
0.0
 40
0.0
 40
0.0
 40
1.0
 40
1.0
 40
1.0
 40
2.0
 40
2.0
 40
2.0
 40
3.0
 40
3.0
 40
3.0
 40
4.0
 40
4.0
 40
4.0
 40
5.0
 40
5.0
 40
5.0
 40
6.0
 40
6.0
 40
6.0
 40
7.0
 40
7.0
 40
7.0
 40
8.0
 40
8.0
 40
8.0
 40
9.0
 40
9.0
 40
9.0
 40
10.0
 40
10.0
 40
10.0
 40
11.0
 40
11.0
 40
11.0
 40
12.0
 40
12.0
 40
12.0
 40
13.0
 40
13.0
 40
13.0
 40
14.0
 40
14.0
 40
14.0
 40
15.0
 40
15.0
 40
15.0
 40
16.0
 40
16.0
 40
16.0
 40
17.0
 40
17.0
 40
17.0
 40
18.0
 40
18.0
 40
18.0
 40
19.0
 40
19.0
 40
19.0
 40
20.0
 40
20.0
 40
20.0
 40
21.0
 40
21.0
 40
21.0
 40
22.0
 40
22.0
 40
22.0
 40
23.0
 40
23.0
 40
23.0
 40
23.0
 10
240.4581805163788
 20
131.7328915881248
 30
0.0
 10
240.5880212647235
 20
131.8044462563848
 30
0.0
 10
240.71989458719
 20
131.8723812988499
 30
0.0
 10
240.8534493825229
 20
131.9367806211341
 30
0.0
 10
240.9898111570041
 20
132.0025334519498
 30
0.0
 10
241.1279258276037
 20
132.0646003772083
 30
0.0
 10
241.2675331216162
 20
132.1231809752208
 30
0.0
 10
241.4597010488999
 20
132.2038165335465
 30
0.0
 10
241.6546970832223
 20
132.2778464694906
 30
0.0
 10
241.8528250423139
 20
132.3426004390702
 30
0.0
 10
242.0328528506337
 20
132.401438753849
 30
0.0
 10
242.2154664830509
 20
132.4526185138664
 30
0.0
 10
242.4006031843653
 20
132.4926800799361
 30
0.0
 10
242.5613007635381
 20
132.5274532861101
 30
0.0
 10
242.723899257879
 20
132.5538498904678
 30
0.0
 10
242.8878640722432
 20
132.5676246704852
 30
0.0
 10
243.0242833014097
 20
132.579085329769
 30
0.0
 10
243.1616483370713
 20
132.5818087948112
 30
0.0
 10
243.2980126427267
 20
132.5717983337584
 30
0.0
 10
243.4684005943035
 20
132.5592902074931
 30
0.0
 10
243.6372261421235
 20
132.5269010605192
 30
0.0
 10
243.8030225670596
 20
132.4844433389922
 30
0.0
 10
244.0188167197832
 20
132.4291820265299
 30
0.0
 10
244.2294793538303
 20
132.3568639354718
 30
0.0
 10
244.43674356059
 20
132.2761892432001
 30
0.0
 10
244.6867642288589
 20
132.1788721965694
 30
0.0
 10
244.931839727556
 20
132.0693951692935
 30
0.0
 10
245.1745308146254
 20
131.9549972838677
 30
0.0
 10
245.3703102682313
 20
131.8627122487112
 30
0.0
 10
245.5645380216903
 20
131.7672248737305
 30
0.0
 10
245.7553922306368
 20
131.6652233027988
 30
0.0
 10
245.9234263893462
 20
131.5754178525916
 30
0.0
 10
246.0888455094004
 20
131.4805628546011
 30
0.0
 10
246.2494330436871
 20
131.377904207852
 30
0.0
 10
246.3888153374639
 20
131.2888014158862
 30
0.0
 10
246.5245578000007
 20
131.1938198160283
 30
0.0
 10
246.6533025731088
 20
131.0898901772217
 30
0.0
 10
246.766328609669
 20
130.9986495398599
 30
0.0
 10
246.8739613726782
 20
130.9005124515647
 30
0.0
 10
246.9747817662816
 20
130.7961265634449
 30
0.0
 10
247.125814887681
 20
130.6397521837254
 30
0.0
 10
247.2615601803441
 20
130.4693546975327
 30
0.0
 10
247.3998121933149
 20
130.3012135633351
 30
0.0
 10
247.6246370244539
 20
130.0277831713211
 30
0.0
 10
247.8560909087942
 20
129.7603197303747
 30
0.0
 10
248.1092667164539
 20
129.5124476455132
 30
0.0
 10
248.4650417342356
 20
129.1641256782035
 30
0.0
 10
248.8637115637604
 20
128.8544912395549
 30
0.0
 10
249.3023597723476
 20
128.6185591639187
 30
0.0
 10
249.7222480026445
 20
128.3927173622892
 30
0.0
 10
250.1787681682833
 20
128.2344085687444
 30
0.0
 10
250.6463443419532
 20
128.1387934330834
 30
0.0
 10
251.0668806065069
 20
128.0527975371203
 30
0.0
 10
251.4963602267928
 20
128.01751539634
 30
0.0
 10
251.9248606751699
 20
128.0259923118184
 30
0.0
 10
252.3266230288701
 20
128.0339402743641
 30
0.0
 10
252.7275245972277
 20
128.0803566140365
 30
0.0
 10
253.1203673592645
 20
128.1635496846839
 30
0.0
 10
253.5590710536984
 20
128.2564548135841
 30
0.0
 10
253.9877245230055
 20
128.3952246041969
 30
0.0
 10
254.4037744179618
 20
128.5621475546566
 30
0.0
 10
254.7165628519443
 20
128.6876410805601
 30
0.0
 10
255.0222276081687
 20
128.8290470796262
 30
0.0
 10
255.3294179192122
 20
128.9670708751796
 30
0.0
 10
255.4901523649971
 20
129.0392905301806
 30
0.0
 10
255.6513044783032
 20
129.1105842030151
 30
0.0
 10
255.8124036444523
 20
129.1819996003596
 30
0.0
 10
255.9870088290717
 20
129.2594022271768
 30
0.0
 10
256.1615518165633
 20
129.336947844013
 30
0.0
 10
256.3353118165474
 20
129.4162227556832
 30
0.0
  0
SPLINE
  5
B0
330
79
100
AcDbEntity
  8
レイヤー 1
 62
     3
420
    65280
370
    25
100
AcDbSpline
210
0.0
220
0.0
230
1.0
 70
     8
 71
     3
 72
    26
 73
    22
 74
     0
 42
0.0000000001
 43
0.0000000001
 40
0.0
 40
0.0
 40
0.0
 40
0.0
 40
1.0
 40
1.0
 40
1.0
 40
2.0
 40
2.0
 40
2.0
 40
3.0
 40
3.0
 40
3.0
 40
4.0
 40
4.0
 40
4.0
 40
5.0
 40
5.0
 40
5.0
 40
6.0
 40
6.0
 40
6.0
 40
7.0
 40
7.0
 40
7.0
 40
7.0
 10
240.4580012332328
 20
134.4936094383252
 30
0.0
 10
241.4100820958419
 20
134.8760975199793
 30
0.0
 10
242.4651261829661
 20
135.1382100129315
 30
0.0
 10
243.48256059944
 20
135.0653056463531
 30
0.0
 10
244.4363406643911
 20
134.9969624388068
 30
0.0
 10
245.35706983897
 20
134.6342107638215
 30
0.0
 10
246.2404973502521
 20
134.2167111971283
 30
0.0
 10
247.1772321003317
 20
133.7740191287131
 30
0.0
 10
248.0720277006897
 20
133.2697726998661
 30
0.0
 10
248.7862855230688
 20
132.5195219447856
 30
0.0
 10
249.3465961629822
 20
131.9309760899084
 30
0.0
 10
249.795806352076
 20
131.1910425761484
 30
0.0
 10
250.4834781428152
 20
130.8223278222615
 30
0.0
 10
251.0943307903167
 20
130.4948018329486
 30
0.0
 10
251.8933441546467
 20
130.4601900381062
 30
0.0
 10
252.6049677689992
 20
130.6101800203614
 30
0.0
 10
253.2099620492707
 20
130.7376955770861
 30
0.0
 10
253.7517933902075
 20
130.998636287798
 30
0.0
 10
254.3021599872377
 20
131.2466273224398
 30
0.0
 10
254.9848758105744
 20
131.5542539195279
 30
0.0
 10
255.6807254931674
 20
131.8419538476226
 30
0.0
 10
256.3347800098187
 20
132.2079545008321
 30
0.0
  0
SPLINE
  5
B1
330
79
100
AcDbEntity
  8
レイヤー 1
 62
     3
420
    65280
370
    25
100
AcDbSpline
210
0.0
220
0.0
230
1.0
 70
     8
 71
     3
 72
     8
 73
     4
 74
     0
 42
0.0000000001
 43
0.0000000001
 40
0.0
 40
0.0
 40
0.0
 40
0.0
 40
1.0
 40
1.0
 40
1.0
 40
1.0
 10
264.7735242884457
 20
105.8198472349442
 30
0.0
 10
264.7735263959958
 20
110.3767901239307
 30
0.0
 10
261.0234219143317
 20
114.070923962724
 30
0.0
 10
256.3974314923059
 20
114.0709261012476
 30
0.0
  0
SPLINE
  5
B2
330
79
100
AcDbEntity
  8
レイヤー 1
 62
     3
420
    65280
370
    25
100
AcDbSpline
210
0.0
220
0.0
230
1.0
 70
     8
 71
     3
 72
    14
 73
    10
 74
     0
 42
0.0000000001
 43
0.0000000001
 40
0.0
 40
0.0
 40
0.0
 40
0.0
 40
1.0
 40
1.0
 40
1.0
 40
2.0
 40
2.0
 40
2.0
 40
3.0
 40
3.0
 40
3.0
 40
3.0
 10
171.3863163661305
 20
187.4066431321464
 30
0.0
 10
168.9007137863659
 20
187.4066476755239
 30
0.0
 10
166.8857291825632
 20
186.2312455903392
 30
0.0
 10
166.8857222875484
 20
184.781309095076
 30
0.0
 10
166.8857153925333
 20
183.3313725998132
 30
0.0
 10
168.9006888173079
 20
182.1559631483579
 30
0.0
 10
171.3862913970729
 20
182.1559586049802
 30
0.0
 10
171.3862954394695
 20
182.1559586049728
 30
0.0
 10
171.3862994815294
 20
182.1559586049686
 30
0.0
 10
171.386303523926
 20
182.1559586049677
 30
0.0
  0
ELLIPSE
  5
B3
330
79
100
AcDbEntity
  8
レイヤー 1
 62
     3
420
    65280
370
    25
100
AcDbEllipse
 10
162.3851254326734
 20
184.7813088696109
 30
0.0
 11
0.0000000000000002
 21
2.625344191181449
 31
0.0
210
0.0
220
0.0
230
1.0
 40
0.8571459999999518
 41
0.0
 42
6.283185307179586
  0
SPLINE
  5
B4
330
79
100
AcDbEntity
  8
レイヤー 1
 62
     3
420
    65280
370
    25
100
AcDbSpline
210
0.0
220
0.0
230
1.0
 70
     8
 71
     3
 72
    14
 73
    10
 74
     0
 42
0.0000000001
 43
0.0000000001
 40
0.0
 40
0.0
 40
0.0
 40
0.0
 40
1.0
 40
1.0
 40
1.0
 40
2.0
 40
2.0
 40
2.0
 40
3.0
 40
3.0
 40
3.0
 40
3.0
 10
161.3849973025829
 20
187.7817012553347
 30
0.0
 10
160.6945507478239
 20
187.7817072253818
 30
0.0
 10
160.1348283854585
 20
186.4383910852553
 30
0.0
 10
160.1348224154114
 20
184.7813206794686
 30
0.0
 10
160.1348164453641
 20
183.1242502736819
 30
0.0
 10
160.6945291283705
 20
181.7809244541963
 30
0.0
 10
161.3849756831295
 20
181.780918484149
 30
0.0
 10
161.3849776437148
 20
181.780918484132
 30
0.0
 10
161.3849796043107
 20
181.7809184841262
 30
0.0
 10
161.384981564896
 20
181.7809184841313
 30
0.0
  0
ELLIPSE
  5
B5
330
79
100
AcDbEntity
  8
レイヤー 1
 62
     3
420
    65280
370
    25
100
AcDbEllipse
 10
218.8925024704171
 20
146.0261969873056
 30
0.0
 11
0.0000000000000002
 21
2.625343714273555
 31
0.0
210
0.0
220
0.0
230
1.0
 40
0.8571439999998784
 41
0.0
 42
6.283185307179586
  0
SPLINE
  5
B6
330
79
100
AcDbEntity
  8
レイヤー 1
 62
     3
420
    65280
370
    25
100
AcDbSpline
210
0.0
220
0.0
230
1.0
 70
     8
 71
     3
 72
    11
 73
     7
 74
     0
 42
0.0000000001
 43
0.0000000001
 40
0.0
 40
0.0
 40
0.0
 40
0.0
 40
1.0
 40
1.0
 40
1.0
 40
2.0
 40
2.0
 40
2.0
 40
2.0
 10
209.8913236108938
 20
143.4008567734908
 30
0.0
 10
212.376930404818
 20
143.4008558955426
 30
0.0
 10
214.3919121236403
 20
144.5762609299796
 30
0.0
 10
214.3919112456914
 20
146.0261973979009
 30
0.0
 10
214.3919103677431
 20
147.4761338658223
 30
0.0
 10
212.3769272254848
 20
148.6515403236953
 30
0.0
 10
209.8913204315607
 20
148.6515412016442
 30
0.0
  0
SPLINE
  5
B7
330
79
100
AcDbEntity
  8
レイヤー 1
 62
     3
420
    65280
370
    25
100
AcDbSpline
210
0.0
220
0.0
230
1.0
 70
     8
 71
     3
 72
    14
 73
    10
 74
     0
 42
0.0000000001
 43
0.0000000001
 40
0.0
 40
0.0
 40
0.0
 40
0.0
 40
1.0
 40
1.0
 40
1.0
 40
2.0
 40
2.0
 40
2.0
 40
3.0
 40
3.0
 40
3.0
 40
3.0
 10
219.8926315015887
 20
143.0258022634015
 30
0.0
 10
220.5830788245651
 20
143.0257997349135
 30
0.0
 10
221.1427978240744
 20
144.3691201595884
 30
0.0
 10
221.142798877612
 20
146.0261924090733
 30
0.0
 10
221.1427999311497
 20
147.6832646585589
 30
0.0
 10
220.5830826397611
 20
149.026589182722
 30
0.0
 10
219.8926353167853
 20
149.0265917112097
 30
0.0
 10
219.8926349458608
 20
149.0265917112113
 30
0.0
 10
219.8926345749447
 20
149.0265917112123
 30
0.0
 10
219.8926342040202
 20
149.026591711213
 30
0.0
  0
SPLINE
  5
B8
330
79
100
AcDbEntity
  8
レイヤー 1
 62
     3
420
    65280
370
    25
100
AcDbSpline
210
0.0
220
0.0
230
1.0
 70
     8
 71
     3
 72
    11
 73
     7
 74
     0
 42
0.0000000001
 43
0.0000000001
 40
0.0
 40
0.0
 40
0.0
 40
0.0
 40
1.0
 40
1.0
 40
1.0
 40
2.0
 40
2.0
 40
2.0
 40
2.0
 10
240.4578308382955
 20
149.5266492722142
 30
0.0
 10
240.4578308382955
 20
155.7751885736072
 30
0.0
 10
235.3923888948553
 20
160.8406305170477
 30
0.0
 10
229.143849593462
 20
160.8406305170477
 30
0.0
 10
222.8953162299506
 20
160.8406305170477
 30
0.0
 10
217.8298767460652
 20
155.7751978406191
 30
0.0
 10
217.8298683486395
 20
149.5266644771135
 30
0.0
  0
SPLINE
  5
B9
330
79
100
AcDbEntity
  8
レイヤー 1
 62
     3
420
    65280
370
    25
100
AcDbSpline
210
0.0
220
0.0
230
1.0
 70
     8
 71
     3
 72
    11
 73
     7
 74
     0
 42
0.0000000001
 43
0.0000000001
 40
0.0
 40
0.0
 40
0.0
 40
0.0
 40
1.0
 40
1.0
 40
1.0
 40
2.0
 40
2.0
 40
2.0
 40
2.0
 10
256.3349094912662
 20
149.5266492722142
 30
0.0
 10
256.3349094912662
 20
164.543856985507
 30
0.0
 10
244.1610573067549
 20
176.7177091700181
 30
0.0
 10
229.143849593462
 20
176.7177091700181
 30
0.0
 10
214.1266561507691
 20
176.7177091700181
 30
0.0
 10
201.9528098773423
 20
164.543879257055
 30
0.0
 10
201.9527896956829
 20
149.5266858143753
 30
0.0
  0
SPLINE
  5
BA
330
79
100
AcDbEntity
  8
レイヤー 1
  6
AI-Linetype-0
 62
   110
420
    65407
370
    25
100
AcDbSpline
210
0.0
220
0.0
230
1.0
 70
     8
 71
     3
 72
    11
 73
     7
 74
     0
 42
0.0000000001
 43
0.0000000001
 40
0.0
 40
0.0
 40
0.0
 40
0.0
 40
1.0
 40
1.0
 40
1.0
 40
2.0
 40
2.0
 40
2.0
 40
2.0
 10
248.3963701647809
 20
149.5266492722142
 30
0.0
 10
248.3963701647809
 20
160.1595227795572
 30
0.0
 10
239.7767231008051
 20
168.7791698435327
 30
0.0
 10
229.143849593462
 20
168.7791698435327
 30
0.0
 10
218.5109861903602
 20
168.7791698435327
 30
0.0
 10
209.8913433117038
 20
160.1595385488373
 30
0.0
 10
209.8913290221612
 20
149.5266751457444
 30
0.0
  0
SPLINE
  5
BC
330
79
100
AcDbEntity
  8
レイヤー 1
 62
     3
420
    65280
370
    25
100
AcDbSpline
210
0.0
220
0.0
230
1.0
 70
     8
 71
     3
 72
    14
 73
    10
 74
     0
 42
0.0000000001
 43
0.0000000001
 40
0.0
 40
0.0
 40
0.0
 40
0.0
 40
1.0
 40
1.0
 40
1.0
 40
2.0
 40
2.0
 40
2.0
 40
3.0
 40
3.0
 40
3.0
 40
3.0
 10
163.4477415521151
 20
141.2756157590514
 30
0.0
 10
163.4477284471291
 20
126.2584080457644
 30
0.0
 10
175.6215700079455
 20
114.0845452375674
 30
0.0
 10
190.6387777212325
 20
114.0845321325817
 30
0.0
 10
205.6559854345196
 20
114.0845190275953
 30
0.0
 10
217.829848242716
 20
126.258360588412
 30
0.0
 10
217.8298613477023
 20
141.2755683016991
 30
0.0
 10
217.82986134771
 20
141.2755777919678
 30
0.0
 10
217.8298613477139
 20
141.2755872858415
 30
0.0
 10
217.829861347712
 20
141.2755967761102
 30
0.0
  0
SPLINE
  5
BD
330
79
100
AcDbEntity
  8
レイヤー 1
 62
     3
420
    65280
370
    25
100
AcDbSpline
210
0.0
220
0.0
230
1.0
 70
     8
 71
     3
 72
    14
 73
    10
 74
     0
 42
0.0000000001
 43
0.0000000001
 40
0.0
 40
0.0
 40
0.0
 40
0.0
 40
1.0
 40
1.0
 40
1.0
 40
2.0
 40
2.0
 40
2.0
 40
3.0
 40
3.0
 40
3.0
 40
3.0
 10
179.3248202050794
 20
141.275601903686
 30
0.0
 10
179.3248147522005
 20
135.0270626022959
 30
0.0
 10
184.3902522752067
 20
129.9616162384253
 30
0.0
 10
190.6387915765973
 20
129.961610785546
 30
0.0
 10
196.8873308779881
 20
129.9616053326667
 30
0.0
 10
201.9527772418584
 20
135.0270428556732
 30
0.0
 10
201.9527826947377
 20
141.2755821570639
 30
0.0
 10
201.9527826947409
 20
141.2755861058885
 30
0.0
 10
201.9527826947426
 20
141.2755900562129
 30
0.0
 10
201.9527826947419
 20
141.2755940050375
 30
0.0
  0
SPLINE
  5
BE
330
79
100
AcDbEntity
  8
レイヤー 1
  6
AI-Linetype-1
 62
   110
420
    65407
370
    25
100
AcDbSpline
210
0.0
220
0.0
230
1.0
 70
     8
 71
     3
 72
    14
 73
    10
 74
     0
 42
0.0000000001
 43
0.0000000001
 40
0.0
 40
0.0
 40
0.0
 40
0.0
 40
1.0
 40
1.0
 40
1.0
 40
2.0
 40
2.0
 40
2.0
 40
3.0
 40
3.0
 40
3.0
 40
3.0
 10
171.3862808785973
 20
141.2756088313687
 30
0.0
 10
171.3862715996648
 20
130.6427353240302
 30
0.0
 10
180.0059111415761
 20
122.0230807379966
 30
0.0
 10
190.638784648915
 20
122.0230714590638
 30
0.0
 10
201.2716581562539
 20
122.023062180131
 30
0.0
 10
209.8913127422874
 20
130.6427017220426
 30
0.0
 10
209.8913220212199
 20
141.2755752293812
 30
0.0
 10
209.8913220212256
 20
141.2755819489282
 30
0.0
 10
209.8913220212279
 20
141.2755886710272
 30
0.0
 10
209.8913220212269
 20
141.2755953905736
 30
0.0
  0
LINE
  5
C0
330
79
100
AcDbEntity
  8
レイヤー 1
 62
     3
420
    65280
370
    25
100
AcDbLine
 10
256.3349174923138
 20
129.4160433589667
 30
0.0
 11
256.3349174923138
 21
114.0709313519346
 31
0.0
  0
LINE
  5
C1
330
79
100
AcDbEntity
  8
レイヤー 1
 62
     3
420
    65280
370
    25
100
AcDbLine
 10
240.4578388393431
 20
149.5266492722142
 30
0.0
 11
240.4578388393431
 21
134.4936141227924
 31
0.0
  0
LINE
  5
C2
330
79
100
AcDbEntity
  8
レイヤー 1
  6
AI-Linetype-2
 62
   110
420
    65407
370
    25
100
AcDbLine
 10
248.3963781658284
 20
149.5266492722142
 30
0.0
 11
248.3963781658284
 21
89.19687980063411
 31
0.0
  0
LINE
  5
C4
330
79
100
AcDbEntity
  8
レイヤー 1
 62
     3
420
    65280
370
    25
100
AcDbLine
 10
248.3963801660904
 20
105.8198471065601
 30
0.0
 11
264.7735242884457
 21
105.8198471065601
 31
0.0
  0
LINE
  5
C5
330
79
100
AcDbEntity
  8
レイヤー 1
 62
     3
420
    65280
370
    25
100
AcDbLine
 10
256.3349194925757
 20
105.8198471065601
 30
0.0
 11
256.3349194925757
 21
91.26902208887349
 31
0.0
  0
LINE
  5
C6
330
79
100
AcDbEntity
  8
レイヤー 1
 62
     3
420
    65280
370
    25
100
AcDbLine
 10
248.3963801660904
 20
114.0709313519346
 30
0.0
 11
256.3974316767726
 21
114.0709313519346
 31
0.0
  0
LINE
  5
C7
330
79
100
AcDbEntity
  8
レイヤー 1
 62
     3
420
    65280
370
    25
100
AcDbLine
 10
240.4578368390812
 20
91.26902208887349
 30
0.0
 11
256.3349194925757
 21
91.26902208887349
 31
0.0
  0
LINE
  5
C8
330
79
100
AcDbEntity
  8
レイヤー 1
 62
     3
420
    65280
370
    25
100
AcDbLine
 10
219.3925769409806
 20
143.0258251737462
 30
0.0
 11
219.3925769409806
 21
142.9056884452502
 31
0.0
  0
LINE
  5
C9
330
79
100
AcDbEntity
  8
レイヤー 1
 62
     3
420
    65280
370
    25
100
AcDbLine
 10
217.829872349153
 20
141.2755740280179
 30
0.0
 11
218.8845084238234
 21
142.0256702318336
 31
0.0
  0
LINE
  5
CA
330
79
100
AcDbEntity
  8
レイヤー 1
 62
     3
420
    65280
370
    25
100
AcDbLine
 10
162.8851829010107
 20
180.2806926416115
 30
0.0
 11
171.3862958805541
 21
180.2806926416115
 31
0.0
  0
LINE
  5
CB
330
79
100
AcDbEntity
  8
レイヤー 1
 62
     3
420
    65280
370
    25
100
AcDbLine
 10
161.9600667833033
 20
181.7809280548726
 30
0.0
 11
162.393134481231
 21
181.0308308509263
 31
0.0
  0
LINE
  5
CC
330
79
100
AcDbEntity
  8
レイヤー 1
 62
     3
420
    65280
370
    25
100
AcDbLine
 10
162.3931294805762
 20
181.0307908456888
 30
0.0
 11
171.3862958805541
 21
181.0307908456888
 31
0.0
  0
LINE
  5
CD
330
79
100
AcDbEntity
  8
レイヤー 1
 62
     3
420
    65280
370
    25
100
AcDbLine
 10
162.3931184791362
 20
181.0308118484383
 30
0.0
 11
162.8851829010107
 21
180.2807126442301
 31
0.0
  0
LINE
  5
CE
330
79
100
AcDbEntity
  8
レイヤー 1
 62
   110
420
    65407
370
    25
100
AcDbLine
 10
162.3931294805762
 20
181.7809140530397
 30
0.0
 11
162.3931294805762
 21
181.0308158489621
 31
0.0
  0
LINE
  5
CF
330
79
100
AcDbEntity
  8
レイヤー 1
 62
     3
420
    65280
370
    25
100
AcDbLine
 10
201.9528016972299
 20
149.5266642741784
 30
0.0
 11
201.9528016972299
 21
149.0266108063648
 31
0.0
  0
LINE
  5
D0
330
79
100
AcDbEntity
  8
レイヤー 1
 62
     3
420
    65280
370
    25
100
AcDbLine
 10
217.829872349153
 20
149.526653272738
 30
0.0
 11
217.829872349153
 21
149.026606805841
 31
0.0
  0
LINE
  5
D1
330
79
100
AcDbEntity
  8
レイヤー 1
 62
     3
420
    65280
370
    25
100
AcDbLine
 10
161.3849864928562
 20
181.780889049766
 30
0.0
 11
171.3862958805541
 21
181.780889049766
 31
0.0
  0
LINE
  5
D2
330
79
100
AcDbEntity
  8
レイヤー 1
 62
     3
420
    65280
370
    25
100
AcDbLine
 10
161.3849864928562
 20
187.7816726821231
 30
0.0
 11
171.386310882518
 21
187.7816726821231
 31
0.0
  0
LINE
  5
D3
330
79
100
AcDbEntity
  8
レイヤー 1
 62
     3
420
    65280
370
    25
100
AcDbLine
 10
219.8926314089248
 20
143.02582917427
 30
0.0
 11
209.8913220212272
 21
143.02582917427
 31
0.0
  0
LINE
  5
D4
330
79
100
AcDbEntity
  8
レイヤー 1
 62
     3
420
    65280
370
    25
100
AcDbLine
 10
219.8926354094486
 20
149.0266108063648
 30
0.0
 11
209.8913220212272
 21
149.0266108063648
 31
0.0
  0
LINE
  5
D5
330
79
100
AcDbEntity
  8
レイヤー 1
 62
     3
420
    65280
370
    25
100
AcDbLine
 10
219.3925529378379
 20
142.9056964462978
 30
0.0
 11
218.8844754195028
 21
142.0256822334049
 31
0.0
  0
LINE
  5
D6
330
79
100
AcDbEntity
  8
レイヤー 1
 62
     3
420
    65280
370
    25
100
AcDbLine
 10
218.8844994226449
 20
142.0257022360239
 30
0.0
 11
209.8913180207035
 21
142.0257022360239
 31
0.0
  0
LINE
  5
D7
330
79
100
AcDbEntity
  8
レイヤー 1
 62
   110
420
    65407
370
    25
100
AcDbLine
 10
218.8845114242162
 20
143.0258251737462
 30
0.0
 11
218.8845114242162
 21
142.0256792330121
 31
0.0
  0
LINE
  5
D8
330
79
100
AcDbEntity
  8
レイヤー 1
 62
     3
420
    65280
370
    25
100
AcDbLine
 10
217.8298613477126
 20
141.2755960308987
 30
0.0
 11
209.8913180207035
 21
141.2755960308987
 31
0.0
  0
LINE
  5
D9
330
79
100
AcDbEntity
  8
レイヤー 1
 62
     3
420
    65280
370
    25
100
AcDbLine
 10
179.3248502090033
 20
159.277952928755
 30
0.0
 11
179.3248502090033
 21
141.2755920303749
 31
0.0
  0
LINE
  5
DA
330
79
100
AcDbEntity
  8
レイヤー 1
 62
     3
420
    65280
370
    25
100
AcDbLine
 10
163.447771556033
 20
159.2779569292788
 30
0.0
 11
163.447771556033
 21
141.2756150333867
 31
0.0
  0
LINE
  5
DB
330
79
100
AcDbEntity
  8
レイヤー 1
  6
AI-Linetype-3
 62
   110
420
    65407
370
    25
100
AcDbLine
 10
209.8913370231911
 20
149.5266572732618
 30
0.0
 11
209.8913370231911
 21
141.2755840293274
 31
0.0
  0
LINE
  5
DD
330
79
100
AcDbEntity
  8
レイヤー 1
 62
     3
420
    65280
370
    25
100
AcDbLine
 10
162.8852029036297
 20
161.5282665434751
 30
0.0
 11
163.4477765566877
 21
159.2779629300645
 31
0.0
  0
LINE
  5
DE
330
79
100
AcDbEntity
  8
レイヤー 1
 62
     3
420
    65280
370
    25
100
AcDbLine
 10
162.8851979029749
 20
210.2846188044436
 30
0.0
 11
162.8851979029749
 21
187.7816726821231
 31
0.0
  0
LINE
  5
DF
330
79
100
AcDbEntity
  8
レイヤー 1
  6
AI-Linetype-4
 62
   110
420
    65407
370
    25
100
AcDbLine
 10
171.386310882518
 20
221.0320188715471
 30
0.0
 11
171.386310882518
 21
141.2755960308987
 31
0.0
  0
LINE
  5
E1
330
79
100
AcDbEntity
  8
レイヤー 1
 62
     3
420
    65280
370
    25
100
AcDbLine
 10
240.4578388393431
 20
131.732724662652
 30
0.0
 11
240.4578388393431
 21
114.0709313519346
 31
0.0
  0
LINE
  5
E2
330
79
100
AcDbEntity
  8
レイヤー 1
 62
     3
420
    65280
370
    25
100
AcDbLine
 10
248.3963761655665
 20
105.8198471065601
 30
0.0
 11
232.0192320432112
 21
105.8198471065601
 31
0.0
  0
LINE
  5
E3
330
79
100
AcDbEntity
  8
レイヤー 1
 62
     3
420
    65280
370
    25
100
AcDbLine
 10
240.4578368390812
 20
105.8198471065601
 30
0.0
 11
240.4578368390812
 21
91.26902208887349
 31
0.0
  0
LINE
  5
E4
330
79
100
AcDbEntity
  8
レイヤー 1
 62
     3
420
    65280
370
    25
100
AcDbLine
 10
248.3963761655665
 20
114.0709313519346
 30
0.0
 11
240.3953246548844
 21
114.0709313519346
 31
0.0
  0
SPLINE
  5
E5
330
79
100
AcDbEntity
  8
レイヤー 1
 62
     3
420
    65280
370
    25
100
AcDbSpline
210
0.0
220
0.0
230
1.0
 70
     8
 71
     3
 72
     8
 73
     4
 74
     0
 42
0.0000000001
 43
0.0000000001
 40
0.0
 40
0.0
 40
0.0
 40
0.0
 40
1.0
 40
1.0
 40
1.0
 40
1.0
 10
240.395324839351
 20
114.0709261012476
 30
0.0
 10
235.7693344173252
 20
114.070923962724
 30
0.0
 10
232.0192299356611
 20
110.3767901239307
 30
0.0
 10
232.0192320432112
 20
105.8198472349442
 30
0.0
  0
LINE
  5
E6
330
79
100
AcDbEntity
  8
レイヤー 1
 62
     3
420
    65280
370
    25
100
AcDbLine
 10
256.3349174923138
 20
149.5266492722142
 30
0.0
 11
256.3349174923138
 21
132.2080318906481
 31
0.0
  0
SPLINE
  5
E7
330
79
100
AcDbEntity
  8
レイヤー 1
 62
     3
420
    65280
370
    25
100
AcDbSpline
210
0.0
220
0.0
230
1.0
 70
     8
 71
     3
 72
    11
 73
     7
 74
     0
 42
0.0000000001
 43
0.0000000001
 40
0.0
 40
0.0
 40
0.0
 40
0.0
 40
1.0
 40
1.0
 40
1.0
 40
2.0
 40
2.0
 40
2.0
 40
2.0
 10
209.8913536148219
 20
148.6515412016442
 30
0.0
 10
207.4057468208974
 20
148.6515403236953
 30
0.0
 10
205.3907636786397
 20
147.4761338658223
 30
0.0
 10
205.3907628006908
 20
146.0261973979009
 30
0.0
 10
205.3907619227423
 20
144.5762609299796
 30
0.0
 10
207.4057436415642
 20
143.4008558955426
 30
0.0
 10
209.8913504354887
 20
143.4008567734908
 30
0.0
  0
LINE
  5
E8
330
79
100
AcDbEntity
  8
レイヤー 1
 62
     3
420
    65280
370
    25
100
AcDbLine
 10
199.8900426374574
 20
143.02582917427
 30
0.0
 11
209.8913520251553
 21
143.02582917427
 31
0.0
  0
LINE
  5
E9
330
79
100
AcDbEntity
  8
レイヤー 1
 62
     3
420
    65280
370
    25
100
AcDbLine
 10
199.8900396370646
 20
149.0266108063648
 30
0.0
 11
209.8913520251553
 21
149.0266108063648
 31
0.0
  0
LINE
  5
EA
330
79
100
AcDbEntity
  8
レイヤー 1
 62
     3
420
    65280
370
    25
100
AcDbLine
 10
200.8981746237374
 20
142.0257022360239
 30
0.0
 11
209.8913560256791
 21
142.0257022360239
 31
0.0
  0
LINE
  5
EB
330
79
100
AcDbEntity
  8
レイヤー 1
 62
     3
420
    65280
370
    25
100
AcDbLine
 10
201.95281269867
 20
141.2755960308987
 30
0.0
 11
209.8913560256791
 21
141.2755960308987
 31
0.0
  0
ELLIPSE
  5
EC
330
79
100
AcDbEntity
  8
レイヤー 1
 62
     3
420
    65280
370
    25
100
AcDbEllipse
 10
200.8901715759653
 20
146.0261969873056
 30
0.0
 11
0.0000000000000002
 21
2.625343714273555
 31
0.0
210
0.0
220
0.0
230
1.0
 40
0.8571439999999393
 41
0.0
 42
6.283185307179586
  0
LINE
  5
ED
330
79
100
AcDbEntity
  8
レイヤー 1
 62
     3
420
    65280
370
    25
100
AcDbLine
 10
200.3901221086753
 20
142.9056964462978
 30
0.0
 11
200.8981986268798
 21
142.0256822334049
 31
0.0
  0
LINE
  5
EE
330
79
100
AcDbEntity
  8
レイヤー 1
 62
     3
420
    65280
370
    25
100
AcDbLine
 10
200.390097105402
 20
143.0258251737462
 30
0.0
 11
200.390097105402
 21
142.9056884452502
 31
0.0
  0
SPLINE
  5
EF
330
79
100
AcDbEntity
  8
レイヤー 1
 62
     3
420
    65280
370
    25
100
AcDbSpline
210
0.0
220
0.0
230
1.0
 70
     8
 71
     3
 72
    14
 73
    10
 74
     0
 42
0.0000000001
 43
0.0000000001
 40
0.0
 40
0.0
 40
0.0
 40
0.0
 40
1.0
 40
1.0
 40
1.0
 40
2.0
 40
2.0
 40
2.0
 40
3.0
 40
3.0
 40
3.0
 40
3.0
 10
199.8900398423621
 20
149.026591711213
 30
0.0
 10
199.1995925193853
 20
149.0265906576753
 30
0.0
 10
198.6398747297948
 20
147.6832673291942
 30
0.0
 10
198.6398751687693
 20
146.0261950797073
 30
0.0
 10
198.6398756077437
 20
144.3691228302204
 30
0.0
 10
199.199594109052
 20
143.0258012098607
 30
0.0
 10
199.8900414320287
 20
143.0258022633983
 30
0.0
 10
199.8900418029532
 20
143.025802263399
 30
0.0
 10
199.890042173869
 20
143.0258022634002
 30
0.0
 10
199.8900425447935
 20
143.0258022634015
 30
0.0
  0
LINE
  5
F0
330
79
100
AcDbEntity
  8
レイヤー 1
 62
     3
420
    65280
370
    25
100
AcDbLine
 10
201.9528016972299
 20
141.2755740280179
 30
0.0
 11
200.8981656225589
 21
142.0256702318336
 31
0.0
  0
LINE
  5
F1
330
79
100
AcDbEntity
  8
レイヤー 1
 62
   110
420
    65407
370
    25
100
AcDbLine
 10
200.8981626221661
 20
143.0258251737462
 30
0.0
 11
200.8981626221661
 21
142.0256792330121
 31
0.0
  0
SPLINE
  5
F2
330
79
100
AcDbEntity
  8
レイヤー 1
 62
     3
420
    65280
370
    25
100
AcDbSpline
210
0.0
220
0.0
230
1.0
 70
     8
 71
     3
 72
    14
 73
    10
 74
     0
 42
0.0000000001
 43
0.0000000001
 40
0.0
 40
0.0
 40
0.0
 40
0.0
 40
1.0
 40
1.0
 40
1.0
 40
2.0
 40
2.0
 40
2.0
 40
3.0
 40
3.0
 40
3.0
 40
3.0
 10
171.3863192412413
 20
182.1559586049677
 30
0.0
 10
173.8719218210158
 20
182.1559592414796
 30
0.0
 10
175.8869006751752
 20
183.3313655258003
 30
0.0
 10
175.8869004776365
 20
184.7813020210706
 30
0.0
 10
175.8869002800975
 20
186.2312385163405
 30
0.0
 10
173.8719211056645
 20
187.4066437686712
 30
0.0
 10
171.3863185258899
 20
187.406643132159
 30
0.0
 10
171.3863144834933
 20
187.406643132158
 30
0.0
 10
171.3863104414333
 20
187.4066431321539
 30
0.0
 10
171.3863063990368
 20
187.4066431321464
 30
0.0
  0
ELLIPSE
  5
F3
330
79
100
AcDbEntity
  8
レイヤー 1
 62
     3
420
    65280
370
    25
100
AcDbEllipse
 10
180.3874973324939
 20
184.7813088696109
 30
0.0
 11
0.0000000000000002
 21
2.625344191181449
 31
0.0
210
0.0
220
0.0
230
1.0
 40
0.8571459999999518
 41
0.0
 42
6.283185307179586
  0
SPLINE
  5
F4
330
79
100
AcDbEntity
  8
レイヤー 1
 62
     3
420
    65280
370
    25
100
AcDbSpline
210
0.0
220
0.0
230
1.0
 70
     8
 71
     3
 72
    14
 73
    10
 74
     0
 42
0.0000000001
 43
0.0000000001
 40
0.0
 40
0.0
 40
0.0
 40
0.0
 40
1.0
 40
1.0
 40
1.0
 40
2.0
 40
2.0
 40
2.0
 40
3.0
 40
3.0
 40
3.0
 40
3.0
 10
181.3876412002712
 20
181.7809184841313
 30
0.0
 10
182.0780877550508
 20
181.7809166580009
 30
0.0
 10
182.6378030714302
 20
183.1242361574437
 30
0.0
 10
182.637800349793
 20
184.78130656324
 30
0.0
 10
182.6377976281555
 20
186.4383769690363
 30
0.0
 10
182.0780778991304
 20
187.7816994292216
 30
0.0
 10
181.3876313443511
 20
187.7817012553524
 30
0.0
 10
181.3876293837658
 20
187.7817012553575
 30
0.0
 10
181.3876274231699
 20
187.7817012553517
 30
0.0
 10
181.3876254625843
 20
187.7817012553347
 30
0.0
  0
LINE
  5
F5
330
79
100
AcDbEntity
  8
レイヤー 1
 62
     3
420
    65280
370
    25
100
AcDbLine
 10
179.8874398641565
 20
180.2806926416115
 30
0.0
 11
171.3863268846131
 21
180.2806926416115
 31
0.0
  0
LINE
  5
F6
330
79
100
AcDbEntity
  8
レイヤー 1
 62
     3
420
    65280
370
    25
100
AcDbLine
 10
180.379493284591
 20
181.0307908456888
 30
0.0
 11
171.3863268846131
 21
181.0307908456888
 31
0.0
  0
LINE
  5
F7
330
79
100
AcDbEntity
  8
レイヤー 1
 62
     3
420
    65280
370
    25
100
AcDbLine
 10
181.387636272311
 20
181.780889049766
 30
0.0
 11
171.3863268846131
 21
181.780889049766
 31
0.0
  0
LINE
  5
F8
330
79
100
AcDbEntity
  8
レイヤー 1
 62
     3
420
    65280
370
    25
100
AcDbLine
 10
181.387636272311
 20
187.7816726821231
 30
0.0
 11
171.386310882518
 21
187.7816726821231
 31
0.0
  0
LINE
  5
F9
330
79
100
AcDbEntity
  8
レイヤー 1
 62
     3
420
    65280
370
    25
100
AcDbLine
 10
179.8874238620614
 20
210.2846188044436
 30
0.0
 11
179.8874238620614
 21
187.7816726821231
 31
0.0
  0
LINE
  5
FA
330
79
100
AcDbEntity
  8
レイヤー 1
 62
   110
420
    65407
370
    25
100
AcDbLine
 10
180.379493284591
 20
181.7809140530397
 30
0.0
 11
180.379493284591
 21
181.0308158489621
 31
0.0
  0
LINE
  5
FB
330
79
100
AcDbEntity
  8
レイヤー 1
 62
     3
420
    65280
370
    25
100
AcDbLine
 10
180.3795042860311
 20
181.0308118484383
 30
0.0
 11
179.8874398641565
 21
180.2807126442301
 31
0.0
  0
LINE
  5
FC
330
79
100
AcDbEntity
  8
レイヤー 1
 62
     3
420
    65280
370
    25
100
AcDbLine
 10
180.8125559818637
 20
181.7809280548726
 30
0.0
 11
180.3794882839362
 21
181.0308308509263
 31
0.0
  0
LINE
  5
FD
330
79
100
AcDbEntity
  8
レイヤー 1
 62
     3
420
    65280
370
    25
100
AcDbLine
 10
179.8874198615376
 20
161.5282665434751
 30
0.0
 11
179.3248452083486
 21
159.2779629300645
 31
0.0
  0
INSERT
  5
FF
330
79
100
AcDbEntity
  8
レイヤー 1
100
AcDbBlockReference
  2
Block_4
 10
0.0
 20
0.0
 30
0.0
  0
INSERT
  5
10D
330
79
100
AcDbEntity
  8
レイヤー 1
100
AcDbBlockReference
  2
Block_5
 10
0.0
 20
0.0
 30
0.0
  0
LINE
  5
119
330
79
100
AcDbEntity
  8
レイヤー 1
 62
     3
420
    65280
370
    25
100
AcDbLine
 10
163.3852633723599
 20
161.5282665434751
 30
0.0
 11
179.3873583926764
 21
161.5282665434751
 31
0.0
  0
LINE
  5
11A
330
79
100
AcDbEntity
  8
レイヤー 1
 62
     3
420
    65280
370
    25
100
AcDbLine
 10
177.646578486939
 20
159.277952928755
 30
0.0
 11
164.9510713704906
 21
159.277952928755
 31
0.0
  0
INSERT
  5
11C
330
79
100
AcDbEntity
  8
レイヤー 1
100
AcDbBlockReference
  2
Block_6
 10
0.0
 20
0.0
 30
0.0
  0
MTEXT
  5
129
330
79
100
AcDbEntity
  8
レイヤー 1
100
AcDbMText
 10
183.6033278959937
 20
11.00144007725655
 30
0.0
 40
0.2
 41
0.0
 46
0.0
 71
     7
 72
     1
  1
\C143;\c13415014;\FKozGoPr6N-Regular|b0|i0|c128;\H3.000393;\W1.055276;2022年03月05日 作成
 73
     1
 44
1.0
  0
MTEXT
  5
12A
330
79
100
AcDbEntity
  8
レイヤー 1
100
AcDbMText
 10
216.0195878230568
 20
21.08417277338835
 30
0.0
 40
0.2
 41
0.0
 46
0.0
 71
     7
 72
     1
  1
\C143;\c13415014;\FKozGoPr6N-Regular|b0|i0|c128;\H2.997200;\W0.833333;熊谷
 73
     1
 44
1.0
  0
MTEXT
  5
12B
330
79
100
AcDbEntity
  8
レイヤー 1
100
AcDbMText
 10
200.947165884008
 20
21.08417277338835
 30
0.0
 40
0.2
 41
0.0
 46
0.0
 71
     7
 72
     1
  1
\C143;\c13415014;\FKozGoPr6N-Regular|b0|i0|c128;\H2.997200;\W0.833333;片桐
 73
     1
 44
1.0
  0
MTEXT
  5
12C
330
79
100
AcDbEntity
  8
レイヤー 1
100
AcDbMText
 10
186.2379216046449
 20
21.08417277338835
 30
0.0
 40
0.2
 41
0.0
 46
0.0
 71
     7
 72
     1
  1
\C143;\c13415014;\FKozGoPr6N-Regular|b0|i0|c128;\H2.997200;\W0.833333;中田
 73
     1
 44
1.0
  0
MTEXT
  5
12D
330
79
100
AcDbEntity
  8
レイヤー 1
100
AcDbMText
 10
123.8379298430368
 20
38.358430598524
 30
0.0
 40
0.2
 41
0.0
 46
0.0
 71
     7
 72
     1
  1
\C143;\c13415014;\FKozGoPr6N-Regular|b0|i0|c128;\H4.000524;\W0.858586;注：（ ）内寸法は参考寸法である。
 73
     1
 44
1.0
  0
MTEXT
  5
12E
330
79
100
AcDbEntity
  8
レイヤー 1
100
AcDbMText
 10
255.7253898829003
 20
14.00183294793929
 30
0.0
 40
0.2
 41
0.0
 46
0.0
 71
     7
 72
     1
  1
\C143;\c13415014;\FKozGoPr6N-Regular|b0|i0|c128;\H4.500589;\W0.909091;Sトラップ 
 73
     1
 44
1.0
  0
MTEXT
  5
12F
330
79
100
AcDbEntity
  8
レイヤー 1
100
AcDbMText
 10
243.8861900567585
 20
26.50346946053722
 30
0.0
 40
0.2
 41
0.0
 46
0.0
 71
     7
 72
     1
  1
\C143;\c13415014;\FKozGoPr6N-Regular|b0|i0|c128;\H4.500589;\W0.877193;SC-433.301.32.152
 73
     1
 44
1.0
  0
LWPOLYLINE
  5
130
330
79
100
AcDbEntity
  8
レイヤー 1
 62
   143
420
  6730444
370
    25
100
AcDbPolyline
 90
        1
 70
     0
 43
0.0
 10
164.2616823727078
 20
15.14355461881029
  0
LWPOLYLINE
  5
131
330
79
100
AcDbEntity
  8
レイヤー 1
 62
   143
420
  6730444
370
    25
100
AcDbPolyline
 90
        1
 70
     0
 43
0.0
 10
164.261667298453
 20
17.03687449532905
  0
INSERT
  5
133
330
79
100
AcDbEntity
  8
レイヤー 1
100
AcDbBlockReference
  2
Block_7
 10
0.0
 20
0.0
 30
0.0
  0
INSERT
  5
139
330
79
100
AcDbEntity
  8
レイヤー 1
100
AcDbBlockReference
  2
Block_8
 10
0.0
 20
0.0
 30
0.0
  0
INSERT
  5
13F
330
79
100
AcDbEntity
  8
レイヤー 1
100
AcDbBlockReference
  2
Block_9
 10
0.0
 20
0.0
 30
0.0
  0
LWPOLYLINE
  5
144
330
79
100
AcDbEntity
  8
レイヤー 1
 62
   143
420
  6730444
370
    25
100
AcDbPolyline
 90
        1
 70
     0
 43
0.0
 10
157.9015908052432
 20
14.90641625583962
  0
LWPOLYLINE
  5
145
330
79
100
AcDbEntity
  8
レイヤー 1
 62
   143
420
  6730444
370
    25
100
AcDbPolyline
 90
        1
 70
     0
 43
0.0
 10
155.4626191268846
 20
15.49369783186061
  0
INSERT
  5
147
330
79
100
AcDbEntity
  8
レイヤー 1
100
AcDbBlockReference
  2
Block_10
 10
0.0
 20
0.0
 30
0.0
  0
LWPOLYLINE
  5
14C
330
79
100
AcDbEntity
  8
レイヤー 1
 62
   143
420
  6730444
370
    25
100
AcDbPolyline
 90
        1
 70
     0
 43
0.0
 10
154.1905035794474
 20
15.16096782790353
  0
INSERT
  5
14E
330
79
100
AcDbEntity
  8
レイヤー 1
100
AcDbBlockReference
  2
Block_11
 10
0.0
 20
0.0
 30
0.0
  0
INSERT
  5
154
330
79
100
AcDbEntity
  8
レイヤー 1
100
AcDbBlockReference
  2
Block_12
 10
0.0
 20
0.0
 30
0.0
  0
INSERT
  5
15A
330
79
100
AcDbEntity
  8
レイヤー 1
100
AcDbBlockReference
  2
Block_13
 10
0.0
 20
0.0
 30
0.0
  0
LWPOLYLINE
  5
15F
330
79
100
AcDbEntity
  8
レイヤー 1
 62
   143
420
  6730444
370
    25
100
AcDbPolyline
 90
        1
 70
     0
 43
0.0
 10
147.693908034588
 20
13.87130805422036
  0
INSERT
  5
161
330
79
100
AcDbEntity
  8
レイヤー 1
100
AcDbBlockReference
  2
Block_14
 10
0.0
 20
0.0
 30
0.0
  0
INSERT
  5
167
330
79
100
AcDbEntity
  8
レイヤー 1
100
AcDbBlockReference
  2
Block_15
 10
0.0
 20
0.0
 30
0.0
  0
INSERT
  5
16D
330
79
100
AcDbEntity
  8
レイヤー 1
100
AcDbBlockReference
  2
Block_16
 10
0.0
 20
0.0
 30
0.0
  0
INSERT
  5
173
330
79
100
AcDbEntity
  8
レイヤー 1
100
AcDbBlockReference
  2
Block_17
 10
0.0
 20
0.0
 30
0.0
  0
INSERT
  5
179
330
79
100
AcDbEntity
  8
レイヤー 1
100
AcDbBlockReference
  2
Block_18
 10
0.0
 20
0.0
 30
0.0
  0
LWPOLYLINE
  5
17E
330
79
100
AcDbEntity
  8
レイヤー 1
 62
   143
420
  6730444
370
    25
100
AcDbPolyline
 90
        1
 70
     0
 43
0.0
 10
142.3073598189312
 20
13.87118703837644
  0
LWPOLYLINE
  5
17F
330
79
100
AcDbEntity
  8
レイヤー 1
 62
   143
420
  6730444
370
    25
100
AcDbPolyline
 90
        1
 70
     0
 43
0.0
 10
140.8449433569886
 20
13.87130805422036
  0
LWPOLYLINE
  5
180
330
79
100
AcDbEntity
  8
レイヤー 1
 62
   143
420
  6730444
370
    25
100
AcDbPolyline
 90
        1
 70
     0
 43
0.0
 10
143.3596695890386
 20
18.30919106908526
  0
INSERT
  5
182
330
79
100
AcDbEntity
  8
レイヤー 1
100
AcDbBlockReference
  2
Block_19
 10
0.0
 20
0.0
 30
0.0
  0
INSERT
  5
188
330
79
100
AcDbEntity
  8
レイヤー 1
100
AcDbBlockReference
  2
Block_20
 10
0.0
 20
0.0
 30
0.0
  0
LWPOLYLINE
  5
18D
330
79
100
AcDbEntity
  8
レイヤー 1
 62
   143
420
  6730444
370
    25
100
AcDbPolyline
 90
        1
 70
     0
 43
0.0
 10
161.7643231562292
 20
17.03682248852046
  0
LWPOLYLINE
  5
18E
330
79
100
AcDbEntity
  8
レイヤー 1
 62
   143
420
  6730444
370
    25
100
AcDbPolyline
 90
        1
 70
     0
 43
0.0
 10
161.7643231562292
 20
15.14339359772915
  0
LWPOLYLINE
  5
18F
330
79
100
AcDbEntity
  8
レイヤー 1
 62
   143
420
  6730444
370
    25
100
AcDbPolyline
 90
        1
 70
     0
 43
0.0
 10
174.9446077405324
 20
13.87132305618456
  0
LWPOLYLINE
  5
190
330
79
100
AcDbEntity
  8
レイヤー 1
 62
   143
420
  6730444
370
    25
100
AcDbPolyline
 90
        1
 70
     0
 43
0.0
 10
174.9446077405324
 20
18.30920607104946
  0
LWPOLYLINE
  5
191
330
79
100
AcDbEntity
  8
レイヤー 1
 62
   143
420
  6730444
370
    25
100
AcDbPolyline
 90
        1
 70
     0
 43
0.0
 10
158.421211470608
 20
18.30919106908526
  0
INSERT
  5
193
330
79
100
AcDbEntity
  8
レイヤー 1
100
AcDbBlockReference
  2
Block_21
 10
0.0
 20
0.0
 30
0.0
  0
LWPOLYLINE
  5
198
330
79
100
AcDbEntity
  8
レイヤー 1
 62
   143
420
  6730444
370
    25
100
AcDbPolyline
 90
        1
 70
     0
 43
0.0
 10
158.4214865066161
 20
18.30919807000189
  0
INSERT
  5
19A
330
79
100
AcDbEntity
  8
レイヤー 1
100
AcDbBlockReference
  2
Block_22
 10
0.0
 20
0.0
 30
0.0
  0
INSERT
  5
1A0
330
79
100
AcDbEntity
  8
レイヤー 1
100
AcDbBlockReference
  2
Block_23
 10
0.0
 20
0.0
 30
0.0
  0
LWPOLYLINE
  5
1A5
330
79
100
AcDbEntity
  8
レイヤー 1
 62
   143
420
  6730444
370
    25
100
AcDbPolyline
 90
        1
 70
     0
 43
0.0
 10
138.7266240231746
 20
18.30919106908526
  0
LWPOLYLINE
  5
1A6
330
79
100
AcDbEntity
  8
レイヤー 1
 62
   143
420
  6730444
370
    25
100
AcDbPolyline
 90
        1
 70
     0
 43
0.0
 10
140.5490386166585
 20
13.87144207176594
  0
LWPOLYLINE
  5
1A7
330
79
100
AcDbEntity
  8
レイヤー 1
 62
   143
420
  6730444
370
    25
100
AcDbPolyline
 90
        1
 70
     0
 43
0.0
 10
140.5490066124685
 20
13.87132305618456
  0
LWPOLYLINE
  5
1A8
330
79
100
AcDbEntity
  8
レイヤー 1
 62
   143
420
  6730444
370
    25
100
AcDbPolyline
 90
        1
 70
     0
 43
0.0
 10
136.981253516428
 20
15.49852509212232
  0
LWPOLYLINE
  5
1A9
330
79
100
AcDbEntity
  8
レイヤー 1
 62
   143
420
  6730444
370
    25
100
AcDbPolyline
 90
        1
 70
     0
 43
0.0
 10
136.182490941132
 20
15.49861910443067
  0
LWPOLYLINE
  5
1AA
330
79
100
AcDbEntity
  8
レイヤー 1
 62
   143
420
  6730444
370
    25
100
AcDbPolyline
 90
        1
 70
     0
 43
0.0
 10
136.9814195381639
 20
16.68152997304614
  0
LWPOLYLINE
  5
1AB
330
79
100
AcDbEntity
  8
レイヤー 1
 62
   143
420
  6730444
370
    25
100
AcDbPolyline
 90
        1
 70
     0
 43
0.0
 10
136.182490941132
 20
16.68187201782737
  0
INSERT
  5
1AD
330
79
100
AcDbEntity
  8
レイヤー 1
100
AcDbBlockReference
  2
Block_24
 10
0.0
 20
0.0
 30
0.0
  0
LWPOLYLINE
  5
1B2
330
79
100
AcDbEntity
  8
レイヤー 1
 62
   143
420
  6730444
370
    25
100
AcDbPolyline
 90
        1
 70
     0
 43
0.0
 10
134.9397892446041
 20
18.30919106908526
  0
INSERT
  5
1B4
330
79
100
AcDbEntity
  8
レイヤー 1
100
AcDbBlockReference
  2
Block_25
 10
0.0
 20
0.0
 30
0.0
  0
LWPOLYLINE
  5
1B9
330
79
100
AcDbEntity
  8
レイヤー 1
 62
   143
420
  6730444
370
    25
100
AcDbPolyline
 90
        1
 70
     0
 43
0.0
 10
136.1834520669642
 20
13.87130805422036
  0
LWPOLYLINE
  5
1BA
330
79
100
AcDbEntity
  8
レイヤー 1
 62
   143
420
  6730444
370
    25
100
AcDbPolyline
 90
        1
 70
     0
 43
0.0
 10
134.9397892446041
 20
13.87130805422036
  0
INSERT
  5
1BC
330
79
100
AcDbEntity
  8
レイヤー 1
100
AcDbBlockReference
  2
Block_26
 10
0.0
 20
0.0
 30
0.0
  0
LWPOLYLINE
  5
1C1
330
79
100
AcDbEntity
  8
レイヤー 1
 62
   143
420
  6730444
370
    25
100
AcDbPolyline
 90
        1
 70
     0
 43
0.0
 10
154.1905165811494
 20
18.30919106908526
  0
LWPOLYLINE
  5
1C2
330
79
100
AcDbEntity
  8
レイヤー 1
 62
   143
420
  6730444
370
    25
100
AcDbPolyline
 90
        1
 70
     0
 43
0.0
 10
173.0807237178034
 20
13.87132305618456
  0
LWPOLYLINE
  5
1C3
330
79
100
AcDbEntity
  8
レイヤー 1
 62
   143
420
  6730444
370
    25
100
AcDbPolyline
 90
        1
 70
     0
 43
0.0
 10
167.6939554733401
 20
13.87130805422036
  0
INSERT
  5
1C5
330
79
100
AcDbEntity
  8
レイヤー 1
100
AcDbBlockReference
  2
Block_27
 10
0.0
 20
0.0
 30
0.0
  0
LWPOLYLINE
  5
1CA
330
79
100
AcDbEntity
  8
レイヤー 1
 62
   143
420
  6730444
370
    25
100
AcDbPolyline
 90
        1
 70
     0
 43
0.0
 10
151.7765195367285
 20
18.30919106908526
  0
INSERT
  5
1CC
330
79
100
AcDbEntity
  8
レイヤー 1
100
AcDbBlockReference
  2
Block_28
 10
0.0
 20
0.0
 30
0.0
  0
INSERT
  5
1D2
330
79
100
AcDbEntity
  8
レイヤー 1
100
AcDbBlockReference
  2
Block_29
 10
0.0
 20
0.0
 30
0.0
  0
INSERT
  5
1D8
330
79
100
AcDbEntity
  8
レイヤー 1
100
AcDbBlockReference
  2
Block_30
 10
0.0
 20
0.0
 30
0.0
  0
LWPOLYLINE
  5
1DD
330
79
100
AcDbEntity
  8
レイヤー 1
 62
   143
420
  6730444
370
    25
100
AcDbPolyline
 90
        1
 70
     0
 43
0.0
 10
171.1991543796843
 20
14.61091988540439
  0
INSERT
  5
1DF
330
79
100
AcDbEntity
  8
レイヤー 1
100
AcDbBlockReference
  2
Block_31
 10
0.0
 20
0.0
 30
0.0
  0
INSERT
  5
1E5
330
79
100
AcDbEntity
  8
レイヤー 1
100
AcDbBlockReference
  2
Block_32
 10
0.0
 20
0.0
 30
0.0
  0
INSERT
  5
1EB
330
79
100
AcDbEntity
  8
レイヤー 1
100
AcDbBlockReference
  2
Block_33
 10
0.0
 20
0.0
 30
0.0
  0
INSERT
  5
1F1
330
79
100
AcDbEntity
  8
レイヤー 1
100
AcDbBlockReference
  2
Block_34
 10
0.0
 20
0.0
 30
0.0
  0
LWPOLYLINE
  5
1F6
330
79
100
AcDbEntity
  8
レイヤー 1
 62
   143
420
  6730444
370
    25
100
AcDbPolyline
 90
        1
 70
     0
 43
0.0
 10
168.1132983743953
 20
14.61075286353756
  0
LWPOLYLINE
  5
1F7
330
79
100
AcDbEntity
  8
レイヤー 1
 62
   143
420
  6730444
370
    25
100
AcDbPolyline
 90
        1
 70
     0
 43
0.0
 10
151.2185714892624
 20
16.09011454397628
  0
INSERT
  5
1F9
330
79
100
AcDbEntity
  8
レイヤー 1
100
AcDbBlockReference
  2
Block_35
 10
0.0
 20
0.0
 30
0.0
  0
LWPOLYLINE
  5
1FE
330
79
100
AcDbEntity
  8
レイヤー 1
 62
   143
420
  6730444
370
    25
100
AcDbPolyline
 90
        1
 70
     0
 43
0.0
 10
150.03041193348
 20
16.68259511249611
  0
LWPOLYLINE
  5
1FF
330
79
100
AcDbEntity
  8
レイヤー 1
 62
   143
420
  6730444
370
    25
100
AcDbPolyline
 90
        1
 70
     0
 43
0.0
 10
149.2320504106904
 20
16.68188801992252
  0
LWPOLYLINE
  5
200
330
79
100
AcDbEntity
  8
レイヤー 1
 62
   143
420
  6730444
370
    25
100
AcDbPolyline
 90
        1
 70
     0
 43
0.0
 10
150.0310140123051
 20
15.49861910443067
  0
INSERT
  5
202
330
79
100
AcDbEntity
  8
レイヤー 1
100
AcDbBlockReference
  2
Block_36
 10
0.0
 20
0.0
 30
0.0
  0
LWPOLYLINE
  5
207
330
79
100
AcDbEntity
  8
レイヤー 1
 62
   143
420
  6730444
370
    25
100
AcDbPolyline
 90
        1
 70
     0
 43
0.0
 10
147.9895477402192
 20
18.30920607104946
  0
LWPOLYLINE
  5
208
330
79
100
AcDbEntity
  8
レイヤー 1
 62
   143
420
  6730444
370
    25
100
AcDbPolyline
 90
        1
 70
     0
 43
0.0
 10
147.9896777572413
 20
18.30920507091851
  0
LWPOLYLINE
  5
209
330
79
100
AcDbEntity
  8
レイヤー 1
 62
   143
420
  6730444
370
    25
100
AcDbPolyline
 90
        1
 70
     0
 43
0.0
 10
124.6274640520721
 20
20.24384063145863
  0
INSERT
  5
20B
330
79
100
AcDbEntity
  8
レイヤー 1
100
AcDbBlockReference
  2
Block_37
 10
0.0
 20
0.0
 30
0.0
  0
INSERT
  5
211
330
79
100
AcDbEntity
  8
レイヤー 1
100
AcDbBlockReference
  2
Block_38
 10
0.0
 20
0.0
 30
0.0
  0
LWPOLYLINE
  5
216
330
79
100
AcDbEntity
  8
レイヤー 1
 62
   143
420
  6730444
370
    25
100
AcDbPolyline
 90
        1
 70
     0
 43
0.0
 10
125.9076317398473
 20
16.25212775500917
  0
INSERT
  5
218
330
79
100
AcDbEntity
  8
レイヤー 1
100
AcDbBlockReference
  2
Block_39
 10
0.0
 20
0.0
 30
0.0
  0
INSERT
  5
21E
330
79
100
AcDbEntity
  8
レイヤー 1
100
AcDbBlockReference
  2
Block_40
 10
0.0
 20
0.0
 30
0.0
  0
INSERT
  5
226
330
79
100
AcDbEntity
  8
レイヤー 1
100
AcDbBlockReference
  2
Block_41
 10
0.0
 20
0.0
 30
0.0
  0
INSERT
  5
22E
330
79
100
AcDbEntity
  8
レイヤー 1
100
AcDbBlockReference
  2
Block_42
 10
0.0
 20
0.0
 30
0.0
  0
INSERT
  5
234
330
79
100
AcDbEntity
  8
レイヤー 1
100
AcDbBlockReference
  2
Block_43
 10
0.0
 20
0.0
 30
0.0
  0
INSERT
  5
23A
330
79
100
AcDbEntity
  8
レイヤー 1
100
AcDbBlockReference
  2
Block_44
 10
0.0
 20
0.0
 30
0.0
  0
INSERT
  5
240
330
79
100
AcDbEntity
  8
レイヤー 1
100
AcDbBlockReference
  2
Block_45
 10
0.0
 20
0.0
 30
0.0
  0
LINE
  5
245
330
79
100
AcDbEntity
  8
レイヤー 1
 62
     4
420
    65535
370
    25
100
AcDbLine
 10
182.0755003285927
 20
15.00196408154697
 30
0.0
 11
227.0813925732336
 21
15.00196408154697
 31
0.0
  0
LINE
  5
246
330
79
100
AcDbEntity
  8
レイヤー 1
 62
     4
420
    65535
370
    25
100
AcDbLine
 10
182.0755003285927
 20
30.00392816309395
 30
0.0
 11
227.0813925732336
 21
30.00392816309395
 31
0.0
  0
LINE
  5
247
330
79
100
AcDbEntity
  8
レイヤー 1
 62
     4
420
    65535
370
    25
100
AcDbLine
 10
115.0667274310162
 20
35.00458285694273
 30
0.0
 11
242.2833798421416
 21
35.00458285694273
 31
0.0
  0
LINE
  5
248
330
79
100
AcDbEntity
  8
レイヤー 1
 62
     4
420
    65535
370
    25
100
AcDbLine
 10
115.0667274310162
 20
22.50294612232014
 30
0.0
 11
182.0755003285927
 21
22.50294612232014
 31
0.0
  0
LINE
  5
249
330
79
100
AcDbEntity
  8
レイヤー 1
 62
     4
420
    65535
370
    25
100
AcDbLine
 10
162.0728815531966
 20
35.00458285694273
 30
0.0
 11
162.0728815531966
 21
22.50294612232014
 31
0.0
  0
LINE
  5
24A
330
79
100
AcDbEntity
  8
レイヤー 1
 62
     4
420
    65535
370
    25
100
AcDbLine
 10
142.0702627778009
 20
35.00458285694273
 30
0.0
 11
142.0702627778009
 21
22.50294612232014
 31
0.0
  0
LINE
  5
24B
330
79
100
AcDbEntity
  8
レイヤー 1
 62
     4
420
    65535
370
    25
100
AcDbLine
 10
167.0735362470457
 20
35.00458285694273
 30
0.0
 11
167.0735362470457
 21
22.50294612232014
 31
0.0
  0
LINE
  5
24C
330
79
100
AcDbEntity
  8
レイヤー 1
 62
     4
420
    65535
370
    25
100
AcDbLine
 10
177.8573030753449
 20
31.48943364788931
 30
0.0
 11
170.1529704115771
 21
25.06915709483603
 31
0.0
  0
LINE
  5
24D
330
79
100
AcDbEntity
  8
レイヤー 1
 62
     4
420
    65535
370
    25
100
AcDbLine
 10
242.2833798421416
 20
35.00458285694273
 30
0.0
 11
305.0916057972775
 21
35.00458285694273
 31
0.0
  0
LINE
  5
24E
330
79
100
AcDbEntity
  8
レイヤー 1
 62
     4
420
    65535
370
    25
100
AcDbLine
 10
227.0813925732336
 20
22.50294612232014
 30
0.0
 11
305.0916057972775
 21
22.50294612232014
 31
0.0
  0
LWPOLYLINE
  5
24F
330
79
100
AcDbEntity
  8
レイヤー 1
 62
     4
420
    65535
370
    25
100
AcDbPolyline
 90
        1
 70
     0
 43
0.0
 10
127.1027882116773
 20
28.75376448963175
  0
INSERT
  5
251
330
79
100
AcDbEntity
  8
レイヤー 1
100
AcDbBlockReference
  2
Block_46
 10
0.0
 20
0.0
 30
0.0
  0
MTEXT
  5
256
330
79
100
AcDbEntity
  8
レイヤー 1
100
AcDbMText
 10
214.2015032762565
 20
30.90557209937675
 30
0.0
 40
0.2
 41
0.0
 46
0.0
 71
     7
 72
     1
  1
\C140;\c16760576;\FKozGoPr6N-Regular|b0|i0|c128;\H2.497667;\W1.043411;承　認
 73
     1
 44
1.0
  0
MTEXT
  5
257
330
79
100
AcDbEntity
  8
レイヤー 1
100
AcDbMText
 10
184.1975638035057
 20
30.90557209937675
 30
0.0
 40
0.2
 41
0.0
 46
0.0
 71
     7
 72
     1
  1
\C140;\c16760576;\FKozGoPr6N-Regular|b0|i0|c128;\H2.497667;\W1.043411;製　図
 73
     1
 44
1.0
  0
MTEXT
  5
258
330
79
100
AcDbEntity
  8
レイヤー 1
100
AcDbMText
 10
199.1995335398811
 20
30.90557209937675
 30
0.0
 40
0.2
 41
0.0
 46
0.0
 71
     7
 72
     1
  1
\C140;\c16760576;\FKozGoPr6N-Regular|b0|i0|c128;\H2.497667;\W1.043411;検　図
 73
     1
 44
1.0
  0
MTEXT
  5
259
330
79
100
AcDbEntity
  8
レイヤー 1
100
AcDbMText
 10
227.9710116346305
 20
29.6592630524132
 30
0.0
 40
0.2
 41
0.0
 46
0.0
 71
     7
 72
     1
  1
\C140;\c16760576;\FKozGoPr6N-Regular|b0|i0|c128;\H2.497667;\W1.043411;品
 73
     1
 44
1.0
  0
MTEXT
  5
25A
330
79
100
AcDbEntity
  8
レイヤー 1
100
AcDbMText
 10
227.9710116346305
 20
24.65860737078169
 30
0.0
 40
0.2
 41
0.0
 46
0.0
 71
     7
 72
     1
  1
\C140;\c16760576;\FKozGoPr6N-Regular|b0|i0|c128;\H2.497667;\W1.043411;番
 73
     1
 44
1.0
  0
MTEXT
  5
25B
330
79
100
AcDbEntity
  8
レイヤー 1
100
AcDbMText
 10
227.9710116346305
 20
17.15762653981527
 30
0.0
 40
0.2
 41
0.0
 46
0.0
 71
     7
 72
     1
  1
\C140;\c16760576;\FKozGoPr6N-Regular|b0|i0|c128;\H2.497667;\W1.043411;品
 73
     1
 44
1.0
  0
MTEXT
  5
25C
330
79
100
AcDbEntity
  8
レイヤー 1
100
AcDbMText
 10
143.4443235250656
 20
26.80233687684434
 30
0.0
 40
0.2
 41
0.0
 46
0.0
 71
     7
 72
     1
  1
\C140;\c16760576;\FKozGoPr6N-Regular|b0|i0|c128;\H2.497667;\W1.043411;単位ｍｍ
 73
     1
 44
1.0
  0
MTEXT
  5
25D
330
79
100
AcDbEntity
  8
レイヤー 1
100
AcDbMText
 10
162.9625119967485
 20
24.65860737078169
 30
0.0
 40
0.2
 41
0.0
 46
0.0
 71
     7
 72
     1
  1
\C140;\c16760576;\FKozGoPr6N-Regular|b0|i0|c128;\H2.497667;\W1.043411;度
 73
     1
 44
1.0
  0
MTEXT
  5
25E
330
79
100
AcDbEntity
  8
レイヤー 1
100
AcDbMText
 10
162.9625119967485
 20
29.6592630524132
 30
0.0
 40
0.2
 41
0.0
 46
0.0
 71
     7
 72
     1
  1
\C140;\c16760576;\FKozGoPr6N-Regular|b0|i0|c128;\H2.497667;\W1.043411;尺
 73
     1
 44
1.0
  0
MTEXT
  5
25F
330
79
100
AcDbEntity
  8
レイヤー 1
100
AcDbMText
 10
170.211208216182
 20
29.4211881140165
 30
0.0
 40
0.2
 41
0.0
 46
0.0
 71
     7
 72
     1
  1
\C110;\c8388352;\FKozGoPr6N-Regular|b0|i0|c128;\H3.750491;\W1.399883;1
 73
     1
 44
1.0
  0
MTEXT
  5
260
330
79
100
AcDbEntity
  8
レイヤー 1
100
AcDbMText
 10
175.5391129796612
 20
24.18348833115302
 30
0.0
 40
0.2
 41
0.0
 46
0.0
 71
     7
 72
     1
  1
\C110;\c8388352;\FKozGoPr6N-Regular|b0|i0|c128;\H3.750491;\W1.043411;２
 73
     1
 44
1.0
  0
MTEXT
  5
261
330
79
100
AcDbEntity
  8
レイヤー 1
100
AcDbMText
 10
227.9710116346305
 20
12.15697220392419
 30
0.0
 40
0.2
 41
0.0
 46
0.0
 71
     7
 72
     1
  1
\C140;\c16760576;\FKozGoPr6N-Regular|b0|i0|c128;\H2.497667;\W1.043411;名
 73
     1
 44
1.0
  0
LINE
  5
262
330
79
100
AcDbEntity
  8
レイヤー 1
 62
     4
420
    65535
370
    25
100
AcDbLine
 10
182.0755003285927
 20
35.00458285694273
 30
0.0
 11
182.0755003285927
 21
10.00130938769819
 31
0.0
  0
LINE
  5
263
330
79
100
AcDbEntity
  8
レイヤー 1
 62
     4
420
    65535
370
    25
100
AcDbLine
 10
232.0820472670824
 20
35.00458285694273
 30
0.0
 11
232.0820472670824
 21
10.00130938769819
 31
0.0
  0
LINE
  5
264
330
79
100
AcDbEntity
  8
レイヤー 1
 62
     4
420
    65535
370
    25
100
AcDbLine
 10
197.0774644101396
 20
35.00458285694273
 30
0.0
 11
197.0774644101396
 21
15.00196408154697
 31
0.0
  0
LINE
  5
265
330
79
100
AcDbEntity
  8
レイヤー 1
 62
     4
420
    65535
370
    25
100
AcDbLine
 10
212.0794284916867
 20
35.00458285694273
 30
0.0
 11
212.0794284916867
 21
15.00196408154697
 31
0.0
  0
LINE
  5
266
330
79
100
AcDbEntity
  8
レイヤー 1
 62
     4
420
    65535
370
    25
100
AcDbLine
 10
227.0813925732336
 20
35.00458285694273
 30
0.0
 11
227.0813925732336
 21
10.00130938769819
 31
0.0
  0
LINE
  5
267
330
79
100
AcDbEntity
  8
レイヤー 1
 62
   120
420
    65471
370
    25
100
AcDbLine
 10
115.0667274310162
 20
10.00130938769819
 30
0.0
 11
115.0667274310162
 21
287.0375794269313
 31
0.0
  0
LINE
  5
268
330
79
100
AcDbEntity
  8
レイヤー 1
 62
   120
420
    65471
370
    25
100
AcDbLine
 10
115.0667274310162
 20
287.0375794269313
 30
0.0
 11
305.0916057972775
 21
287.0375794269313
 31
0.0
  0
LINE
  5
269
330
79
100
AcDbEntity
  8
レイヤー 1
 62
   120
420
    65471
370
    25
100
AcDbLine
 10
305.0916057972775
 20
10.00130938769819
 30
0.0
 11
305.0916057972775
 21
287.0375794269313
 31
0.0
  0
LINE
  5
26A
330
79
100
AcDbEntity
  8
レイヤー 1
 62
   120
420
    65471
370
    25
100
AcDbLine
 10
115.0667274310162
 20
10.00130938769819
 30
0.0
 11
305.0916057972775
 21
10.00130938769819
 31
0.0
  0
LINE
  5
26B
330
79
100
AcDbEntity
  8
レイヤー 1
 62
     4
420
    65535
370
    25
100
AcDbLine
 10
315.0929151849751
 20
0.0
 30
0.0
 11
315.0929151849751
 21
297.0388888146292
 31
0.0
  0
LINE
  5
26C
330
79
100
AcDbEntity
  8
レイヤー 1
 62
     4
420
    65535
370
    25
100
AcDbLine
 10
105.0654180433184
 20
0.0
 30
0.0
 11
105.0654180433184
 21
297.0388888146292
 31
0.0
  0
LINE
  5
26D
330
79
100
AcDbEntity
  8
レイヤー 1
 62
     4
420
    65535
370
    25
100
AcDbLine
 10
105.0654180433184
 20
0.0
 30
0.0
 11
315.0929151849751
 21
0.0
 31
0.0
  0
LINE
  5
26E
330
79
100
AcDbEntity
  8
レイヤー 1
 62
     4
420
    65535
370
    25
100
AcDbLine
 10
105.0654180433184
 20
297.0388888146292
 30
0.0
 11
315.0929151849751
 21
297.0388888146292
 31
0.0
  0
ENDBLK
  5
7C
330
79
100
AcDbEntity
  8
0
100
AcDbBlockEnd
  0
BLOCK
  5
80
330
7E
100
AcDbEntity
  8
0
100
AcDbBlockBegin
  2
Block_1
 70
     0
 10
0.0
 20
0.0
 30
0.0
  3
Block_1
  1

  0
LINE
  5
82
330
7E
100
AcDbEntity
  8
レイヤー 1
 62
   143
420
  6730444
370
    25
100
AcDbLine
 10
264.7735242884457
 20
78.2335914690873
 30
0.0
 11
232.0192320432112
 21
78.2335914690873
 31
0.0
  0
LINE
  5
83
330
7E
100
AcDbEntity
  8
レイヤー 1
 62
   143
420
  6730444
370
    25
100
AcDbLine
 10
264.7735242884457
 20
104.3196506984056
 30
0.0
 11
264.7735242884457
 21
76.73339506093279
 31
0.0
  0
LINE
  5
84
330
7E
100
AcDbEntity
  8
レイヤー 1
 62
   143
420
  6730444
370
    25
100
AcDbLine
 10
232.0192320432112
 20
104.3196506984056
 30
0.0
 11
232.0192320432112
 21
76.73339506093279
 31
0.0
  0
LINE
  5
85
330
7E
100
AcDbEntity
  8
レイヤー 1
 62
   143
420
  6730444
370
     0
100
AcDbLine
 10
262.0031615880532
 20
78.97590738429494
 30
0.0
 11
264.7735242884457
 21
78.2335914690873
 31
0.0
  0
LINE
  5
86
330
7E
100
AcDbEntity
  8
レイヤー 1
 62
   143
420
  6730444
370
     0
100
AcDbLine
 10
264.7735242884457
 20
78.2335914690873
 30
0.0
 11
262.0031615880532
 21
77.49127555387966
 31
0.0
  0
LINE
  5
87
330
7E
100
AcDbEntity
  8
レイヤー 1
 62
   143
420
  6730444
370
     0
100
AcDbLine
 10
264.7735242884457
 20
78.2335914690873
 30
0.0
 11
262.0031615880532
 21
78.2335914690873
 31
0.0
  0
LINE
  5
88
330
7E
100
AcDbEntity
  8
レイヤー 1
 62
   143
420
  6730444
370
     0
100
AcDbLine
 10
234.7895947436037
 20
77.49127555387966
 30
0.0
 11
232.0192320432112
 21
78.2335914690873
 31
0.0
  0
LINE
  5
89
330
7E
100
AcDbEntity
  8
レイヤー 1
 62
   143
420
  6730444
370
     0
100
AcDbLine
 10
232.0192320432112
 20
78.2335914690873
 30
0.0
 11
234.7895947436037
 21
78.97590738429494
 31
0.0
  0
LINE
  5
8A
330
7E
100
AcDbEntity
  8
レイヤー 1
 62
   143
420
  6730444
370
     0
100
AcDbLine
 10
232.0192320432112
 20
78.2335914690873
 30
0.0
 11
234.7895947436037
 21
78.2335914690873
 31
0.0
  0
MTEXT
  5
8B
330
7E
100
AcDbEntity
  8
レイヤー 1
100
AcDbMText
 10
243.07260922607
 20
78.73365777484512
 30
0.0
 40
0.2
 41
0.0
 46
0.0
 71
     7
 72
     1
  1
\C143;\c13415014;\FKozGoPr6N-Regular|b0|i0|c128;\H2.500327;\W0.850000;∅６６．０
 73
     1
 44
1.0
  0
ENDBLK
  5
81
330
7E
100
AcDbEntity
  8
0
100
AcDbBlockEnd
  0
BLOCK
  5
8E
330
8C
100
AcDbEntity
  8
0
100
AcDbBlockBegin
  2
Block_2
 70
     0
 10
0.0
 20
0.0
 30
0.0
  3
Block_2
  1

  0
LINE
  5
90
330
8C
100
AcDbEntity
  8
レイヤー 1
 62
   143
420
  6730444
370
     0
100
AcDbLine
 10
181.2620701940108
 20
217.6273371242515
 30
0.0
 11
178.7272809742671
 21
216.2854034369313
 31
0.0
  0
LINE
  5
91
330
8C
100
AcDbEntity
  8
レイヤー 1
 62
   143
420
  6730444
370
     0
100
AcDbLine
 10
178.7272809742671
 20
216.2854034369313
 30
0.0
 11
180.2515068605476
 21
218.7149461628957
 31
0.0
  0
LINE
  5
92
330
8C
100
AcDbEntity
  8
レイヤー 1
 62
   143
420
  6730444
370
     0
100
AcDbLine
 10
178.7272809742671
 20
216.2854034369313
 30
0.0
 11
180.7567885272794
 21
218.1711416435736
 31
0.0
  0
LWPOLYLINE
  5
93
330
8C
100
AcDbEntity
  8
レイヤー 1
 62
   143
420
  6730444
370
    25
100
AcDbPolyline
 90
        3
 70
     0
 43
0.0
 10
180.7567885272794
 20
218.1711416435736
 10
185.9624102091585
 20
223.0079995701554
 10
207.4839418430973
 20
223.0079995701554
  0
ENDBLK
  5
8F
330
8C
100
AcDbEntity
  8
0
100
AcDbBlockEnd
  0
BLOCK
  5
A3
330
A1
100
AcDbEntity
  8
0
100
AcDbBlockBegin
  2
Block_3
 70
     0
 10
0.0
 20
0.0
 30
0.0
  3
Block_3
  1

  0
LINE
  5
A5
330
A1
100
AcDbEntity
  8
レイヤー 1
 62
   110
420
    65407
370
    25
100
AcDbLine
 10
286.7826137542487
 20
168.7791698435327
 30
0.0
 11
286.7826137542487
 21
91.26902208887349
 31
0.0
  0
LINE
  5
A6
330
A1
100
AcDbEntity
  8
レイヤー 1
 62
   110
420
    65407
370
    25
100
AcDbLine
 10
230.644050002141
 20
168.7791698435327
 30
0.0
 11
288.2828101624038
 21
168.7791698435327
 31
0.0
  0
LINE
  5
A7
330
A1
100
AcDbEntity
  8
レイヤー 1
 62
   110
420
    65407
370
    25
100
AcDbLine
 10
257.8351149005992
 20
91.26902208887349
 30
0.0
 11
288.2828101624038
 21
91.26902208887349
 31
0.0
  0
LINE
  5
A8
330
A1
100
AcDbEntity
  8
レイヤー 1
 62
   110
420
    65407
370
     0
100
AcDbLine
 10
286.0402978390417
 20
166.0088071431406
 30
0.0
 11
286.7826137542487
 21
168.7791698435327
 31
0.0
  0
LINE
  5
A9
330
A1
100
AcDbEntity
  8
レイヤー 1
 62
   110
420
    65407
370
     0
100
AcDbLine
 10
286.7826137542487
 20
168.7791698435327
 30
0.0
 11
287.5249296694564
 21
166.0088071431406
 31
0.0
  0
LINE
  5
AA
330
A1
100
AcDbEntity
  8
レイヤー 1
 62
   110
420
    65407
370
     0
100
AcDbLine
 10
286.7826137542487
 20
168.7791698435327
 30
0.0
 11
286.7826137542487
 21
166.0088071431406
 31
0.0
  0
LINE
  5
AB
330
A1
100
AcDbEntity
  8
レイヤー 1
 62
   110
420
    65407
370
     0
100
AcDbLine
 10
287.5249296694564
 20
94.03938478926596
 30
0.0
 11
286.7826137542487
 21
91.26902208887349
 31
0.0
  0
LINE
  5
AC
330
A1
100
AcDbEntity
  8
レイヤー 1
 62
   110
420
    65407
370
     0
100
AcDbLine
 10
286.7826137542487
 20
91.26902208887349
 30
0.0
 11
286.0402978390417
 21
94.03938478926596
 31
0.0
  0
LINE
  5
AD
330
A1
100
AcDbEntity
  8
レイヤー 1
 62
   110
420
    65407
370
     0
100
AcDbLine
 10
286.7826137542487
 20
91.26902208887349
 30
0.0
 11
286.7826137542487
 21
94.03938478926596
 31
0.0
  0
MTEXT
  5
AE
330
A1
100
AcDbEntity
  8
レイヤー 1
100
AcDbMText
 10
286.2825470950418
 20
125.1951144435276
 30
0.0
 40
0.2
 41
0.0
 46
0.0
 71
     7
 72
     1
  1
\C110;\c8388352;\FKozGoPr6N-Regular|b0|i0|c128;\H2.500327;\W1.200000;455.0
 11
0.0000000000000001
 21
1.0
 31
0.0
 73
     1
 44
1.0
  0
ENDBLK
  5
A4
330
A1
100
AcDbEntity
  8
0
100
AcDbBlockEnd
  0
BLOCK
  5
100
330
FE
100
AcDbEntity
  8
0
100
AcDbBlockBegin
  2
Block_4
 70
     0
 10
0.0
 20
0.0
 30
0.0
  3
Block_4
  1

  0
LINE
  5
102
330
FE
100
AcDbEntity
  8
レイヤー 1
 62
   143
420
  6730444
370
    25
100
AcDbLine
 10
273.4910065954129
 20
168.7791698435327
 30
0.0
 11
273.4910065954129
 21
122.0230714590567
 31
0.0
  0
LINE
  5
103
330
FE
100
AcDbEntity
  8
レイヤー 1
 62
   143
420
  6730444
370
    25
100
AcDbLine
 10
230.6440460016172
 20
168.7791698435327
 30
0.0
 11
274.9912030035681
 21
168.7791698435327
 31
0.0
  0
LINE
  5
104
330
FE
100
AcDbEntity
  8
レイヤー 1
 62
   143
420
  6730444
370
    25
100
AcDbLine
 10
192.1390008584561
 20
122.0230714590567
 30
0.0
 11
274.9912030035681
 21
122.0230714590567
 31
0.0
  0
LINE
  5
105
330
FE
100
AcDbEntity
  8
レイヤー 1
 62
   143
420
  6730444
370
     0
100
AcDbLine
 10
272.7486906802059
 20
166.0088071431406
 30
0.0
 11
273.4910065954129
 21
168.7791698435327
 31
0.0
  0
LINE
  5
106
330
FE
100
AcDbEntity
  8
レイヤー 1
 62
   143
420
  6730444
370
     0
100
AcDbLine
 10
273.4910065954129
 20
168.7791698435327
 30
0.0
 11
274.2333225106206
 21
166.0088071431406
 31
0.0
  0
LINE
  5
107
330
FE
100
AcDbEntity
  8
レイヤー 1
 62
   143
420
  6730444
370
     0
100
AcDbLine
 10
273.4910065954129
 20
168.7791698435327
 30
0.0
 11
273.4910065954129
 21
166.0088071431406
 31
0.0
  0
LINE
  5
108
330
FE
100
AcDbEntity
  8
レイヤー 1
 62
   143
420
  6730444
370
     0
100
AcDbLine
 10
274.2333225106206
 20
124.7934341594486
 30
0.0
 11
273.4910065954129
 21
122.0230714590567
 31
0.0
  0
LINE
  5
109
330
FE
100
AcDbEntity
  8
レイヤー 1
 62
   143
420
  6730444
370
     0
100
AcDbLine
 10
273.4910065954129
 20
122.0230714590567
 30
0.0
 11
272.7486906802059
 21
124.7934341594486
 31
0.0
  0
LINE
  5
10A
330
FE
100
AcDbEntity
  8
レイヤー 1
 62
   143
420
  6730444
370
     0
100
AcDbLine
 10
273.4910065954129
 20
122.0230714590567
 30
0.0
 11
273.4910065954129
 21
124.7934341594486
 31
0.0
  0
MTEXT
  5
10B
330
FE
100
AcDbEntity
  8
レイヤー 1
100
AcDbMText
 10
272.9909434589739
 20
138.5217773091195
 30
0.0
 40
0.2
 41
0.0
 46
0.0
 71
     7
 72
     1
  1
\C143;\c13415014;\FKozGoPr6N-Regular|b0|i0|c128;\H2.500327;\W0.950000;(９５．０)
 11
0.0000000000000001
 21
1.0
 31
0.0
 73
     1
 44
1.0
  0
ENDBLK
  5
101
330
FE
100
AcDbEntity
  8
0
100
AcDbBlockEnd
  0
BLOCK
  5
10E
330
10C
100
AcDbEntity
  8
0
100
AcDbBlockBegin
  2
Block_5
 70
     0
 10
0.0
 20
0.0
 30
0.0
  3
Block_5
  1

  0
LINE
  5
110
330
10C
100
AcDbEntity
  8
レイヤー 1
 62
   143
420
  6730444
370
    25
100
AcDbLine
 10
248.3963781658284
 20
95.46460138094117
 30
0.0
 11
171.386310882518
 21
95.46460138094117
 31
0.0
  0
LINE
  5
111
330
10C
100
AcDbEntity
  8
レイヤー 1
 62
   143
420
  6730444
370
    25
100
AcDbLine
 10
171.386310882518
 20
139.7753996227442
 30
0.0
 11
171.386310882518
 21
93.96440497278666
 31
0.0
  0
LINE
  5
112
330
10C
100
AcDbEntity
  8
レイヤー 1
 62
   143
420
  6730444
370
     0
100
AcDbLine
 10
245.626015465436
 20
96.20691729614883
 30
0.0
 11
248.3963781658284
 21
95.46460138094117
 31
0.0
  0
LINE
  5
113
330
10C
100
AcDbEntity
  8
レイヤー 1
 62
   143
420
  6730444
370
     0
100
AcDbLine
 10
248.3963781658284
 20
95.46460138094117
 30
0.0
 11
245.626015465436
 21
94.72228546573353
 31
0.0
  0
LINE
  5
114
330
10C
100
AcDbEntity
  8
レイヤー 1
 62
   143
420
  6730444
370
     0
100
AcDbLine
 10
248.3963781658284
 20
95.46460138094117
 30
0.0
 11
245.626015465436
 21
95.46460138094117
 31
0.0
  0
LINE
  5
115
330
10C
100
AcDbEntity
  8
レイヤー 1
 62
   143
420
  6730444
370
     0
100
AcDbLine
 10
174.1566735829105
 20
94.72228546573353
 30
0.0
 11
171.386310882518
 21
95.46460138094117
 31
0.0
  0
LINE
  5
116
330
10C
100
AcDbEntity
  8
レイヤー 1
 62
   143
420
  6730444
370
     0
100
AcDbLine
 10
171.386310882518
 20
95.46460138094117
 30
0.0
 11
174.1566735829105
 21
96.20691729614883
 31
0.0
  0
LINE
  5
117
330
10C
100
AcDbEntity
  8
レイヤー 1
 62
   143
420
  6730444
370
     0
100
AcDbLine
 10
171.386310882518
 20
95.46460138094117
 30
0.0
 11
174.1566735829105
 21
95.46460138094117
 31
0.0
  0
MTEXT
  5
118
330
10C
100
AcDbEntity
  8
レイヤー 1
100
AcDbMText
 10
199.6565039241527
 20
95.9646635027558
 30
0.0
 40
0.2
 41
0.0
 46
0.0
 71
     7
 72
     1
  1
\C143;\c13415014;\FKozGoPr6N-Regular|b0|i0|c128;\H2.500327;\W0.950000;(１５０．０)
 73
     1
 44
1.0
  0
ENDBLK
  5
10F
330
10C
100
AcDbEntity
  8
0
100
AcDbBlockEnd
  0
BLOCK
  5
11D
330
11B
100
AcDbEntity
  8
0
100
AcDbBlockBegin
  2
Block_6
 70
     0
 10
0.0
 20
0.0
 30
0.0
  3
Block_6
  1

  0
LINE
  5
11F
330
11B
100
AcDbEntity
  8
レイヤー 1
 62
   143
420
  6730444
370
    25
100
AcDbLine
 10
137.6609054975712
 20
122.0230714590567
 30
0.0
 11
137.6609054975712
 21
212.034855948338
 31
0.0
  0
LINE
  5
120
330
11B
100
AcDbEntity
  8
レイヤー 1
 62
   143
420
  6730444
370
    25
100
AcDbLine
 10
189.1386070420158
 20
122.0230714590567
 30
0.0
 11
136.1607090894167
 21
122.0230714590567
 31
0.0
  0
LINE
  5
121
330
11B
100
AcDbEntity
  8
レイヤー 1
 62
   143
420
  6730444
370
    25
100
AcDbLine
 10
158.6346264112392
 20
212.034855948338
 30
0.0
 11
136.1607090894167
 21
212.034855948338
 31
0.0
  0
LINE
  5
122
330
11B
100
AcDbEntity
  8
レイヤー 1
 62
   143
420
  6730444
370
     0
100
AcDbLine
 10
138.4032214127788
 20
124.7934341594486
 30
0.0
 11
137.6609054975712
 21
122.0230714590567
 31
0.0
  0
LINE
  5
123
330
11B
100
AcDbEntity
  8
レイヤー 1
 62
   143
420
  6730444
370
     0
100
AcDbLine
 10
137.6609054975712
 20
122.0230714590567
 30
0.0
 11
136.9185895823639
 21
124.7934341594486
 31
0.0
  0
LINE
  5
124
330
11B
100
AcDbEntity
  8
レイヤー 1
 62
   143
420
  6730444
370
     0
100
AcDbLine
 10
137.6609054975712
 20
122.0230714590567
 30
0.0
 11
137.6609054975712
 21
124.7934341594486
 31
0.0
  0
LINE
  5
125
330
11B
100
AcDbEntity
  8
レイヤー 1
 62
   143
420
  6730444
370
     0
100
AcDbLine
 10
136.9185895823639
 20
209.2644932479458
 30
0.0
 11
137.6609054975712
 21
212.034855948338
 31
0.0
  0
LINE
  5
126
330
11B
100
AcDbEntity
  8
レイヤー 1
 62
   143
420
  6730444
370
     0
100
AcDbLine
 10
137.6609054975712
 20
212.034855948338
 30
0.0
 11
138.4032214127788
 21
209.2644932479458
 31
0.0
  0
LINE
  5
127
330
11B
100
AcDbEntity
  8
レイヤー 1
 62
   143
420
  6730444
370
     0
100
AcDbLine
 10
137.6609054975712
 20
212.034855948338
 30
0.0
 11
137.6609054975712
 21
209.2644932479458
 31
0.0
  0
MTEXT
  5
128
330
11B
100
AcDbEntity
  8
レイヤー 1
100
AcDbMText
 10
137.1608354013652
 20
149.9231485627796
 30
0.0
 40
0.2
 41
0.0
 46
0.0
 71
     7
 72
     1
  1
\C143;\c13415014;\FKozGoPr6N-Regular|b0|i0|c128;\H2.500327;\W1.000000;（180.0～２１０．０）
 11
0.0000000000000001
 21
1.0
 31
0.0
 73
     1
 44
1.0
  0
ENDBLK
  5
11E
330
11B
100
AcDbEntity
  8
0
100
AcDbBlockEnd
  0
BLOCK
  5
134
330
132
100
AcDbEntity
  8
0
100
AcDbBlockBegin
  2
Block_7
 70
     0
 10
0.0
 20
0.0
 30
0.0
  3
Block_7
  1

  0
LWPOLYLINE
  5
136
330
132
100
AcDbEntity
  8
レイヤー 1
 62
   143
420
  6730444
370
    25
100
AcDbPolyline
 90
        1
 70
     0
 43
0.0
 10
166.0186695870762
 20
15.07678177090816
  0
LWPOLYLINE
  5
137
330
132
100
AcDbEntity
  8
レイヤー 1
 62
   143
420
  6730444
370
    25
100
AcDbPolyline
 90
        1
 70
     0
 43
0.0
 10
164.5649914696482
 20
13.87145507346825
  0
ENDBLK
  5
135
330
132
100
AcDbEntity
  8
0
100
AcDbBlockEnd
  0
BLOCK
  5
13A
330
138
100
AcDbEntity
  8
0
100
AcDbBlockBegin
  2
Block_8
 70
     0
 10
0.0
 20
0.0
 30
0.0
  3
Block_8
  1

  0
LWPOLYLINE
  5
13C
330
138
100
AcDbEntity
  8
レイヤー 1
 62
   143
420
  6730444
370
    25
100
AcDbPolyline
 90
        1
 70
     0
 43
0.0
 10
164.564991288922
 20
18.30907505389608
  0
LWPOLYLINE
  5
13D
330
138
100
AcDbEntity
  8
レイヤー 1
 62
   143
420
  6730444
370
    25
100
AcDbPolyline
 90
        1
 70
     0
 43
0.0
 10
166.0186695870762
 20
17.10374835645617
  0
ENDBLK
  5
13B
330
138
100
AcDbEntity
  8
0
100
AcDbBlockEnd
  0
BLOCK
  5
140
330
13E
100
AcDbEntity
  8
0
100
AcDbBlockBegin
  2
Block_9
 70
     0
 10
0.0
 20
0.0
 30
0.0
  3
Block_9
  1

  0
LWPOLYLINE
  5
142
330
13E
100
AcDbEntity
  8
レイヤー 1
 62
   143
420
  6730444
370
    25
100
AcDbPolyline
 90
        1
 70
     0
 43
0.0
 10
166.0186486976517
 20
17.10383492406938
  0
LWPOLYLINE
  5
143
330
13E
100
AcDbEntity
  8
レイヤー 1
 62
   143
420
  6730444
370
    25
100
AcDbPolyline
 90
        1
 70
     0
 43
0.0
 10
166.0186486976517
 20
15.07669420316465
  0
ENDBLK
  5
141
330
13E
100
AcDbEntity
  8
0
100
AcDbBlockEnd
  0
BLOCK
  5
148
330
146
100
AcDbEntity
  8
0
100
AcDbBlockBegin
  2
Block_10
 70
     0
 10
0.0
 20
0.0
 30
0.0
  3
Block_10
  1

  0
LWPOLYLINE
  5
14A
330
146
100
AcDbEntity
  8
レイヤー 1
 62
   143
420
  6730444
370
    25
100
AcDbPolyline
 90
        1
 70
     0
 43
0.0
 10
159.6933190169976
 20
15.16096689845445
  0
LWPOLYLINE
  5
14B
330
146
100
AcDbEntity
  8
レイヤー 1
 62
   143
420
  6730444
370
    25
100
AcDbPolyline
 90
        1
 70
     0
 43
0.0
 10
158.4594576544698
 20
13.70219989340929
  0
ENDBLK
  5
149
330
146
100
AcDbEntity
  8
0
100
AcDbBlockEnd
  0
BLOCK
  5
14F
330
14D
100
AcDbEntity
  8
0
100
AcDbBlockBegin
  2
Block_11
 70
     0
 10
0.0
 20
0.0
 30
0.0
  3
Block_11
  1

  0
LWPOLYLINE
  5
151
330
14D
100
AcDbEntity
  8
レイヤー 1
 62
   143
420
  6730444
370
    25
100
AcDbPolyline
 90
        1
 70
     0
 43
0.0
 10
174.9445537334616
 20
13.87132305618456
  0
LWPOLYLINE
  5
152
330
14D
100
AcDbEntity
  8
レイヤー 1
 62
   143
420
  6730444
370
    25
100
AcDbPolyline
 90
        1
 70
     0
 43
0.0
 10
174.9445537334616
 20
18.30920607104946
  0
ENDBLK
  5
150
330
14D
100
AcDbEntity
  8
0
100
AcDbBlockEnd
  0
BLOCK
  5
155
330
153
100
AcDbEntity
  8
0
100
AcDbBlockBegin
  2
Block_12
 70
     0
 10
0.0
 20
0.0
 30
0.0
  3
Block_12
  1

  0
LWPOLYLINE
  5
157
330
153
100
AcDbEntity
  8
レイヤー 1
 62
   143
420
  6730444
370
    25
100
AcDbPolyline
 90
        1
 70
     0
 43
0.0
 10
173.6723841789539
 20
13.87132305618456
  0
LWPOLYLINE
  5
158
330
153
100
AcDbEntity
  8
レイヤー 1
 62
   143
420
  6730444
370
    25
100
AcDbPolyline
 90
        1
 70
     0
 43
0.0
 10
173.6723841789539
 20
18.30920607104946
  0
ENDBLK
  5
156
330
153
100
AcDbEntity
  8
0
100
AcDbBlockEnd
  0
BLOCK
  5
15B
330
159
100
AcDbEntity
  8
0
100
AcDbBlockBegin
  2
Block_13
 70
     0
 10
0.0
 20
0.0
 30
0.0
  3
Block_13
  1

  0
LWPOLYLINE
  5
15D
330
159
100
AcDbEntity
  8
レイヤー 1
 62
   143
420
  6730444
370
    25
100
AcDbPolyline
 90
        1
 70
     0
 43
0.0
 10
145.1789127673153
 20
18.30900104420665
  0
LWPOLYLINE
  5
15E
330
159
100
AcDbEntity
  8
レイヤー 1
 62
   143
420
  6730444
370
    25
100
AcDbPolyline
 90
        1
 70
     0
 43
0.0
 10
147.6937000073527
 20
13.87112503025838
  0
ENDBLK
  5
15C
330
159
100
AcDbEntity
  8
0
100
AcDbBlockEnd
  0
BLOCK
  5
162
330
160
100
AcDbEntity
  8
0
100
AcDbBlockBegin
  2
Block_14
 70
     0
 10
0.0
 20
0.0
 30
0.0
  3
Block_14
  1

  0
LWPOLYLINE
  5
164
330
160
100
AcDbEntity
  8
レイヤー 1
 62
   143
420
  6730444
370
    25
100
AcDbPolyline
 90
        1
 70
     0
 43
0.0
 10
144.2694566998474
 20
17.3342754315434
  0
LWPOLYLINE
  5
165
330
160
100
AcDbEntity
  8
レイヤー 1
 62
   143
420
  6730444
370
    25
100
AcDbPolyline
 90
        1
 70
     0
 43
0.0
 10
145.3096498836315
 20
15.49864810822813
  0
ENDBLK
  5
163
330
160
100
AcDbEntity
  8
0
100
AcDbBlockEnd
  0
BLOCK
  5
168
330
166
100
AcDbEntity
  8
0
100
AcDbBlockBegin
  2
Block_15
 70
     0
 10
0.0
 20
0.0
 30
0.0
  3
Block_15
  1

  0
LWPOLYLINE
  5
16A
330
166
100
AcDbEntity
  8
レイヤー 1
 62
   143
420
  6730444
370
    25
100
AcDbPolyline
 90
        1
 70
     0
 43
0.0
 10
144.2702688061697
 20
17.33359134198158
  0
LWPOLYLINE
  5
16B
330
166
100
AcDbEntity
  8
レイヤー 1
 62
   143
420
  6730444
370
    25
100
AcDbPolyline
 90
        1
 70
     0
 43
0.0
 10
143.2300656210761
 20
15.49790801133329
  0
ENDBLK
  5
169
330
166
100
AcDbEntity
  8
0
100
AcDbBlockEnd
  0
BLOCK
  5
16E
330
16C
100
AcDbEntity
  8
0
100
AcDbBlockBegin
  2
Block_16
 70
     0
 10
0.0
 20
0.0
 30
0.0
  3
Block_16
  1

  0
LWPOLYLINE
  5
170
330
16C
100
AcDbEntity
  8
レイヤー 1
 62
   143
420
  6730444
370
    25
100
AcDbPolyline
 90
        1
 70
     0
 43
0.0
 10
145.3096158791796
 20
15.49861910443067
  0
LWPOLYLINE
  5
171
330
16C
100
AcDbEntity
  8
レイヤー 1
 62
   143
420
  6730444
370
    25
100
AcDbPolyline
 90
        1
 70
     0
 43
0.0
 10
143.2291134964225
 20
15.49861910443067
  0
ENDBLK
  5
16F
330
16C
100
AcDbEntity
  8
0
100
AcDbBlockEnd
  0
BLOCK
  5
174
330
172
100
AcDbEntity
  8
0
100
AcDbBlockBegin
  2
Block_17
 70
     0
 10
0.0
 20
0.0
 30
0.0
  3
Block_17
  1

  0
LWPOLYLINE
  5
176
330
172
100
AcDbEntity
  8
レイヤー 1
 62
   143
420
  6730444
370
    25
100
AcDbPolyline
 90
        1
 70
     0
 43
0.0
 10
145.8124977172879
 20
14.61086887872674
  0
LWPOLYLINE
  5
177
330
172
100
AcDbEntity
  8
レイヤー 1
 62
   143
420
  6730444
370
    25
100
AcDbPolyline
 90
        1
 70
     0
 43
0.0
 10
142.7262856653847
 20
14.61086887872674
  0
ENDBLK
  5
175
330
172
100
AcDbEntity
  8
0
100
AcDbBlockEnd
  0
BLOCK
  5
17A
330
178
100
AcDbEntity
  8
0
100
AcDbBlockBegin
  2
Block_18
 70
     0
 10
0.0
 20
0.0
 30
0.0
  3
Block_18
  1

  0
LWPOLYLINE
  5
17C
330
178
100
AcDbEntity
  8
レイヤー 1
 62
   143
420
  6730444
370
    25
100
AcDbPolyline
 90
        1
 70
     0
 43
0.0
 10
143.3592455335204
 20
18.30929608283403
  0
LWPOLYLINE
  5
17D
330
178
100
AcDbEntity
  8
レイヤー 1
 62
   143
420
  6730444
370
    25
100
AcDbPolyline
 90
        1
 70
     0
 43
0.0
 10
140.8444842968876
 20
13.87148407726507
  0
ENDBLK
  5
17B
330
178
100
AcDbEntity
  8
0
100
AcDbBlockEnd
  0
BLOCK
  5
183
330
181
100
AcDbEntity
  8
0
100
AcDbBlockBegin
  2
Block_19
 70
     0
 10
0.0
 20
0.0
 30
0.0
  3
Block_19
  1

  0
LWPOLYLINE
  5
185
330
181
100
AcDbEntity
  8
レイヤー 1
 62
   143
420
  6730444
370
    25
100
AcDbPolyline
 90
        1
 70
     0
 43
0.0
 10
161.7643161553126
 20
15.1437146397605
  0
LWPOLYLINE
  5
186
330
181
100
AcDbEntity
  8
レイヤー 1
 62
   143
420
  6730444
370
    25
100
AcDbPolyline
 90
        1
 70
     0
 43
0.0
 10
161.7643161553126
 20
17.03711252649245
  0
ENDBLK
  5
184
330
181
100
AcDbEntity
  8
0
100
AcDbBlockEnd
  0
BLOCK
  5
189
330
187
100
AcDbEntity
  8
0
100
AcDbBlockBegin
  2
Block_20
 70
     0
 10
0.0
 20
0.0
 30
0.0
  3
Block_20
  1

  0
LWPOLYLINE
  5
18B
330
187
100
AcDbEntity
  8
レイヤー 1
 62
   143
420
  6730444
370
    25
100
AcDbPolyline
 90
        1
 70
     0
 43
0.0
 10
160.4921235977931
 20
13.87132305618456
  0
LWPOLYLINE
  5
18C
330
187
100
AcDbEntity
  8
レイヤー 1
 62
   143
420
  6730444
370
    25
100
AcDbPolyline
 90
        1
 70
     0
 43
0.0
 10
160.4921235977931
 20
18.30920607104946
  0
ENDBLK
  5
18A
330
187
100
AcDbEntity
  8
0
100
AcDbBlockEnd
  0
BLOCK
  5
194
330
192
100
AcDbEntity
  8
0
100
AcDbBlockBegin
  2
Block_21
 70
     0
 10
0.0
 20
0.0
 30
0.0
  3
Block_21
  1

  0
LWPOLYLINE
  5
196
330
192
100
AcDbEntity
  8
レイヤー 1
 62
   143
420
  6730444
370
    25
100
AcDbPolyline
 90
        1
 70
     0
 43
0.0
 10
164.565043831137
 20
18.30919106908526
  0
LWPOLYLINE
  5
197
330
192
100
AcDbEntity
  8
レイヤー 1
 62
   143
420
  6730444
370
    25
100
AcDbPolyline
 90
        1
 70
     0
 43
0.0
 10
160.492176604733
 20
18.30919106908526
  0
ENDBLK
  5
195
330
192
100
AcDbEntity
  8
0
100
AcDbBlockEnd
  0
BLOCK
  5
19B
330
199
100
AcDbEntity
  8
0
100
AcDbBlockBegin
  2
Block_22
 70
     0
 10
0.0
 20
0.0
 30
0.0
  3
Block_22
  1

  0
LWPOLYLINE
  5
19D
330
199
100
AcDbEntity
  8
レイヤー 1
 62
   143
420
  6730444
370
    25
100
AcDbPolyline
 90
        1
 70
     0
 43
0.0
 10
154.1905095802328
 20
15.16096689845445
  0
LWPOLYLINE
  5
19E
330
199
100
AcDbEntity
  8
レイヤー 1
 62
   143
420
  6730444
370
    25
100
AcDbPolyline
 90
        1
 70
     0
 43
0.0
 10
154.1905095802328
 20
18.30919106908526
  0
ENDBLK
  5
19C
330
199
100
AcDbEntity
  8
0
100
AcDbBlockEnd
  0
BLOCK
  5
1A1
330
19F
100
AcDbEntity
  8
0
100
AcDbBlockBegin
  2
Block_23
 70
     0
 10
0.0
 20
0.0
 30
0.0
  3
Block_23
  1

  0
LWPOLYLINE
  5
1A3
330
19F
100
AcDbEntity
  8
レイヤー 1
 62
   143
420
  6730444
370
    25
100
AcDbPolyline
 90
        1
 70
     0
 43
0.0
 10
155.4626101257061
 20
15.49371246204493
  0
LWPOLYLINE
  5
1A4
330
19F
100
AcDbEntity
  8
レイヤー 1
 62
   143
420
  6730444
370
    25
100
AcDbPolyline
 90
        1
 70
     0
 43
0.0
 10
155.4626101257061
 20
18.30919106908526
  0
ENDBLK
  5
1A2
330
19F
100
AcDbEntity
  8
0
100
AcDbBlockEnd
  0
BLOCK
  5
1AE
330
1AC
100
AcDbEntity
  8
0
100
AcDbBlockBegin
  2
Block_24
 70
     0
 10
0.0
 20
0.0
 30
0.0
  3
Block_24
  1

  0
LWPOLYLINE
  5
1B0
330
1AC
100
AcDbEntity
  8
レイヤー 1
 62
   143
420
  6730444
370
    25
100
AcDbPolyline
 90
        1
 70
     0
 43
0.0
 10
136.182459937073
 20
16.68188701979157
  0
LWPOLYLINE
  5
1B1
330
1AC
100
AcDbEntity
  8
レイヤー 1
 62
   143
420
  6730444
370
    25
100
AcDbPolyline
 90
        1
 70
     0
 43
0.0
 10
136.182459937073
 20
18.30919106908526
  0
ENDBLK
  5
1AF
330
1AC
100
AcDbEntity
  8
0
100
AcDbBlockEnd
  0
BLOCK
  5
1B5
330
1B3
100
AcDbEntity
  8
0
100
AcDbBlockBegin
  2
Block_25
 70
     0
 10
0.0
 20
0.0
 30
0.0
  3
Block_25
  1

  0
LWPOLYLINE
  5
1B7
330
1B3
100
AcDbEntity
  8
レイヤー 1
 62
   143
420
  6730444
370
    25
100
AcDbPolyline
 90
        1
 70
     0
 43
0.0
 10
134.9394231966804
 20
13.87132305618456
  0
LWPOLYLINE
  5
1B8
330
1B3
100
AcDbEntity
  8
レイヤー 1
 62
   143
420
  6730444
370
    25
100
AcDbPolyline
 90
        1
 70
     0
 43
0.0
 10
134.9394231966804
 20
18.30919106908526
  0
ENDBLK
  5
1B6
330
1B3
100
AcDbEntity
  8
0
100
AcDbBlockEnd
  0
BLOCK
  5
1BD
330
1BB
100
AcDbEntity
  8
0
100
AcDbBlockBegin
  2
Block_26
 70
     0
 10
0.0
 20
0.0
 30
0.0
  3
Block_26
  1

  0
LWPOLYLINE
  5
1BF
330
1BB
100
AcDbEntity
  8
レイヤー 1
 62
   143
420
  6730444
370
    25
100
AcDbPolyline
 90
        1
 70
     0
 43
0.0
 10
164.565043831137
 20
13.87132305618456
  0
LWPOLYLINE
  5
1C0
330
1BB
100
AcDbEntity
  8
レイヤー 1
 62
   143
420
  6730444
370
    25
100
AcDbPolyline
 90
        1
 70
     0
 43
0.0
 10
160.492176604733
 20
13.87132305618456
  0
ENDBLK
  5
1BE
330
1BB
100
AcDbEntity
  8
0
100
AcDbBlockEnd
  0
BLOCK
  5
1C6
330
1C4
100
AcDbEntity
  8
0
100
AcDbBlockBegin
  2
Block_27
 70
     0
 10
0.0
 20
0.0
 30
0.0
  3
Block_27
  1

  0
LWPOLYLINE
  5
1C8
330
1C4
100
AcDbEntity
  8
レイヤー 1
 62
   143
420
  6730444
370
    25
100
AcDbPolyline
 90
        1
 70
     0
 43
0.0
 10
170.5659824837895
 20
18.30920607104946
  0
LWPOLYLINE
  5
1C9
330
1C4
100
AcDbEntity
  8
レイヤー 1
 62
   143
420
  6730444
370
    25
100
AcDbPolyline
 90
        1
 70
     0
 43
0.0
 10
168.746484272123
 20
18.30920607104946
  0
ENDBLK
  5
1C7
330
1C4
100
AcDbEntity
  8
0
100
AcDbBlockEnd
  0
BLOCK
  5
1CD
330
1CB
100
AcDbEntity
  8
0
100
AcDbBlockBegin
  2
Block_28
 70
     0
 10
0.0
 20
0.0
 30
0.0
  3
Block_28
  1

  0
LWPOLYLINE
  5
1CF
330
1CB
100
AcDbEntity
  8
レイヤー 1
 62
   143
420
  6730444
370
    25
100
AcDbPolyline
 90
        1
 70
     0
 43
0.0
 10
153.5988181150235
 20
13.87132305618456
  0
LWPOLYLINE
  5
1D0
330
1CB
100
AcDbEntity
  8
レイヤー 1
 62
   143
420
  6730444
370
    25
100
AcDbPolyline
 90
        1
 70
     0
 43
0.0
 10
151.7765195367285
 20
13.87132305618456
  0
ENDBLK
  5
1CE
330
1CB
100
AcDbEntity
  8
0
100
AcDbBlockEnd
  0
BLOCK
  5
1D3
330
1D1
100
AcDbEntity
  8
0
100
AcDbBlockBegin
  2
Block_29
 70
     0
 10
0.0
 20
0.0
 30
0.0
  3
Block_29
  1

  0
LWPOLYLINE
  5
1D5
330
1D1
100
AcDbEntity
  8
レイヤー 1
 62
   143
420
  6730444
370
    25
100
AcDbPolyline
 90
        1
 70
     0
 43
0.0
 10
149.2321044177612
 20
13.87130805422036
  0
LWPOLYLINE
  5
1D6
330
1D1
100
AcDbEntity
  8
レイヤー 1
 62
   143
420
  6730444
370
    25
100
AcDbPolyline
 90
        1
 70
     0
 43
0.0
 10
149.2321044177612
 20
15.49861910443067
  0
ENDBLK
  5
1D4
330
1D1
100
AcDbEntity
  8
0
100
AcDbBlockEnd
  0
BLOCK
  5
1D9
330
1D7
100
AcDbEntity
  8
0
100
AcDbBlockBegin
  2
Block_30
 70
     0
 10
0.0
 20
0.0
 30
0.0
  3
Block_30
  1

  0
LWPOLYLINE
  5
1DB
330
1D7
100
AcDbEntity
  8
レイヤー 1
 62
   143
420
  6730444
370
    25
100
AcDbPolyline
 90
        1
 70
     0
 43
0.0
 10
170.5658374648032
 20
18.30915206397833
  0
LWPOLYLINE
  5
1DC
330
1D7
100
AcDbEntity
  8
レイヤー 1
 62
   143
420
  6730444
370
    25
100
AcDbPolyline
 90
        1
 70
     0
 43
0.0
 10
173.0805426941036
 20
13.87140506692091
  0
ENDBLK
  5
1DA
330
1D7
100
AcDbEntity
  8
0
100
AcDbBlockEnd
  0
BLOCK
  5
1E0
330
1DE
100
AcDbEntity
  8
0
100
AcDbBlockBegin
  2
Block_31
 70
     0
 10
0.0
 20
0.0
 30
0.0
  3
Block_31
  1

  0
LWPOLYLINE
  5
1E2
330
1DE
100
AcDbEntity
  8
レイヤー 1
 62
   143
420
  6730444
370
    25
100
AcDbPolyline
 90
        1
 70
     0
 43
0.0
 10
169.6563093879077
 20
17.33417941897379
  0
LWPOLYLINE
  5
1E3
330
1DE
100
AcDbEntity
  8
レイヤー 1
 62
   143
420
  6730444
370
    25
100
AcDbPolyline
 90
        1
 70
     0
 43
0.0
 10
170.6965405766675
 20
15.49848608701604
  0
ENDBLK
  5
1E1
330
1DE
100
AcDbEntity
  8
0
100
AcDbBlockEnd
  0
BLOCK
  5
1E6
330
1E4
100
AcDbEntity
  8
0
100
AcDbBlockBegin
  2
Block_32
 70
     0
 10
0.0
 20
0.0
 30
0.0
  3
Block_32
  1

  0
LWPOLYLINE
  5
1E8
330
1E4
100
AcDbEntity
  8
レイヤー 1
 62
   143
420
  6730444
370
    25
100
AcDbPolyline
 90
        1
 70
     0
 43
0.0
 10
169.6560763573987
 20
17.33420342211587
  0
LWPOLYLINE
  5
1E9
330
1E4
100
AcDbEntity
  8
レイヤー 1
 62
   143
420
  6730444
370
    25
100
AcDbPolyline
 90
        1
 70
     0
 43
0.0
 10
168.6158831736149
 20
15.49859310102606
  0
ENDBLK
  5
1E7
330
1E4
100
AcDbEntity
  8
0
100
AcDbBlockEnd
  0
BLOCK
  5
1EC
330
1EA
100
AcDbEntity
  8
0
100
AcDbBlockBegin
  2
Block_33
 70
     0
 10
0.0
 20
0.0
 30
0.0
  3
Block_33
  1

  0
LWPOLYLINE
  5
1EE
330
1EA
100
AcDbEntity
  8
レイヤー 1
 62
   143
420
  6730444
370
    25
100
AcDbPolyline
 90
        1
 70
     0
 43
0.0
 10
170.6964315623949
 20
15.49860410246647
  0
LWPOLYLINE
  5
1EF
330
1EA
100
AcDbEntity
  8
レイヤー 1
 62
   143
420
  6730444
370
    25
100
AcDbPolyline
 90
        1
 70
     0
 43
0.0
 10
168.6160201915534
 20
15.49860410246647
  0
ENDBLK
  5
1ED
330
1EA
100
AcDbEntity
  8
0
100
AcDbBlockEnd
  0
BLOCK
  5
1F2
330
1F0
100
AcDbEntity
  8
0
100
AcDbBlockBegin
  2
Block_34
 70
     0
 10
0.0
 20
0.0
 30
0.0
  3
Block_34
  1

  0
LWPOLYLINE
  5
1F4
330
1F0
100
AcDbEntity
  8
レイヤー 1
 62
   143
420
  6730444
370
    25
100
AcDbPolyline
 90
        1
 70
     0
 43
0.0
 10
171.1993584063958
 20
14.6104028177094
  0
LWPOLYLINE
  5
1F5
330
1F0
100
AcDbEntity
  8
レイヤー 1
 62
   143
420
  6730444
370
    25
100
AcDbPolyline
 90
        1
 70
     0
 43
0.0
 10
168.1130853465052
 20
14.6104028177094
  0
ENDBLK
  5
1F3
330
1F0
100
AcDbEntity
  8
0
100
AcDbBlockEnd
  0
BLOCK
  5
1FA
330
1F8
100
AcDbEntity
  8
0
100
AcDbBlockBegin
  2
Block_35
 70
     0
 10
0.0
 20
0.0
 30
0.0
  3
Block_35
  1

  0
LWPOLYLINE
  5
1FC
330
1F8
100
AcDbEntity
  8
レイヤー 1
 62
   143
420
  6730444
370
    25
100
AcDbPolyline
 90
        1
 70
     0
 43
0.0
 10
151.7767985732604
 20
13.87116303523372
  0
LWPOLYLINE
  5
1FD
330
1F8
100
AcDbEntity
  8
レイヤー 1
 62
   143
420
  6730444
370
    25
100
AcDbPolyline
 90
        1
 70
     0
 43
0.0
 10
150.0312220395404
 20
15.49837607261253
  0
ENDBLK
  5
1FB
330
1F8
100
AcDbEntity
  8
0
100
AcDbBlockEnd
  0
BLOCK
  5
203
330
201
100
AcDbEntity
  8
0
100
AcDbBlockBegin
  2
Block_36
 70
     0
 10
0.0
 20
0.0
 30
0.0
  3
Block_36
  1

  0
LWPOLYLINE
  5
205
330
201
100
AcDbEntity
  8
レイヤー 1
 62
   143
420
  6730444
370
    25
100
AcDbPolyline
 90
        1
 70
     0
 43
0.0
 10
149.2321044177612
 20
16.68187201782737
  0
LWPOLYLINE
  5
206
330
201
100
AcDbEntity
  8
レイヤー 1
 62
   143
420
  6730444
370
    25
100
AcDbPolyline
 90
        1
 70
     0
 43
0.0
 10
149.2321044177612
 20
18.30919106908526
  0
ENDBLK
  5
204
330
201
100
AcDbEntity
  8
0
100
AcDbBlockEnd
  0
BLOCK
  5
20C
330
20A
100
AcDbEntity
  8
0
100
AcDbBlockBegin
  2
Block_37
 70
     0
 10
0.0
 20
0.0
 30
0.0
  3
Block_37
  1

  0
LWPOLYLINE
  5
20E
330
20A
100
AcDbEntity
  8
レイヤー 1
 62
   143
420
  6730444
370
    25
100
AcDbPolyline
 90
        1
 70
     0
 43
0.0
 10
125.9076317398473
 20
16.25212775500917
  0
LWPOLYLINE
  5
20F
330
20A
100
AcDbEntity
  8
レイヤー 1
 62
   143
420
  6730444
370
    25
100
AcDbPolyline
 90
        1
 70
     0
 43
0.0
 10
127.1890545058011
 20
11.46979364404639
  0
ENDBLK
  5
20D
330
20A
100
AcDbEntity
  8
0
100
AcDbBlockEnd
  0
BLOCK
  5
212
330
210
100
AcDbEntity
  8
0
100
AcDbBlockBegin
  2
Block_38
 70
     0
 10
0.0
 20
0.0
 30
0.0
  3
Block_38
  1

  0
LWPOLYLINE
  5
214
330
210
100
AcDbEntity
  8
レイヤー 1
 62
   143
420
  6730444
370
    25
100
AcDbPolyline
 90
        1
 70
     0
 43
0.0
 10
127.764074788392
 20
19.85724774318377
  0
LWPOLYLINE
  5
215
330
210
100
AcDbEntity
  8
レイヤー 1
 62
   143
420
  6730444
370
    25
100
AcDbPolyline
 90
        1
 70
     0
 43
0.0
 10
126.7980853194789
 20
16.25212775500917
  0
ENDBLK
  5
213
330
210
100
AcDbEntity
  8
0
100
AcDbBlockEnd
  0
BLOCK
  5
219
330
217
100
AcDbEntity
  8
0
100
AcDbBlockBegin
  2
Block_39
 70
     0
 10
0.0
 20
0.0
 30
0.0
  3
Block_39
  1

  0
LWPOLYLINE
  5
21B
330
217
100
AcDbEntity
  8
レイヤー 1
 62
   143
420
  6730444
370
    25
100
AcDbPolyline
 90
        1
 70
     0
 43
0.0
 10
125.4875767455642
 20
11.25723781589141
  0
LWPOLYLINE
  5
21C
330
217
100
AcDbEntity
  8
レイヤー 1
 62
   143
420
  6730444
370
    25
100
AcDbPolyline
 90
        1
 70
     0
 43
0.0
 10
125.4875767455642
 20
21.24701769412692
  0
ENDBLK
  5
21A
330
217
100
AcDbEntity
  8
0
100
AcDbBlockEnd
  0
BLOCK
  5
21F
330
21D
100
AcDbEntity
  8
0
100
AcDbBlockBegin
  2
Block_40
 70
     0
 10
0.0
 20
0.0
 30
0.0
  3
Block_40
  1

  0
LWPOLYLINE
  5
221
330
21D
100
AcDbEntity
  8
レイヤー 1
  6
AI-Linetype-5
 62
   140
420
    49151
370
    25
100
AcDbPolyline
 90
        1
 70
     0
 43
0.0
 10
138.3944505344811
 20
28.75376448963175
  0
LWPOLYLINE
  5
223
330
21D
100
AcDbEntity
  8
レイヤー 1
  6
AI-Linetype-6
 62
   140
420
    49151
370
    25
100
AcDbPolyline
 90
        1
 70
     0
 43
0.0
 10
118.9582819196617
 20
28.75376448963175
  0
ENDBLK
  5
220
330
21D
100
AcDbEntity
  8
0
100
AcDbBlockEnd
  0
BLOCK
  5
227
330
225
100
AcDbEntity
  8
0
100
AcDbBlockBegin
  2
Block_41
 70
     0
 10
0.0
 20
0.0
 30
0.0
  3
Block_41
  1

  0
LWPOLYLINE
  5
229
330
225
100
AcDbEntity
  8
レイヤー 1
  6
AI-Linetype-7
 62
   140
420
    49151
370
    25
100
AcDbPolyline
 90
        1
 70
     0
 43
0.0
 10
123.7273462933291
 20
23.7497833602803
  0
LWPOLYLINE
  5
22B
330
225
100
AcDbEntity
  8
レイヤー 1
  6
AI-Linetype-8
 62
   140
420
    49151
370
    25
100
AcDbPolyline
 90
        1
 70
     0
 43
0.0
 10
123.7273462933291
 20
33.82780079071971
  0
ENDBLK
  5
228
330
225
100
AcDbEntity
  8
0
100
AcDbBlockEnd
  0
BLOCK
  5
22F
330
22D
100
AcDbEntity
  8
0
100
AcDbBlockBegin
  2
Block_42
 70
     0
 10
0.0
 20
0.0
 30
0.0
  3
Block_42
  1

  0
LWPOLYLINE
  5
231
330
22D
100
AcDbEntity
  8
レイヤー 1
 62
     4
420
    65535
370
    25
100
AcDbPolyline
 90
        1
 70
     0
 43
0.0
 10
129.3530828239094
 20
26.87853398140234
  0
LWPOLYLINE
  5
232
330
22D
100
AcDbEntity
  8
レイヤー 1
 62
     4
420
    65535
370
    25
100
AcDbPolyline
 90
        1
 70
     0
 43
0.0
 10
129.3530828239094
 20
30.62900999982473
  0
ENDBLK
  5
230
330
22D
100
AcDbEntity
  8
0
100
AcDbBlockEnd
  0
BLOCK
  5
235
330
233
100
AcDbEntity
  8
0
100
AcDbBlockBegin
  2
Block_43
 70
     0
 10
0.0
 20
0.0
 30
0.0
  3
Block_43
  1

  0
LWPOLYLINE
  5
237
330
233
100
AcDbEntity
  8
レイヤー 1
 62
     4
420
    65535
370
    25
100
AcDbPolyline
 90
        1
 70
     0
 43
0.0
 10
136.8540648646828
 20
25.37833757324784
  0
LWPOLYLINE
  5
238
330
233
100
AcDbEntity
  8
レイヤー 1
 62
     4
420
    65535
370
    25
100
AcDbPolyline
 90
        1
 70
     0
 43
0.0
 10
136.8540648646828
 20
32.12920640797988
  0
ENDBLK
  5
236
330
233
100
AcDbEntity
  8
0
100
AcDbBlockEnd
  0
BLOCK
  5
23B
330
239
100
AcDbEntity
  8
0
100
AcDbBlockBegin
  2
Block_44
 70
     0
 10
0.0
 20
0.0
 30
0.0
  3
Block_44
  1

  0
LWPOLYLINE
  5
23D
330
239
100
AcDbEntity
  8
レイヤー 1
 62
     4
420
    65535
370
    25
100
AcDbPolyline
 90
        1
 70
     0
 43
0.0
 10
136.8540558635043
 20
32.12919440640851
  0
LWPOLYLINE
  5
23E
330
239
100
AcDbEntity
  8
レイヤー 1
 62
     4
420
    65535
370
    25
100
AcDbPolyline
 90
        1
 70
     0
 43
0.0
 10
129.3530738227308
 20
30.628997998254
  0
ENDBLK
  5
23C
330
239
100
AcDbEntity
  8
0
100
AcDbBlockEnd
  0
BLOCK
  5
241
330
23F
100
AcDbEntity
  8
0
100
AcDbBlockBegin
  2
Block_45
 70
     0
 10
0.0
 20
0.0
 30
0.0
  3
Block_45
  1

  0
LWPOLYLINE
  5
243
330
23F
100
AcDbEntity
  8
レイヤー 1
 62
     4
420
    65535
370
    25
100
AcDbPolyline
 90
        1
 70
     0
 43
0.0
 10
136.8540588638971
 20
25.3783175706289
  0
LWPOLYLINE
  5
244
330
23F
100
AcDbEntity
  8
レイヤー 1
 62
     4
420
    65535
370
    25
100
AcDbPolyline
 90
        1
 70
     0
 43
0.0
 10
129.3530768231236
 20
26.87851397878341
  0
ENDBLK
  5
242
330
23F
100
AcDbEntity
  8
0
100
AcDbBlockEnd
  0
BLOCK
  5
252
330
250
100
AcDbEntity
  8
0
100
AcDbBlockBegin
  2
Block_46
 70
     0
 10
0.0
 20
0.0
 30
0.0
  3
Block_46
  1

  0
LWPOLYLINE
  5
254
330
250
100
AcDbEntity
  8
レイヤー 1
 62
     4
420
    65535
370
    25
100
AcDbPolyline
 90
        1
 70
     0
 43
0.0
 10
123.7273462933291
 20
26.87851897943814
  0
LWPOLYLINE
  5
255
330
250
100
AcDbEntity
  8
レイヤー 1
 62
     4
420
    65535
370
    25
100
AcDbPolyline
 90
        1
 70
     0
 43
0.0
 10
121.8521007831359
 20
28.75376448963175
  0
ENDBLK
  5
253
330
250
100
AcDbEntity
  8
0
100
AcDbBlockEnd
  0
ENDSEC
  0
SECTION
  2
ENTITIES
  0
INSERT
  5
7A
330
70
100
AcDbEntity
  8
レイヤー 1
100
AcDbBlockReference
  2
Block_0
 10
0.0
 20
0.0
 30
0.0
  0
MTEXT
  5
26F
330
70
100
AcDbEntity
  8
レイヤー 1
100
AcDbMText
 10
115.7111110821833
 20
12.19047037455655
 30
0.0
 40
0.2
 41
0.0
 46
0.0
 71
     7
 72
     1
  1
\C155;\c12087347;\FKozGoPr6N-Regular|b0|i0|c128;\H3.496733;\W1.000000;MARDAK INTERNATIONAL inc.
 73
     1
 44
1.0
  0
ENDSEC
  0
SECTION
  2
OBJECTS
  0
DICTIONARY
  5
C
330
0
100
AcDbDictionary
281
     1
  3
ACAD_COLOR
350
63
  3
ACAD_DETAILVIEWSTYLE
350
6A
  3
ACAD_GROUP
350
D
  3
ACAD_LAYOUT
350
62
  3
ACAD_MATERIAL
350
10
  3
ACAD_MLEADERSTYLE
350
66
  3
ACAD_MLINESTYLE
350
5F
  3
ACAD_PLOTSETTINGS
350
61
  3
ACAD_PLOTSTYLENAME
350
E
  3
ACAD_SCALELIST
350
42
  3
ACAD_SECTIONVIEWSTYLE
350
68
  3
ACAD_TABLESTYLE
350
64
  3
ACAD_VISUALSTYLE
350
29
  3
ACDB_RECOMPOSE_DATA
350
278
  3
AcDbVariableDictionary
350
270
  0
DICTIONARY
  5
63
102
{ACAD_REACTORS
330
C
102
}
330
C
100
AcDbDictionary
281
     1
  0
DICTIONARY
  5
6A
102
{ACAD_REACTORS
330
C
102
}
330
C
100
AcDbDictionary
281
     1
  3
Imperial24
350
6B
  0
DICTIONARY
  5
D
102
{ACAD_REACTORS
330
C
102
}
330
C
100
AcDbDictionary
281
     1
  0
DICTIONARY
  5
62
102
{ACAD_REACTORS
330
C
102
}
330
C
100
AcDbDictionary
281
     1
  3
Layout1
350
6F
  3
Layout2
350
77
  3
Model
350
73
  0
DICTIONARY
  5
10
102
{ACAD_REACTORS
330
C
102
}
330
C
100
AcDbDictionary
281
     1
  3
ByBlock
350
19
  3
ByLayer
350
11
  3
Global
350
21
  0
DICTIONARY
  5
66
102
{ACAD_REACTORS
330
C
102
}
330
C
100
AcDbDictionary
281
     1
  3
Standard
350
67
  0
DICTIONARY
  5
5F
102
{ACAD_REACTORS
330
C
102
}
330
C
100
AcDbDictionary
281
     1
  3
Standard
350
60
  0
DICTIONARY
  5
61
102
{ACAD_REACTORS
330
C
102
}
330
C
100
AcDbDictionary
281
     1
  0
ACDBDICTIONARYWDFLT
  5
E
102
{ACAD_REACTORS
330
C
102
}
330
C
100
AcDbDictionary
281
     1
  3
Normal
350
F
100
AcDbDictionaryWithDefault
340
F
  0
DICTIONARY
  5
42
102
{ACAD_REACTORS
330
C
102
}
330
C
100
AcDbDictionary
281
     1
  3
A0
350
43
  3
A1
350
44
  3
A2
350
45
  3
A3
350
46
  3
A4
350
47
  3
A5
350
48
  3
A6
350
49
  3
A7
350
4A
  3
A8
350
4B
  3
A9
350
4C
  3
B0
350
4D
  3
B1
350
4E
  3
B2
350
4F
  3
B3
350
50
  3
B4
350
51
  3
B5
350
52
  3
B6
350
53
  0
DICTIONARY
  5
68
102
{ACAD_REACTORS
330
C
102
}
330
C
100
AcDbDictionary
281
     1
  3
Imperial24
350
69
  0
DICTIONARY
  5
64
102
{ACAD_REACTORS
330
C
102
}
330
C
100
AcDbDictionary
281
     1
  3
Standard
350
65
  0
DICTIONARY
  5
29
102
{ACAD_REACTORS
330
C
102
}
330
C
100
AcDbDictionary
281
     1
  3
2dWireframe
350
2F
  3
Basic
350
2E
  3
Brighten
350
35
  3
ColorChange
350
39
  3
Conceptual
350
32
  3
Dim
350
34
  3
EdgeColorOff
350
41
  3
Facepattern
350
38
  3
Flat
350
2A
  3
FlatWithEdges
350
2B
  3
Gouraud
350
2C
  3
GouraudWithEdges
350
2D
  3
Hidden
350
31
  3
JitterOff
350
3F
  3
Linepattern
350
37
  3
OverhangOff
350
40
  3
Realistic
350
33
  3
Shaded
350
3E
  3
Shaded with edges
350
3D
  3
Shades of Gray
350
3A
  3
Sketchy
350
3B
  3
Thicken
350
36
  3
Wireframe
350
30
  3
X-Ray
350
3C
  0
XRECORD
  5
278
102
{ACAD_REACTORS
330
C
102
}
330
C
100
AcDbXrecord
280
     1
 90
        1
330
65
  0
DICTIONARY
  5
270
102
{ACAD_REACTORS
330
C
102
}
330
C
100
AcDbDictionary
281
     1
  3
CANNOSCALE
350
275
  3
CMLEADERSTYLE
350
272
  3
CTABLESTYLE
350
271
  3
CVIEWDETAILSTYLE
350
273
  3
CVIEWSECTIONSTYLE
350
274
  0
ACDBDETAILVIEWSTYLE
  5
6B
102
{ACAD_REACTORS
330
6A
102
}
330
6A
100
AcDbModelDocViewStyle
 70
     0
  3
Imperial24
290
     1
300
Imperial24
 90
        0
100
AcDbDetailViewStyle
 70
     0
 71
     0
 90
        3
 71
     1
340
55
 62
   256
 40
0.24
340
0
 62
   256
 40
0.24
300

 40
0.36
280
     3
 71
     2
340
5D
 90
       25
 62
   256
 71
     3
340
55
 62
   256
 40
0.24
 90
        1
 40
0.75
 90
        1
300
%<\AcVar ViewType \f "%tc1">% %<\AcVar ViewDetailId>%\PSCALE %<\AcVar ViewScale \f "%sn">%
 71
     4
340
5D
 90
       25
 62
   256
340
5D
 90
       25
 62
   256
280
     0
  0
LAYOUT
  5
6F
102
{ACAD_REACTORS
330
62
102
}
330
62
100
AcDbPlotSettings
  1

  2

  4

  6

 40
0.0
 41
0.0
 42
0.0
 43
0.0
 44
0.0
 45
0.0
 46
0.0
 47
0.0
 48
0.0
 49
0.0
140
0.0
141
0.0
142
1.0
143
1.0
 70
   688
 72
     0
 73
     0
 74
     5
  7

 75
    16
147
1.0
 76
     0
 77
     2
 78
   300
148
0.0
149
0.0
100
AcDbLayout
  1
Layout1
 70
     1
 71
     1
 10
0.0
 20
0.0
 11
12.0
 21
9.0
 12
0.0
 22
0.0
 32
0.0
 14
0.0
 24
0.0
 34
0.0
 15
0.0
 25
0.0
 35
0.0
146
0.0
 13
0.0
 23
0.0
 33
0.0
 16
1.0
 26
0.0
 36
0.0
 17
0.0
 27
1.0
 37
0.0
 76
     0
330
6C
  0
LAYOUT
  5
77
102
{ACAD_REACTORS
330
62
102
}
330
62
100
AcDbPlotSettings
  1

  2

  4

  6

 40
0.0
 41
0.0
 42
0.0
 43
0.0
 44
0.0
 45
0.0
 46
0.0
 47
0.0
 48
0.0
 49
0.0
140
0.0
141
0.0
142
1.0
143
1.0
 70
   688
 72
     0
 73
     0
 74
     5
  7

 75
    16
147
1.0
 76
     0
 77
     2
 78
   300
148
0.0
149
0.0
100
AcDbLayout
  1
Layout2
 70
     1
 71
     2
 10
0.0
 20
0.0
 11
12.0
 21
9.0
 12
0.0
 22
0.0
 32
0.0
 14
0.0
 24
0.0
 34
0.0
 15
0.0
 25
0.0
 35
0.0
146
0.0
 13
0.0
 23
0.0
 33
0.0
 16
1.0
 26
0.0
 36
0.0
 17
0.0
 27
1.0
 37
0.0
 76
     0
330
74
  0
LAYOUT
  5
73
102
{ACAD_REACTORS
330
62
102
}
330
62
100
AcDbPlotSettings
  1

  2

  4

  6

 40
0.0
 41
0.0
 42
0.0
 43
0.0
 44
0.0
 45
0.0
 46
0.0
 47
0.0
 48
0.0
 49
0.0
140
0.0
141
0.0
142
1.0
143
1.0
 70
  1712
 72
     0
 73
     0
 74
     0
  7

 75
     0
147
1.0
 76
     0
 77
     2
 78
   300
148
0.0
149
0.0
100
AcDbLayout
  1
Model
 70
     1
 71
     0
 10
0.0
 20
0.0
 11
12.0
 21
9.0
 12
0.0
 22
0.0
 32
0.0
 14
0.0
 24
0.0
 34
0.0
 15
0.0
 25
0.0
 35
0.0
146
0.0
 13
0.0
 23
0.0
 33
0.0
 16
1.0
 26
0.0
 36
0.0
 17
0.0
 27
1.0
 37
0.0
 76
     0
330
70
  0
MATERIAL
  5
19
102
{ACAD_XDICTIONARY
360
1A
102
}
102
{ACAD_REACTORS
330
10
102
}
330
10
100
AcDbMaterial
  1
ByBlock
 72
     0
 43
0.0208333333333333
 43
0.0
 43
0.0
 43
0.0
 43
0.0
 43
0.0208333333333333
 43
0.0
 43
0.0
 43
0.0
 43
0.0
 43
1.0
 43
0.0
 43
0.0
 43
0.0
 43
0.0
 43
1.0
 77
     0
 47
0.0208333333333333
 47
0.0
 47
0.0
 47
0.0
 47
0.0
 47
0.0208333333333333
 47
0.0
 47
0.0
 47
0.0
 47
0.0
 47
1.0
 47
0.0
 47
0.0
 47
0.0
 47
0.0
 47
1.0
171
     0
 49
0.0208333333333333
 49
0.0
 49
0.0
 49
0.0
 49
0.0
 49
0.0208333333333333
 49
0.0
 49
0.0
 49
0.0
 49
0.0
 49
1.0
 49
0.0
 49
0.0
 49
0.0
 49
0.0
 49
1.0
175
     0
142
0.0208333333333333
142
0.0
142
0.0
142
0.0
142
0.0
142
0.0208333333333333
142
0.0
142
0.0
142
0.0
142
0.0
142
1.0
142
0.0
142
0.0
142
0.0
142
0.0
142
1.0
179
     0
144
0.0208333333333333
144
0.0
144
0.0
144
0.0
144
0.0
144
0.0208333333333333
144
0.0
144
0.0
144
0.0
144
0.0
144
1.0
144
0.0
144
0.0
144
0.0
144
0.0
144
1.0
147
0.0208333333333333
147
0.0
147
0.0
147
0.0
147
0.0
147
0.0208333333333333
147
0.0
147
0.0
147
0.0
147
0.0
147
1.0
147
0.0
147
0.0
147
0.0
147
0.0
147
1.0
  0
MATERIAL
  5
11
102
{ACAD_XDICTIONARY
360
12
102
}
102
{ACAD_REACTORS
330
10
102
}
330
10
100
AcDbMaterial
  1
ByLayer
 72
     0
 43
0.0208333333333333
 43
0.0
 43
0.0
 43
0.0
 43
0.0
 43
0.0208333333333333
 43
0.0
 43
0.0
 43
0.0
 43
0.0
 43
1.0
 43
0.0
 43
0.0
 43
0.0
 43
0.0
 43
1.0
 77
     0
 47
0.0208333333333333
 47
0.0
 47
0.0
 47
0.0
 47
0.0
 47
0.0208333333333333
 47
0.0
 47
0.0
 47
0.0
 47
0.0
 47
1.0
 47
0.0
 47
0.0
 47
0.0
 47
0.0
 47
1.0
171
     0
 49
0.0208333333333333
 49
0.0
 49
0.0
 49
0.0
 49
0.0
 49
0.0208333333333333
 49
0.0
 49
0.0
 49
0.0
 49
0.0
 49
1.0
 49
0.0
 49
0.0
 49
0.0
 49
0.0
 49
1.0
175
     0
142
0.0208333333333333
142
0.0
142
0.0
142
0.0
142
0.0
142
0.0208333333333333
142
0.0
142
0.0
142
0.0
142
0.0
142
1.0
142
0.0
142
0.0
142
0.0
142
0.0
142
1.0
179
     0
144
0.0208333333333333
144
0.0
144
0.0
144
0.0
144
0.0
144
0.0208333333333333
144
0.0
144
0.0
144
0.0
144
0.0
144
1.0
144
0.0
144
0.0
144
0.0
144
0.0
144
1.0
147
0.0208333333333333
147
0.0
147
0.0
147
0.0
147
0.0
147
0.0208333333333333
147
0.0
147
0.0
147
0.0
147
0.0
147
1.0
147
0.0
147
0.0
147
0.0
147
0.0
147
1.0
  0
MATERIAL
  5
21
102
{ACAD_XDICTIONARY
360
22
102
}
102
{ACAD_REACTORS
330
10
102
}
330
10
100
AcDbMaterial
  1
Global
 72
     0
 43
0.0208333333333333
 43
0.0
 43
0.0
 43
0.0
 43
0.0
 43
0.0208333333333333
 43
0.0
 43
0.0
 43
0.0
 43
0.0
 43
1.0
 43
0.0
 43
0.0
 43
0.0
 43
0.0
 43
1.0
 77
     0
 47
0.0208333333333333
 47
0.0
 47
0.0
 47
0.0
 47
0.0
 47
0.0208333333333333
 47
0.0
 47
0.0
 47
0.0
 47
0.0
 47
1.0
 47
0.0
 47
0.0
 47
0.0
 47
0.0
 47
1.0
171
     0
 49
0.0208333333333333
 49
0.0
 49
0.0
 49
0.0
 49
0.0
 49
0.0208333333333333
 49
0.0
 49
0.0
 49
0.0
 49
0.0
 49
1.0
 49
0.0
 49
0.0
 49
0.0
 49
0.0
 49
1.0
175
     0
142
0.0208333333333333
142
0.0
142
0.0
142
0.0
142
0.0
142
0.0208333333333333
142
0.0
142
0.0
142
0.0
142
0.0
142
1.0
142
0.0
142
0.0
142
0.0
142
0.0
142
1.0
179
     0
144
0.0208333333333333
144
0.0
144
0.0
144
0.0
144
0.0
144
0.0208333333333333
144
0.0
144
0.0
144
0.0
144
0.0
144
1.0
144
0.0
144
0.0
144
0.0
144
0.0
144
1.0
147
0.0208333333333333
147
0.0
147
0.0
147
0.0
147
0.0
147
0.0208333333333333
147
0.0
147
0.0
147
0.0
147
0.0
147
1.0
147
0.0
147
0.0
147
0.0
147
0.0
147
1.0
  0
MLEADERSTYLE
  5
67
102
{ACAD_REACTORS
330
66
102
}
330
66
100
AcDbMLeaderStyle
179
     2
170
     2
171
     1
172
     0
 90
        2
 40
0.0
 41
0.0
173
     1
 91
-1056964608
340
5B
 92
       -2
290
     1
 42
0.09
291
     1
 43
0.36
  3
Standard
 44
0.18
300

342
55
174
     1
178
     6
175
     1
176
     0
 93
-1056964608
 45
0.18
292
     0
297
     0
 46
0.18
 94
-1056964608
 47
1.0
 49
1.0
140
1.0
293
     1
141
0.0
294
     1
177
     0
142
1.0
295
     1
296
     0
143
0.125
271
     0
272
     9
273
     9
298
     1
  0
MLINESTYLE
  5
60
102
{ACAD_REACTORS
330
5F
102
}
330
5F
100
AcDbMlineStyle
  2
STANDARD
 70
     0
  3

 62
   256
 51
90.0
 52
90.0
 71
     2
 49
0.5
 62
   256
  6
BYLAYER
 49
-0.5
 62
   256
  6
BYLAYER
  0
ACDBPLACEHOLDER
  5
F
102
{ACAD_REACTORS
330
E
102
}
330
E
  0
SCALE
  5
43
102
{ACAD_REACTORS
330
42
102
}
330
42
100
AcDbScale
 70
     0
300
1:1
140
1.0
141
1.0
290
     1
  0
SCALE
  5
44
102
{ACAD_REACTORS
330
42
102
}
330
42
100
AcDbScale
 70
     0
300
1/128" = 1'-0"
140
0.0078125
141
12.0
290
     0
  0
SCALE
  5
45
102
{ACAD_REACTORS
330
42
102
}
330
42
100
AcDbScale
 70
     0
300
1/64" = 1'-0"
140
0.015625
141
12.0
290
     0
  0
SCALE
  5
46
102
{ACAD_REACTORS
330
42
102
}
330
42
100
AcDbScale
 70
     0
300
1/32" = 1'-0"
140
0.03125
141
12.0
290
     0
  0
SCALE
  5
47
102
{ACAD_REACTORS
330
42
102
}
330
42
100
AcDbScale
 70
     0
300
1/16" = 1'-0"
140
0.0625
141
12.0
290
     0
  0
SCALE
  5
48
102
{ACAD_REACTORS
330
42
102
}
330
42
100
AcDbScale
 70
     0
300
3/32" = 1'-0"
140
0.09375
141
12.0
290
     0
  0
SCALE
  5
49
102
{ACAD_REACTORS
330
42
102
}
330
42
100
AcDbScale
 70
     0
300
1/8" = 1'-0"
140
0.125
141
12.0
290
     0
  0
SCALE
  5
4A
102
{ACAD_REACTORS
330
42
102
}
330
42
100
AcDbScale
 70
     0
300
3/16" = 1'-0"
140
0.1875
141
12.0
290
     0
  0
SCALE
  5
4B
102
{ACAD_REACTORS
330
42
102
}
330
42
100
AcDbScale
 70
     0
300
1/4" = 1'-0"
140
0.25
141
12.0
290
     0
  0
SCALE
  5
4C
102
{ACAD_REACTORS
330
42
102
}
330
42
100
AcDbScale
 70
     0
300
3/8" = 1'-0"
140
0.375
141
12.0
290
     0
  0
SCALE
  5
4D
102
{ACAD_REACTORS
330
42
102
}
330
42
100
AcDbScale
 70
     0
300
1/2" = 1'-0"
140
0.5
141
12.0
290
     0
  0
SCALE
  5
4E
102
{ACAD_REACTORS
330
42
102
}
330
42
100
AcDbScale
 70
     0
300
3/4" = 1'-0"
140
0.75
141
12.0
290
     0
  0
SCALE
  5
4F
102
{ACAD_REACTORS
330
42
102
}
330
42
100
AcDbScale
 70
     0
300
1" = 1'-0"
140
1.0
141
12.0
290
     0
  0
SCALE
  5
50
102
{ACAD_REACTORS
330
42
102
}
330
42
100
AcDbScale
 70
     0
300
1-1/2" = 1'-0"
140
1.5
141
12.0
290
     0
  0
SCALE
  5
51
102
{ACAD_REACTORS
330
42
102
}
330
42
100
AcDbScale
 70
     0
300
3" = 1'-0"
140
3.0
141
12.0
290
     0
  0
SCALE
  5
52
102
{ACAD_REACTORS
330
42
102
}
330
42
100
AcDbScale
 70
     0
300
6" = 1'-0"
140
6.0
141
12.0
290
     0
  0
SCALE
  5
53
102
{ACAD_REACTORS
330
42
102
}
330
42
100
AcDbScale
 70
     0
300
1'-0" = 1'-0"
140
12.0
141
12.0
290
     0
  0
ACDBSECTIONVIEWSTYLE
  5
69
102
{ACAD_REACTORS
330
68
102
}
330
68
100
AcDbModelDocViewStyle
 70
     0
  3
Imperial24
290
     1
300
Imperial24
 90
        0
100
AcDbSectionViewStyle
 70
     0
 71
     0
 90
       78
 71
     1
340
55
 62
   256
 40
0.24
340
0
340
0
 62
   256
 40
0.24
300
I, O, Q, S, X, Z
 40
0.48
 90
        3
 40
0.18
 90
        1
 71
     2
340
5D
 90
       25
 62
   256
340
5D
 90
       50
 62
   256
 40
0.24
 40
0.0
 40
0.24
 71
     3
340
55
 62
   256
 40
0.24
 90
        1
 40
0.75
 90
        1
300
%<\AcVar ViewType \f "%tc1">% %<\AcVar ViewSectionStartId>%-%<\AcVar ViewSectionEndId>%\PSCALE %<\AcVar ViewScale \f "%sn">%
 71
     4
 62
   256
 62
   257
300
ANSI31
 40
1.0
 90
        0
290
     0
290
     0
 90
        6
 40
0.0
 40
1.570796326794896
 40
0.2617993877991494
 40
1.308996938995747
 40
-0.2617993877991494
 40
1.832595714594046
  0
TABLESTYLE
  5
65
102
{ACAD_XDICTIONARY
360
276
102
}
102
{ACAD_REACTORS
330
64
102
}
330
64
100
AcDbTableStyle
280
     0
  3
Standard
 70
     0
 71
     0
 40
0.06
 41
0.06
280
     0
281
     0
  7
Standard
140
0.18
170
     2
 62
     0
 63
     7
283
     0
 90
      512
 91
        0
  1

274
    -2
284
     1
 64
     0
275
    -2
285
     1
 65
     0
276
    -2
286
     1
 66
     0
277
    -2
287
     1
 67
     0
278
    -2
288
     1
 68
     0
279
    -2
289
     1
 69
     0
  7
Standard
140
0.25
170
     5
 62
     0
 63
     7
283
     0
 90
      512
 91
        0
  1

274
    -2
284
     1
 64
     0
275
    -2
285
     1
 65
     0
276
    -2
286
     1
 66
     0
277
    -2
287
     1
 67
     0
278
    -2
288
     1
 68
     0
279
    -2
289
     1
 69
     0
  7
Standard
140
0.18
170
     5
 62
     0
 63
     7
283
     0
 90
      512
 91
        0
  1

274
    -2
284
     1
 64
     0
275
    -2
285
     1
 65
     0
276
    -2
286
     1
 66
     0
277
    -2
287
     1
 67
     0
278
    -2
288
     1
 68
     0
279
    -2
289
     1
 69
     0
  0
VISUALSTYLE
  5
2F
102
{ACAD_REACTORS
330
29
102
}
330
29
100
AcDbVisualStyle
  2
2dWireframe
 70
     4
177
     3
291
     0
 70
    58
 90
        0
176
     1
 90
        2
176
     1
 90
        0
176
     1
 90
        0
176
     1
 40
0.6
176
     1
 40
30.0
176
     1
 62
     7
420
 16777215
176
     1
 90
        1
176
     1
 90
        4
176
     1
 62
     7
176
     1
 62
   257
176
     1
 90
        1
176
     1
 90
        1
176
     1
 40
1.0
176
     1
 90
        0
176
     1
 62
   257
176
     1
 40
1.0
176
     1
 90
        1
176
     1
 90
        6
176
     1
 90
        2
176
     1
 62
     7
176
     1
 90
        5
176
     1
 90
        0
176
     1
 90
        0
176
     1
290
     0
176
     1
 90
        1
176
     1
 40
0.0
176
     1
 90
        0
176
     1
290
     1
176
     1
290
     1
176
     1
290
     0
176
     1
290
     0
176
     1
290
     0
176
     1
290
     0
176
     1
290
     0
176
     1
290
     0
176
     1
290
     0
176
     1
 90
       50
176
     1
 40
0.0
176
     1
 40
1.0
176
     1
 90
        0
176
     1
 62
    18
420
        0
176
     1
 90
       50
176
     1
 90
        3
176
     1
 62
     5
420
      255
176
     1
290
     0
176
     1
 90
       50
176
     1
 90
       50
176
     1
 90
       50
176
     1
290
     0
176
     1
 90
       50
176
     1
 62
   256
176
     0
 40
1.0
176
     0
 90
        2
176
     1
  1
strokes_ogs.tif
176
     1
290
     0
176
     1
 40
1.0
176
     1
 40
1.0
176
     1
  0
VISUALSTYLE
  5
2E
102
{ACAD_REACTORS
330
29
102
}
330
29
100
AcDbVisualStyle
  2
Basic
 70
     7
177
     3
291
     1
 70
    58
 90
        1
176
     1
 90
        0
176
     1
 90
        1
176
     1
 90
        0
176
     1
 40
0.6
176
     1
 40
30.0
176
     1
 62
     7
420
 16777215
176
     1
 90
        0
176
     1
 90
        4
176
     1
 62
     7
176
     1
 62
   257
176
     1
 90
        1
176
     1
 90
        1
176
     1
 40
1.0
176
     1
 90
        8
176
     1
 62
     7
176
     1
 40
1.0
176
     1
 90
        1
176
     1
 90
        6
176
     1
 90
        2
176
     1
 62
     7
176
     1
 90
        5
176
     1
 90
        0
176
     1
 90
        0
176
     1
290
     0
176
     1
 90
        1
176
     1
 40
0.0
176
     1
 90
        0
176
     1
290
     0
176
     1
290
     1
176
     1
290
     1
176
     1
290
     0
176
     1
290
     0
176
     1
290
     0
176
     1
290
     0
176
     1
290
     0
176
     1
290
     0
176
     1
 90
       50
176
     1
 40
0.0
176
     1
 40
1.0
176
     1
 90
        0
176
     1
 62
    18
420
        0
176
     1
 90
       50
176
     1
 90
        3
176
     1
 62
     5
420
      255
176
     1
290
     0
176
     1
 90
       50
176
     1
 90
       50
176
     1
 90
       50
176
     1
290
     0
176
     1
 90
       50
176
     1
 62
   256
176
     0
 40
1.0
176
     0
 90
        2
176
     1
  1
strokes_ogs.tif
176
     1
290
     0
176
     1
 40
1.0
176
     1
 40
1.0
176
     1
  0
VISUALSTYLE
  5
35
102
{ACAD_REACTORS
330
29
102
}
330
29
100
AcDbVisualStyle
  2
Brighten
 70
    12
177
     3
291
     1
 70
    58
 90
        2
176
     1
 90
        2
176
     1
 90
        0
176
     1
 90
        0
176
     1
 40
0.6
176
     1
 40
30.0
176
     1
 62
     7
420
 16777215
176
     1
 90
        1
176
     1
 90
        4
176
     1
 62
     7
176
     1
 62
   257
176
     1
 90
        1
176
     1
 90
        1
176
     1
 40
1.0
176
     1
 90
        8
176
     1
 62
     7
176
     1
 40
1.0
176
     1
 90
        1
176
     1
 90
        6
176
     1
 90
        2
176
     1
 62
     7
176
     1
 90
        5
176
     1
 90
        0
176
     1
 90
        0
176
     1
290
     0
176
     1
 90
        1
176
     1
 40
50.0
176
     1
 90
        0
176
     1
290
     0
176
     1
290
     1
176
     1
290
     1
176
     1
290
     0
176
     1
290
     0
176
     1
290
     0
176
     1
290
     0
176
     1
290
     0
176
     1
290
     0
176
     1
 90
       50
176
     1
 40
0.0
176
     1
 40
1.0
176
     1
 90
        0
176
     1
 62
    18
420
        0
176
     1
 90
       50
176
     1
 90
        3
176
     1
 62
     5
420
      255
176
     1
290
     0
176
     1
 90
       50
176
     1
 90
       50
176
     1
 90
       50
176
     1
290
     0
176
     1
 90
       50
176
     1
 62
   256
176
     0
 40
1.0
176
     0
 90
        2
176
     1
  1
strokes_ogs.tif
176
     1
290
     0
176
     1
 40
1.0
176
     1
 40
1.0
176
     1
  0
VISUALSTYLE
  5
39
102
{ACAD_REACTORS
330
29
102
}
330
29
100
AcDbVisualStyle
  2
ColorChange
 70
    16
177
     3
291
     1
 70
    58
 90
        2
176
     1
 90
        2
176
     1
 90
        3
176
     1
 90
        0
176
     1
 40
0.6
176
     1
 40
30.0
176
     1
 62
     8
420
  8421504
176
     1
 90
        1
176
     1
 90
        4
176
     1
 62
     7
176
     1
 62
   257
176
     1
 90
        1
176
     1
 90
        1
176
     1
 40
1.0
176
     1
 90
        8
176
     1
 62
     8
420
  8421504
176
     1
 40
1.0
176
     1
 90
        1
176
     1
 90
        6
176
     1
 90
        2
176
     1
 62
     7
176
     1
 90
        5
176
     1
 90
        0
176
     1
 90
        0
176
     1
290
     0
176
     1
 90
        1
176
     1
 40
0.0
176
     1
 90
        0
176
     1
290
     0
176
     1
290
     1
176
     1
290
     1
176
     1
290
     0
176
     1
290
     0
176
     1
290
     0
176
     1
290
     0
176
     1
290
     0
176
     1
290
     0
176
     1
 90
       50
176
     1
 40
0.0
176
     1
 40
1.0
176
     1
 90
        0
176
     1
 62
    18
420
        0
176
     1
 90
       50
176
     1
 90
        3
176
     1
 62
     5
420
      255
176
     1
290
     0
176
     1
 90
       50
176
     1
 90
       50
176
     1
 90
       50
176
     1
290
     0
176
     1
 90
       50
176
     1
 62
   256
176
     0
 40
1.0
176
     0
 90
        2
176
     1
  1
strokes_ogs.tif
176
     1
290
     0
176
     1
 40
1.0
176
     1
 40
1.0
176
     1
  0
VISUALSTYLE
  5
32
102
{ACAD_REACTORS
330
29
102
}
330
29
100
AcDbVisualStyle
  2
Conceptual
 70
     9
177
     3
291
     0
 70
    58
 90
        3
176
     1
 90
        2
176
     1
 90
        0
176
     1
 90
        0
176
     1
 40
0.6
176
     1
 40
30.0
176
     1
 62
     7
420
 16777215
176
     1
 90
        2
176
     1
 90
        2
176
     1
 62
     7
176
     1
 62
   257
176
     1
 90
        1
176
     1
 90
        1
176
     1
 40
179.0
176
     1
 90
        8
176
     1
 62
     7
176
     1
 40
1.0
176
     1
 90
        1
176
     1
 90
        6
176
     1
 90
        2
176
     1
 62
     7
176
     1
 90
        3
176
     1
 90
        0
176
     1
 90
        0
176
     1
290
     0
176
     1
 90
        1
176
     1
 40
0.0
176
     1
 90
        0
176
     1
290
     0
176
     1
290
     1
176
     1
290
     1
176
     1
290
     0
176
     1
290
     0
176
     1
290
     0
176
     1
290
     0
176
     1
290
     0
176
     1
290
     0
176
     1
 90
       50
176
     1
 40
0.0
176
     1
 40
1.0
176
     1
 90
        0
176
     1
 62
    18
420
        0
176
     1
 90
       50
176
     1
 90
        3
176
     1
 62
     5
420
      255
176
     1
290
     0
176
     1
 90
       50
176
     1
 90
       50
176
     1
 90
       50
176
     1
290
     0
176
     1
 90
       50
176
     1
 62
   256
176
     0
 40
1.0
176
     0
 90
        2
176
     1
  1
strokes_ogs.tif
176
     1
290
     0
176
     1
 40
1.0
176
     1
 40
1.0
176
     1
  0
VISUALSTYLE
  5
34
102
{ACAD_REACTORS
330
29
102
}
330
29
100
AcDbVisualStyle
  2
Dim
 70
    11
177
     3
291
     1
 70
    58
 90
        2
176
     1
 90
        2
176
     1
 90
        0
176
     1
 90
        0
176
     1
 40
0.6
176
     1
 40
30.0
176
     1
 62
     7
420
 16777215
176
     1
 90
        1
176
     1
 90
        4
176
     1
 62
     7
176
     1
 62
   257
176
     1
 90
        1
176
     1
 90
        1
176
     1
 40
1.0
176
     1
 90
        8
176
     1
 62
     7
176
     1
 40
1.0
176
     1
 90
        1
176
     1
 90
        6
176
     1
 90
        2
176
     1
 62
     7
176
     1
 90
        5
176
     1
 90
        0
176
     1
 90
        0
176
     1
290
     0
176
     1
 90
        1
176
     1
 40
-50.0
176
     1
 90
        0
176
     1
290
     0
176
     1
290
     1
176
     1
290
     1
176
     1
290
     0
176
     1
290
     0
176
     1
290
     0
176
     1
290
     0
176
     1
290
     0
176
     1
290
     0
176
     1
 90
       50
176
     1
 40
0.0
176
     1
 40
1.0
176
     1
 90
        0
176
     1
 62
    18
420
        0
176
     1
 90
       50
176
     1
 90
        3
176
     1
 62
     5
420
      255
176
     1
290
     0
176
     1
 90
       50
176
     1
 90
       50
176
     1
 90
       50
176
     1
290
     0
176
     1
 90
       50
176
     1
 62
   256
176
     0
 40
1.0
176
     0
 90
        2
176
     1
  1
strokes_ogs.tif
176
     1
290
     0
176
     1
 40
1.0
176
     1
 40
1.0
176
     1
  0
VISUALSTYLE
  5
41
102
{ACAD_REACTORS
330
29
102
}
330
29
100
AcDbVisualStyle
  2
EdgeColorOff
 70
    22
177
     3
291
     1
 70
    58
 90
        2
176
     0
 90
        2
176
     0
 90
        0
176
     0
 90
        0
176
     0
 40
0.6
176
     0
 40
30.0
176
     0
 62
     7
420
 16777215
176
     0
 90
        1
176
     0
 90
        4
176
     0
 62
     7
176
     0
 62
   257
176
     0
 90
        1
176
     0
 90
        1
176
     0
 40
1.0
176
     0
 90
        8
176
     2
 62
     7
176
     0
 40
1.0
176
     0
 90
        1
176
     0
 90
        6
176
     0
 90
        2
176
     0
 62
     7
176
     0
 90
        5
176
     0
 90
        0
176
     0
 90
        0
176
     0
290
     0
176
     0
 90
        1
176
     0
 40
0.0
176
     0
 90
        0
176
     0
290
     0
176
     0
290
     1
176
     0
290
     1
176
     0
290
     0
176
     0
290
     0
176
     0
290
     0
176
     0
290
     0
176
     0
290
     0
176
     0
290
     0
176
     0
 90
       50
176
     0
 40
0.0
176
     0
 40
1.0
176
     0
 90
        0
176
     0
 62
    18
420
        0
176
     0
 90
       50
176
     0
 90
        3
176
     0
 62
     5
420
      255
176
     0
290
     0
176
     0
 90
       50
176
     0
 90
       50
176
     0
 90
       50
176
     0
290
     0
176
     0
 90
       50
176
     0
 62
   256
176
     0
 40
1.0
176
     0
 90
        2
176
     0
  1
strokes_ogs.tif
176
     0
290
     0
176
     0
 40
1.0
176
     0
 40
1.0
176
     0
  0
VISUALSTYLE
  5
38
102
{ACAD_REACTORS
330
29
102
}
330
29
100
AcDbVisualStyle
  2
Facepattern
 70
    15
177
     3
291
     1
 70
    58
 90
        2
176
     1
 90
        2
176
     1
 90
        0
176
     1
 90
        0
176
     1
 40
0.6
176
     1
 40
30.0
176
     1
 62
     7
420
 16777215
176
     1
 90
        1
176
     1
 90
        4
176
     1
 62
     7
176
     1
 62
   257
176
     1
 90
        1
176
     1
 90
        1
176
     1
 40
1.0
176
     1
 90
        8
176
     1
 62
     7
176
     1
 40
1.0
176
     1
 90
        1
176
     1
 90
        6
176
     1
 90
        2
176
     1
 62
     7
176
     1
 90
        5
176
     1
 90
        0
176
     1
 90
        0
176
     1
290
     0
176
     1
 90
        1
176
     1
 40
0.0
176
     1
 90
        0
176
     1
290
     0
176
     1
290
     1
176
     1
290
     1
176
     1
290
     0
176
     1
290
     0
176
     1
290
     0
176
     1
290
     0
176
     1
290
     0
176
     1
290
     0
176
     1
 90
       50
176
     1
 40
0.0
176
     1
 40
1.0
176
     1
 90
        0
176
     1
 62
    18
420
        0
176
     1
 90
       50
176
     1
 90
        3
176
     1
 62
     5
420
      255
176
     1
290
     0
176
     1
 90
       50
176
     1
 90
       50
176
     1
 90
       50
176
     1
290
     0
176
     1
 90
       50
176
     1
 62
   256
176
     0
 40
1.0
176
     0
 90
        2
176
     1
  1
strokes_ogs.tif
176
     1
290
     0
176
     1
 40
1.0
176
     1
 40
1.0
176
     1
  0
VISUALSTYLE
  5
2A
102
{ACAD_REACTORS
330
29
102
}
330
29
100
AcDbVisualStyle
  2
Flat
 70
     0
177
     3
291
     1
 70
    58
 90
        2
176
     1
 90
        1
176
     1
 90
        1
176
     1
 90
        2
176
     1
 40
0.6
176
     1
 40
30.0
176
     1
 62
     7
420
 16777215
176
     1
 90
        0
176
     1
 90
        0
176
     1
 62
     7
176
     1
 62
   257
176
     1
 90
        1
176
     1
 90
        1
176
     1
 40
1.0
176
     1
 90
        8
176
     1
 62
     7
176
     1
 40
1.0
176
     1
 90
        1
176
     1
 90
        6
176
     1
 90
        2
176
     1
 62
     7
176
     1
 90
        5
176
     1
 90
        0
176
     1
 90
        0
176
     1
290
     0
176
     1
 90
       13
176
     1
 40
0.0
176
     1
 90
        0
176
     1
290
     0
176
     1
290
     1
176
     1
290
     1
176
     1
290
     0
176
     1
290
     0
176
     1
290
     0
176
     1
290
     0
176
     1
290
     0
176
     1
290
     0
176
     1
 90
       50
176
     1
 40
0.0
176
     1
 40
1.0
176
     1
 90
        0
176
     1
 62
    18
420
        0
176
     1
 90
       50
176
     1
 90
        3
176
     1
 62
     5
420
      255
176
     1
290
     0
176
     1
 90
       50
176
     1
 90
       50
176
     1
 90
       50
176
     1
290
     0
176
     1
 90
       50
176
     1
 62
   256
176
     0
 40
1.0
176
     0
 90
        2
176
     1
  1
strokes_ogs.tif
176
     1
290
     0
176
     1
 40
1.0
176
     1
 40
1.0
176
     1
  0
VISUALSTYLE
  5
2B
102
{ACAD_REACTORS
330
29
102
}
330
29
100
AcDbVisualStyle
  2
FlatWithEdges
 70
     1
177
     3
291
     1
 70
    58
 90
        2
176
     1
 90
        1
176
     1
 90
        1
176
     1
 90
        2
176
     1
 40
0.6
176
     1
 40
30.0
176
     1
 62
     7
420
 16777215
176
     1
 90
        1
176
     1
 90
        0
176
     1
 62
     7
176
     1
 62
   257
176
     1
 90
        1
176
     1
 90
        1
176
     1
 40
1.0
176
     1
 90
        0
176
     1
 62
   257
176
     1
 40
1.0
176
     1
 90
        1
176
     1
 90
        6
176
     1
 90
        2
176
     1
 62
     7
176
     1
 90
        5
176
     1
 90
        0
176
     1
 90
        0
176
     1
290
     0
176
     1
 90
       13
176
     1
 40
0.0
176
     1
 90
        0
176
     1
290
     0
176
     1
290
     1
176
     1
290
     1
176
     1
290
     0
176
     1
290
     0
176
     1
290
     0
176
     1
290
     0
176
     1
290
     0
176
     1
290
     0
176
     1
 90
       50
176
     1
 40
0.0
176
     1
 40
1.0
176
     1
 90
        0
176
     1
 62
    18
420
        0
176
     1
 90
       50
176
     1
 90
        3
176
     1
 62
     5
420
      255
176
     1
290
     0
176
     1
 90
       50
176
     1
 90
       50
176
     1
 90
       50
176
     1
290
     0
176
     1
 90
       50
176
     1
 62
   256
176
     0
 40
1.0
176
     0
 90
        2
176
     1
  1
strokes_ogs.tif
176
     1
290
     0
176
     1
 40
1.0
176
     1
 40
1.0
176
     1
  0
VISUALSTYLE
  5
2C
102
{ACAD_REACTORS
330
29
102
}
330
29
100
AcDbVisualStyle
  2
Gouraud
 70
     2
177
     3
291
     1
 70
    58
 90
        2
176
     1
 90
        2
176
     1
 90
        1
176
     1
 90
        2
176
     1
 40
0.6
176
     1
 40
30.0
176
     1
 62
     7
420
 16777215
176
     1
 90
        0
176
     1
 90
        0
176
     1
 62
     7
176
     1
 62
   257
176
     1
 90
        1
176
     1
 90
        1
176
     1
 40
1.0
176
     1
 90
        0
176
     1
 62
     7
176
     1
 40
1.0
176
     1
 90
        1
176
     1
 90
        6
176
     1
 90
        2
176
     1
 62
     7
176
     1
 90
        5
176
     1
 90
        0
176
     1
 90
        0
176
     1
290
     0
176
     1
 90
       13
176
     1
 40
0.0
176
     1
 90
        0
176
     1
290
     0
176
     1
290
     1
176
     1
290
     1
176
     1
290
     0
176
     1
290
     0
176
     1
290
     0
176
     1
290
     0
176
     1
290
     0
176
     1
290
     0
176
     1
 90
       50
176
     1
 40
0.0
176
     1
 40
1.0
176
     1
 90
        0
176
     1
 62
    18
420
        0
176
     1
 90
       50
176
     1
 90
        3
176
     1
 62
     5
420
      255
176
     1
290
     0
176
     1
 90
       50
176
     1
 90
       50
176
     1
 90
       50
176
     1
290
     0
176
     1
 90
       50
176
     1
 62
   256
176
     0
 40
1.0
176
     0
 90
        2
176
     1
  1
strokes_ogs.tif
176
     1
290
     0
176
     1
 40
1.0
176
     1
 40
1.0
176
     1
  0
VISUALSTYLE
  5
2D
102
{ACAD_REACTORS
330
29
102
}
330
29
100
AcDbVisualStyle
  2
GouraudWithEdges
 70
     3
177
     3
291
     1
 70
    58
 90
        2
176
     1
 90
        2
176
     1
 90
        1
176
     1
 90
        2
176
     1
 40
0.6
176
     1
 40
30.0
176
     1
 62
     7
420
 16777215
176
     1
 90
        1
176
     1
 90
        0
176
     1
 62
     7
176
     1
 62
   257
176
     1
 90
        1
176
     1
 90
        1
176
     1
 40
1.0
176
     1
 90
        0
176
     1
 62
   257
176
     1
 40
1.0
176
     1
 90
        1
176
     1
 90
        6
176
     1
 90
        2
176
     1
 62
     7
176
     1
 90
        5
176
     1
 90
        0
176
     1
 90
        0
176
     1
290
     0
176
     1
 90
       13
176
     1
 40
0.0
176
     1
 90
        0
176
     1
290
     0
176
     1
290
     1
176
     1
290
     1
176
     1
290
     0
176
     1
290
     0
176
     1
290
     0
176
     1
290
     0
176
     1
290
     0
176
     1
290
     0
176
     1
 90
       50
176
     1
 40
0.0
176
     1
 40
1.0
176
     1
 90
        0
176
     1
 62
    18
420
        0
176
     1
 90
       50
176
     1
 90
        3
176
     1
 62
     5
420
      255
176
     1
290
     0
176
     1
 90
       50
176
     1
 90
       50
176
     1
 90
       50
176
     1
290
     0
176
     1
 90
       50
176
     1
 62
   256
176
     0
 40
1.0
176
     0
 90
        2
176
     1
  1
strokes_ogs.tif
176
     1
290
     0
176
     1
 40
1.0
176
     1
 40
1.0
176
     1
  0
VISUALSTYLE
  5
31
102
{ACAD_REACTORS
330
29
102
}
330
29
100
AcDbVisualStyle
  2
Hidden
 70
     6
177
     3
291
     0
 70
    58
 90
        1
176
     1
 90
        2
176
     1
 90
        2
176
     1
 90
        0
176
     1
 40
0.6
176
     1
 40
30.0
176
     1
 62
     7
420
 16777215
176
     1
 90
        2
176
     1
 90
        2
176
     1
 62
     7
176
     1
 62
   257
176
     1
 90
        2
176
     1
 90
        1
176
     1
 40
40.0
176
     1
 90
        0
176
     1
 62
   257
176
     1
 40
1.0
176
     1
 90
        1
176
     1
 90
        6
176
     1
 90
        2
176
     1
 62
     7
176
     1
 90
        3
176
     1
 90
        0
176
     1
 90
        0
176
     1
290
     0
176
     1
 90
        1
176
     1
 40
0.0
176
     1
 90
        0
176
     1
290
     0
176
     1
290
     1
176
     1
290
     1
176
     1
290
     0
176
     1
290
     0
176
     1
290
     0
176
     1
290
     0
176
     1
290
     0
176
     1
290
     0
176
     1
 90
       50
176
     1
 40
0.0
176
     1
 40
1.0
176
     1
 90
        0
176
     1
 62
    18
420
        0
176
     1
 90
       50
176
     1
 90
        3
176
     1
 62
     5
420
      255
176
     1
290
     0
176
     1
 90
       50
176
     1
 90
       50
176
     1
 90
       50
176
     1
290
     0
176
     1
 90
       50
176
     1
 62
   256
176
     0
 40
1.0
176
     0
 90
        2
176
     1
  1
strokes_ogs.tif
176
     1
290
     0
176
     1
 40
1.0
176
     1
 40
1.0
176
     1
  0
VISUALSTYLE
  5
3F
102
{ACAD_REACTORS
330
29
102
}
330
29
100
AcDbVisualStyle
  2
JitterOff
 70
    20
177
     3
291
     1
 70
    58
 90
        2
176
     0
 90
        2
176
     0
 90
        0
176
     0
 90
        0
176
     0
 40
0.6
176
     0
 40
30.0
176
     0
 62
     7
420
 16777215
176
     0
 90
        1
176
     0
 90
        4
176
     0
 62
     7
176
     0
 62
   257
176
     0
 90
        1
176
     0
 90
        1
176
     0
 40
1.0
176
     0
 90
       10
176
     2
 62
     7
176
     0
 40
1.0
176
     0
 90
        1
176
     0
 90
        6
176
     0
 90
        2
176
     0
 62
     7
176
     0
 90
        5
176
     0
 90
        0
176
     0
 90
        0
176
     0
290
     0
176
     0
 90
        1
176
     0
 40
0.0
176
     0
 90
        0
176
     0
290
     0
176
     0
290
     1
176
     0
290
     1
176
     0
290
     0
176
     0
290
     0
176
     0
290
     0
176
     0
290
     0
176
     0
290
     0
176
     0
290
     0
176
     0
 90
       50
176
     0
 40
0.0
176
     0
 40
1.0
176
     0
 90
        0
176
     0
 62
    18
420
        0
176
     0
 90
       50
176
     0
 90
        3
176
     0
 62
     5
420
      255
176
     0
290
     0
176
     0
 90
       50
176
     0
 90
       50
176
     0
 90
       50
176
     0
290
     0
176
     0
 90
       50
176
     0
 62
   256
176
     0
 40
1.0
176
     0
 90
        2
176
     0
  1
strokes_ogs.tif
176
     0
290
     0
176
     0
 40
1.0
176
     0
 40
1.0
176
     0
  0
VISUALSTYLE
  5
37
102
{ACAD_REACTORS
330
29
102
}
330
29
100
AcDbVisualStyle
  2
Linepattern
 70
    14
177
     3
291
     1
 70
    58
 90
        2
176
     1
 90
        2
176
     1
 90
        0
176
     1
 90
        0
176
     1
 40
0.6
176
     1
 40
30.0
176
     1
 62
     7
420
 16777215
176
     1
 90
        1
176
     1
 90
        4
176
     1
 62
     7
176
     1
 62
   257
176
     1
 90
        7
176
     1
 90
        7
176
     1
 40
1.0
176
     1
 90
        8
176
     1
 62
     7
176
     1
 40
1.0
176
     1
 90
        1
176
     1
 90
        6
176
     1
 90
        2
176
     1
 62
     7
176
     1
 90
        5
176
     1
 90
        0
176
     1
 90
        0
176
     1
290
     0
176
     1
 90
        1
176
     1
 40
0.0
176
     1
 90
        0
176
     1
290
     0
176
     1
290
     1
176
     1
290
     1
176
     1
290
     0
176
     1
290
     0
176
     1
290
     0
176
     1
290
     0
176
     1
290
     0
176
     1
290
     0
176
     1
 90
       50
176
     1
 40
0.0
176
     1
 40
1.0
176
     1
 90
        0
176
     1
 62
    18
420
        0
176
     1
 90
       50
176
     1
 90
        3
176
     1
 62
     5
420
      255
176
     1
290
     0
176
     1
 90
       50
176
     1
 90
       50
176
     1
 90
       50
176
     1
290
     0
176
     1
 90
       50
176
     1
 62
   256
176
     0
 40
1.0
176
     0
 90
        2
176
     1
  1
strokes_ogs.tif
176
     1
290
     0
176
     1
 40
1.0
176
     1
 40
1.0
176
     1
  0
VISUALSTYLE
  5
40
102
{ACAD_REACTORS
330
29
102
}
330
29
100
AcDbVisualStyle
  2
OverhangOff
 70
    21
177
     3
291
     1
 70
    58
 90
        2
176
     0
 90
        2
176
     0
 90
        0
176
     0
 90
        0
176
     0
 40
0.6
176
     0
 40
30.0
176
     0
 62
     7
420
 16777215
176
     0
 90
        1
176
     0
 90
        4
176
     0
 62
     7
176
     0
 62
   257
176
     0
 90
        1
176
     0
 90
        1
176
     0
 40
1.0
176
     0
 90
        9
176
     2
 62
     7
176
     0
 40
1.0
176
     0
 90
        1
176
     0
 90
        6
176
     0
 90
        2
176
     0
 62
     7
176
     0
 90
        5
176
     0
 90
        0
176
     0
 90
        0
176
     0
290
     0
176
     0
 90
        1
176
     0
 40
0.0
176
     0
 90
        0
176
     0
290
     0
176
     0
290
     1
176
     0
290
     1
176
     0
290
     0
176
     0
290
     0
176
     0
290
     0
176
     0
290
     0
176
     0
290
     0
176
     0
290
     0
176
     0
 90
       50
176
     0
 40
0.0
176
     0
 40
1.0
176
     0
 90
        0
176
     0
 62
    18
420
        0
176
     0
 90
       50
176
     0
 90
        3
176
     0
 62
     5
420
      255
176
     0
290
     0
176
     0
 90
       50
176
     0
 90
       50
176
     0
 90
       50
176
     0
290
     0
176
     0
 90
       50
176
     0
 62
   256
176
     0
 40
1.0
176
     0
 90
        2
176
     0
  1
strokes_ogs.tif
176
     0
290
     0
176
     0
 40
1.0
176
     0
 40
1.0
176
     0
  0
VISUALSTYLE
  5
33
102
{ACAD_REACTORS
330
29
102
}
330
29
100
AcDbVisualStyle
  2
Realistic
 70
     8
177
     3
291
     0
 70
    58
 90
        2
176
     1
 90
        3
176
     1
 90
        0
176
     1
 90
        2
176
     1
 40
0.6
176
     1
 40
30.0
176
     1
 62
     7
420
 16777215
176
     1
 90
        0
176
     1
 90
        0
176
     1
 62
     7
176
     1
 62
   257
176
     1
 90
        1
176
     1
 90
        1
176
     1
 40
1.0
176
     1
 90
        8
176
     1
 62
   257
176
     1
 40
1.0
176
     1
 90
        1
176
     1
 90
        6
176
     1
 90
        2
176
     1
 62
     7
176
     1
 90
        3
176
     1
 90
        0
176
     1
 90
        0
176
     1
290
     0
176
     1
 90
       13
176
     1
 40
0.0
176
     1
 90
        0
176
     1
290
     0
176
     1
290
     1
176
     1
290
     1
176
     1
290
     0
176
     1
290
     0
176
     1
290
     0
176
     1
290
     0
176
     1
290
     0
176
     1
290
     0
176
     1
 90
       50
176
     1
 40
0.0
176
     1
 40
1.0
176
     1
 90
        0
176
     1
 62
    18
420
        0
176
     1
 90
       50
176
     1
 90
        3
176
     1
 62
     5
420
      255
176
     1
290
     0
176
     1
 90
       50
176
     1
 90
       50
176
     1
 90
       50
176
     1
290
     0
176
     1
 90
       50
176
     1
 62
   256
176
     0
 40
1.0
176
     0
 90
        2
176
     1
  1
strokes_ogs.tif
176
     1
290
     0
176
     1
 40
1.0
176
     1
 40
1.0
176
     1
  0
VISUALSTYLE
  5
3E
102
{ACAD_REACTORS
330
29
102
}
330
29
100
AcDbVisualStyle
  2
Shaded
 70
    27
177
     3
291
     0
 70
    58
 90
        2
176
     1
 90
        2
176
     1
 90
        1
176
     1
 90
        2
176
     1
 40
0.6
176
     1
 40
30.0
176
     1
 62
     7
420
 16777215
176
     1
 90
        0
176
     1
 90
        4
176
     1
 62
     7
176
     1
 62
   257
176
     1
 90
        1
176
     1
 90
        1
176
     1
 40
1.0
176
     1
 90
        8
176
     1
 62
   257
176
     1
 40
1.0
176
     1
 90
        1
176
     1
 90
        6
176
     1
 90
        2
176
     1
 62
     8
420
  7895160
176
     1
 90
        3
176
     1
 90
        0
176
     1
 90
        0
176
     1
290
     0
176
     1
 90
        5
176
     1
 40
0.0
176
     1
 90
        0
176
     1
290
     0
176
     1
290
     1
176
     1
290
     1
176
     1
290
     0
176
     1
290
     0
176
     1
290
     0
176
     1
290
     0
176
     1
290
     0
176
     1
290
     0
176
     1
 90
       50
176
     1
 40
0.0
176
     1
 40
1.0
176
     1
 90
        0
176
     1
 62
    18
420
        0
176
     1
 90
       50
176
     1
 90
        3
176
     1
 62
     5
420
      255
176
     1
290
     0
176
     1
 90
       50
176
     1
 90
       50
176
     1
 90
       50
176
     1
290
     0
176
     1
 90
       50
176
     1
 62
   256
176
     0
 40
1.0
176
     0
 90
        2
176
     1
  1
strokes_ogs.tif
176
     1
290
     0
176
     1
 40
1.0
176
     1
 40
1.0
176
     1
  0
VISUALSTYLE
  5
3D
102
{ACAD_REACTORS
330
29
102
}
330
29
100
AcDbVisualStyle
  2
Shaded with edges
 70
    26
177
     3
291
     0
 70
    58
 90
        2
176
     1
 90
        2
176
     1
 90
        1
176
     1
 90
        2
176
     1
 40
0.6
176
     1
 40
30.0
176
     1
 62
     7
420
 16777215
176
     1
 90
        1
176
     1
 90
        2
176
     1
 62
     7
176
     1
 62
   257
176
     1
 90
        2
176
     1
 90
        1
176
     1
 40
1.0
176
     1
 90
        8
176
     1
 62
   257
176
     1
 40
1.0
176
     1
 90
        1
176
     1
 90
        6
176
     1
 90
        2
176
     1
 62
     7
176
     1
 90
        3
176
     1
 90
        0
176
     1
 90
        0
176
     1
290
     0
176
     1
 90
        5
176
     1
 40
0.0
176
     1
 90
        0
176
     1
290
     0
176
     1
290
     1
176
     1
290
     1
176
     1
290
     0
176
     1
290
     0
176
     1
290
     0
176
     1
290
     0
176
     1
290
     0
176
     1
290
     0
176
     1
 90
       50
176
     1
 40
0.0
176
     1
 40
1.0
176
     1
 90
        0
176
     1
 62
    18
420
        0
176
     1
 90
       50
176
     1
 90
        3
176
     1
 62
     5
420
      255
176
     1
290
     0
176
     1
 90
       50
176
     1
 90
       50
176
     1
 90
       50
176
     1
290
     0
176
     1
 90
       50
176
     1
 62
   256
176
     0
 40
1.0
176
     0
 90
        2
176
     1
  1
strokes_ogs.tif
176
     1
290
     0
176
     1
 40
1.0
176
     1
 40
1.0
176
     1
  0
VISUALSTYLE
  5
3A
102
{ACAD_REACTORS
330
29
102
}
330
29
100
AcDbVisualStyle
  2
Shades of Gray
 70
    23
177
     3
291
     0
 70
    58
 90
        2
176
     1
 90
        2
176
     1
 90
        3
176
     1
 90
        0
176
     1
 40
0.6
176
     1
 40
30.0
176
     1
 62
     7
420
 16777215
176
     1
 90
        2
176
     1
 90
        2
176
     1
 62
     7
176
     1
 62
     7
176
     1
 90
        1
176
     1
 90
        1
176
     1
 40
40.0
176
     1
 90
        8
176
     1
 62
     7
176
     1
 40
1.0
176
     1
 90
        1
176
     1
 90
        6
176
     1
 90
        2
176
     1
 62
     7
176
     1
 90
        3
176
     1
 90
        0
176
     1
 90
        0
176
     1
290
     0
176
     1
 90
        1
176
     1
 40
0.0
176
     1
 90
        0
176
     1
290
     0
176
     1
290
     1
176
     1
290
     1
176
     1
290
     0
176
     1
290
     0
176
     1
290
     0
176
     1
290
     0
176
     1
290
     0
176
     1
290
     0
176
     1
 90
       50
176
     1
 40
0.0
176
     1
 40
1.0
176
     1
 90
        0
176
     1
 62
    18
420
        0
176
     1
 90
       50
176
     1
 90
        3
176
     1
 62
     5
420
      255
176
     1
290
     0
176
     1
 90
       50
176
     1
 90
       50
176
     1
 90
       50
176
     1
290
     0
176
     1
 90
       50
176
     1
 62
   256
176
     0
 40
1.0
176
     0
 90
        2
176
     1
  1
strokes_ogs.tif
176
     1
290
     0
176
     1
 40
1.0
176
     1
 40
1.0
176
     1
  0
VISUALSTYLE
  5
3B
102
{ACAD_REACTORS
330
29
102
}
330
29
100
AcDbVisualStyle
  2
Sketchy
 70
    24
177
     3
291
     0
 70
    58
 90
        1
176
     1
 90
        2
176
     1
 90
        2
176
     1
 90
        0
176
     1
 40
0.6
176
     1
 40
30.0
176
     1
 62
     7
420
 16777215
176
     1
 90
        2
176
     1
 90
        2
176
     1
 62
     7
176
     1
 62
     7
176
     1
 90
        1
176
     1
 90
        1
176
     1
 40
40.0
176
     1
 90
       11
176
     1
 62
     7
176
     1
 40
1.0
176
     1
 90
        1
176
     1
 90
        6
176
     1
 90
        2
176
     1
 62
     7
176
     1
 90
        6
176
     1
 90
        0
176
     1
 90
        0
176
     1
290
     0
176
     1
 90
        1
176
     1
 40
0.0
176
     1
 90
        0
176
     1
290
     0
176
     1
290
     1
176
     1
290
     1
176
     1
290
     0
176
     1
290
     0
176
     1
290
     0
176
     1
290
     0
176
     1
290
     0
176
     1
290
     0
176
     1
 90
       50
176
     1
 40
0.0
176
     1
 40
1.0
176
     1
 90
        0
176
     1
 62
    18
420
        0
176
     1
 90
       50
176
     1
 90
        3
176
     1
 62
     5
420
      255
176
     1
290
     0
176
     1
 90
       50
176
     1
 90
       50
176
     1
 90
       50
176
     1
290
     0
176
     1
 90
       50
176
     1
 62
   256
176
     0
 40
1.0
176
     0
 90
        2
176
     1
  1
strokes_ogs.tif
176
     1
290
     0
176
     1
 40
1.0
176
     1
 40
1.0
176
     1
  0
VISUALSTYLE
  5
36
102
{ACAD_REACTORS
330
29
102
}
330
29
100
AcDbVisualStyle
  2
Thicken
 70
    13
177
     3
291
     1
 70
    58
 90
        2
176
     1
 90
        2
176
     1
 90
        0
176
     1
 90
        0
176
     1
 40
0.6
176
     1
 40
30.0
176
     1
 62
     7
420
 16777215
176
     1
 90
        1
176
     1
 90
        4
176
     1
 62
     7
176
     1
 62
   257
176
     1
 90
        1
176
     1
 90
        1
176
     1
 40
1.0
176
     1
 90
       12
176
     1
 62
     7
176
     1
 40
1.0
176
     1
 90
        1
176
     1
 90
        6
176
     1
 90
        2
176
     1
 62
     7
176
     1
 90
        5
176
     1
 90
        0
176
     1
 90
        0
176
     1
290
     0
176
     1
 90
        1
176
     1
 40
0.0
176
     1
 90
        0
176
     1
290
     0
176
     1
290
     1
176
     1
290
     1
176
     1
290
     0
176
     1
290
     0
176
     1
290
     0
176
     1
290
     0
176
     1
290
     0
176
     1
290
     0
176
     1
 90
       50
176
     1
 40
0.0
176
     1
 40
1.0
176
     1
 90
        0
176
     1
 62
    18
420
        0
176
     1
 90
       50
176
     1
 90
        3
176
     1
 62
     5
420
      255
176
     1
290
     0
176
     1
 90
       50
176
     1
 90
       50
176
     1
 90
       50
176
     1
290
     0
176
     1
 90
       50
176
     1
 62
   256
176
     0
 40
1.0
176
     0
 90
        2
176
     1
  1
strokes_ogs.tif
176
     1
290
     0
176
     1
 40
1.0
176
     1
 40
1.0
176
     1
  0
VISUALSTYLE
  5
30
102
{ACAD_REACTORS
330
29
102
}
330
29
100
AcDbVisualStyle
  2
Wireframe
 70
     5
177
     3
291
     0
 70
    58
 90
        0
176
     1
 90
        2
176
     1
 90
        0
176
     1
 90
        0
176
     1
 40
0.6
176
     1
 40
30.0
176
     1
 62
     7
420
 16777215
176
     1
 90
        1
176
     1
 90
        4
176
     1
 62
     7
176
     1
 62
   257
176
     1
 90
        1
176
     1
 90
        1
176
     1
 40
1.0
176
     1
 90
        0
176
     1
 62
   257
176
     1
 40
1.0
176
     1
 90
        1
176
     1
 90
        6
176
     1
 90
        2
176
     1
 62
     7
176
     1
 90
        3
176
     1
 90
        0
176
     1
 90
        0
176
     1
290
     0
176
     1
 90
        1
176
     1
 40
0.0
176
     1
 90
        0
176
     1
290
     0
176
     1
290
     1
176
     1
290
     1
176
     1
290
     0
176
     1
290
     0
176
     1
290
     0
176
     1
290
     0
176
     1
290
     0
176
     1
290
     0
176
     1
 90
       50
176
     1
 40
0.0
176
     1
 40
1.0
176
     1
 90
        0
176
     1
 62
    18
420
        0
176
     1
 90
       50
176
     1
 90
        3
176
     1
 62
     5
420
      255
176
     1
290
     0
176
     1
 90
       50
176
     1
 90
       50
176
     1
 90
       50
176
     1
290
     0
176
     1
 90
       50
176
     1
 62
   256
176
     0
 40
1.0
176
     0
 90
        2
176
     1
  1
strokes_ogs.tif
176
     1
290
     0
176
     1
 40
1.0
176
     1
 40
1.0
176
     1
  0
VISUALSTYLE
  5
3C
102
{ACAD_REACTORS
330
29
102
}
330
29
100
AcDbVisualStyle
  2
X-Ray
 70
    25
177
     3
291
     0
 70
    58
 90
        2
176
     1
 90
        2
176
     1
 90
        1
176
     1
 90
        1
176
     1
 40
0.5
176
     1
 40
30.0
176
     1
 62
     7
420
 16777215
176
     1
 90
        1
176
     1
 90
        0
176
     1
 62
     7
176
     1
 62
   257
176
     1
 90
        1
176
     1
 90
        1
176
     1
 40
1.0
176
     1
 90
        8
176
     1
 62
     7
176
     1
 40
1.0
176
     1
 90
        1
176
     1
 90
        6
176
     1
 90
        2
176
     1
 62
     7
176
     1
 90
        3
176
     1
 90
        0
176
     1
 90
        0
176
     1
290
     0
176
     1
 90
       13
176
     1
 40
0.0
176
     1
 90
        0
176
     1
290
     0
176
     1
290
     1
176
     1
290
     1
176
     1
290
     0
176
     1
290
     0
176
     1
290
     0
176
     1
290
     0
176
     1
290
     0
176
     1
290
     0
176
     1
 90
       50
176
     1
 40
0.0
176
     1
 40
1.0
176
     1
 90
        0
176
     1
 62
    18
420
        0
176
     1
 90
       50
176
     1
 90
        3
176
     1
 62
     5
420
      255
176
     1
290
     0
176
     1
 90
       50
176
     1
 90
       50
176
     1
 90
       50
176
     1
290
     0
176
     1
 90
       50
176
     1
 62
   256
176
     0
 40
1.0
176
     0
 90
        2
176
     1
  1
strokes_ogs.tif
176
     1
290
     0
176
     1
 40
1.0
176
     1
 40
1.0
176
     1
  0
DICTIONARYVAR
  5
275
102
{ACAD_REACTORS
330
270
102
}
330
270
100
DictionaryVariables
280
     0
  1
1:1
  0
DICTIONARYVAR
  5
272
102
{ACAD_REACTORS
330
270
102
}
330
270
100
DictionaryVariables
280
     0
  1
STANDARD
  0
DICTIONARYVAR
  5
271
102
{ACAD_REACTORS
330
270
102
}
330
270
100
DictionaryVariables
280
     0
  1
STANDARD
  0
DICTIONARYVAR
  5
273
102
{ACAD_REACTORS
330
270
102
}
330
270
100
DictionaryVariables
280
     0
  1
Imperial24
  0
DICTIONARYVAR
  5
274
102
{ACAD_REACTORS
330
270
102
}
330
270
100
DictionaryVariables
280
     0
  1
Imperial24
  0
DICTIONARY
  5
1A
330
19
100
AcDbDictionary
280
     1
281
     1
  3
BUMPTILE
360
1C
  3
DIFFUSETILE
360
1B
  3
OPACITYTILE
360
1F
  3
REFLECTIONTILE
360
1E
  3
REFRACTIONTILE
360
20
  3
SPECULARTILE
360
1D
  0
DICTIONARY
  5
12
330
11
100
AcDbDictionary
280
     1
281
     1
  3
BUMPTILE
360
14
  3
DIFFUSETILE
360
13
  3
OPACITYTILE
360
17
  3
REFLECTIONTILE
360
16
  3
REFRACTIONTILE
360
18
  3
SPECULARTILE
360
15
  0
DICTIONARY
  5
22
330
21
100
AcDbDictionary
280
     1
281
     1
  3
BUMPTILE
360
24
  3
DIFFUSETILE
360
23
  3
OPACITYTILE
360
27
  3
REFLECTIONTILE
360
26
  3
REFRACTIONTILE
360
28
  3
SPECULARTILE
360
25
  0
DICTIONARY
  5
276
330
65
100
AcDbDictionary
280
     1
281
     1
  3
ACAD_ROUNDTRIP_2008_TABLESTYLE_CELLSTYLEMAP
360
277
  0
XRECORD
  5
1C
102
{ACAD_REACTORS
330
1A
102
}
330
1A
100
AcDbXrecord
280
     1
270
     1
271
     1
  0
XRECORD
  5
1B
102
{ACAD_REACTORS
330
1A
102
}
330
1A
100
AcDbXrecord
280
     1
270
     1
271
     1
  0
XRECORD
  5
1F
102
{ACAD_REACTORS
330
1A
102
}
330
1A
100
AcDbXrecord
280
     1
270
     1
271
     1
  0
XRECORD
  5
1E
102
{ACAD_REACTORS
330
1A
102
}
330
1A
100
AcDbXrecord
280
     1
270
     1
271
     1
  0
XRECORD
  5
20
102
{ACAD_REACTORS
330
1A
102
}
330
1A
100
AcDbXrecord
280
     1
270
     1
271
     1
  0
XRECORD
  5
1D
102
{ACAD_REACTORS
330
1A
102
}
330
1A
100
AcDbXrecord
280
     1
270
     1
271
     1
  0
XRECORD
  5
14
102
{ACAD_REACTORS
330
12
102
}
330
12
100
AcDbXrecord
280
     1
270
     1
271
     1
  0
XRECORD
  5
13
102
{ACAD_REACTORS
330
12
102
}
330
12
100
AcDbXrecord
280
     1
270
     1
271
     1
  0
XRECORD
  5
17
102
{ACAD_REACTORS
330
12
102
}
330
12
100
AcDbXrecord
280
     1
270
     1
271
     1
  0
XRECORD
  5
16
102
{ACAD_REACTORS
330
12
102
}
330
12
100
AcDbXrecord
280
     1
270
     1
271
     1
  0
XRECORD
  5
18
102
{ACAD_REACTORS
330
12
102
}
330
12
100
AcDbXrecord
280
     1
270
     1
271
     1
  0
XRECORD
  5
15
102
{ACAD_REACTORS
330
12
102
}
330
12
100
AcDbXrecord
280
     1
270
     1
271
     1
  0
XRECORD
  5
24
102
{ACAD_REACTORS
330
22
102
}
330
22
100
AcDbXrecord
280
     1
270
     1
271
     1
  0
XRECORD
  5
23
102
{ACAD_REACTORS
330
22
102
}
330
22
100
AcDbXrecord
280
     1
270
     1
271
     1
  0
XRECORD
  5
27
102
{ACAD_REACTORS
330
22
102
}
330
22
100
AcDbXrecord
280
     1
270
     1
271
     1
  0
XRECORD
  5
26
102
{ACAD_REACTORS
330
22
102
}
330
22
100
AcDbXrecord
280
     1
270
     1
271
     1
  0
XRECORD
  5
28
102
{ACAD_REACTORS
330
22
102
}
330
22
100
AcDbXrecord
280
     1
270
     1
271
     1
  0
XRECORD
  5
25
102
{ACAD_REACTORS
330
22
102
}
330
22
100
AcDbXrecord
280
     1
270
     1
271
     1
  0
CELLSTYLEMAP
  5
277
102
{ACAD_REACTORS
330
276
102
}
330
276
100
AcDbCellStyleMap
 90
        3
300
CELLSTYLE
  1
TABLEFORMAT_BEGIN
 90
        5
170
     1
 91
        0
 92
    32768
 62
   257
 93
        1
300
CONTENTFORMAT
  1
CONTENTFORMAT_BEGIN
 90
        0
 91
        0
 92
      512
 93
        0
300

 40
0.0
140
1.0
 94
        5
 62
     0
340
55
144
0.25
309
CONTENTFORMAT_END
171
     0
 94
        0
309
TABLEFORMAT_END
  1
CELLSTYLE_BEGIN
 90
        1
 91
        1
300
_TITLE
309
CELLSTYLE_END
300
CELLSTYLE
  1
TABLEFORMAT_BEGIN
 90
        5
170
     1
 91
        0
 92
        0
 62
   257
 93
        1
300
CONTENTFORMAT
  1
CONTENTFORMAT_BEGIN
 90
        0
 91
        0
 92
      512
 93
        0
300

 40
0.0
140
1.0
 94
        5
 62
     0
340
55
144
0.18
309
CONTENTFORMAT_END
171
     0
 94
        0
309
TABLEFORMAT_END
  1
CELLSTYLE_BEGIN
 90
        2
 91
        1
300
_HEADER
309
CELLSTYLE_END
300
CELLSTYLE
  1
TABLEFORMAT_BEGIN
 90
        5
170
     1
 91
        0
 92
        0
 62
   257
 93
        1
300
CONTENTFORMAT
  1
CONTENTFORMAT_BEGIN
 90
        0
 91
        0
 92
      512
 93
        0
300

 40
0.0
140
1.0
 94
        2
 62
     0
340
55
144
0.18
309
CONTENTFORMAT_END
171
     0
 94
        0
309
TABLEFORMAT_END
  1
CELLSTYLE_BEGIN
 90
        3
 91
        2
300
_DATA
309
CELLSTYLE_END
  0
ENDSEC
  0
EOF
