  0
SECTION
  2
HEADER
  9
$ACADVER
  1
AC1009
  9
$INSBASE
 10
0
 20
0
 30
0
  9
$EXTMIN
 10
0
 20
0
  9
$EXTMAX
 10
1682
 20
1188
  9
$LIMMIN
 10
0
 20
0
  9
$LIMMAX
 10
1682
 20
1188
  9
$LTSCALE
 40
2
  0
ENDSEC
  0
SECTION
  2
TABLES
  0
TABLE
  2
LTYPE
 70
     9
  0
LTYPE
  2
CONTINUOUS
 70
    64
  3
実線
 72
    65
 73
     0
 40
0.0
  0
LTYPE
  2
DASHED1
 70
    64
  3
--  --  --  --  --  --  --  --  
 72
    65
 73
     2
 40
2.5
 49
1.25
 49
-1.25
  0
LTYPE
  2
DASHED2
 70
    64
  3
----    ----    ----    ----    
 72
    65
 73
     2
 40
5.0
 49
2.5
 49
-2.5
  0
LTYPE
  2
DASHED3
 70
    64
  3
------  ------  ------  ------  
 72
    65
 73
     2
 40
5.0
 49
3.75
 49
-1.25
  0
LTYPE
  2
CENTER1
 70
    64
  3
----- - ----- - ----- - ----- - 
 72
    65
 73
     4
 40
10.0
 49
6.25
 49
-1.25
 49
1.25
 49
-1.25
  0
LTYPE
  2
CENTER2
 70
    64
  3
----------  --  ----------  --  
 72
    65
 73
     4
 40
20.0
 49
12.5
 49
-2.5
 49
2.5
 49
-2.5
  0
LTYPE
  2
PHANTOM1
 70
    64
  3
--- - - --- - - --- - - --- - - 
 72
    65
 73
     6
 40
10.0
 49
3.25
 49
-1.25
 49
1.25
 49
-1.25
 49
1.25
 49
-1.25
  0
LTYPE
  2
PHANTOM2
 70
    64
  3
--------  -  -  --------  -  -  
 72
    65
 73
     6
 40
20.0
 49
10.0
 49
-2.5
 49
1.25
 49
-2.5
 49
1.25
 49
-2.5
  0
LTYPE
  2
DOT
 70
    64
  3
-   -   -   -   -   -   -   -   
 72
    65
 73
     2
 40
2.5
 49
0.625
 49
-1.875
  0
LTYPE
  2
DUMMY
 70
    64
  3
ダミー
 72
    65
 73
     0
 40
0.0
  0
LTYPE
  2
RAND1
 70
    64
  3
ランダム線1
 72
    65
 73
     4
 40
10.0
 49
1.0
 49
-2.0
 49
3.0
 49
-4.0
  0
LTYPE
  2
RAND2
 70
    64
  3
ランダム線2
 72
    65
 73
     4
 40
14.0
 49
2.0
 49
-3.0
 49
4.0
 49
-5.0
  0
LTYPE
  2
RAND3
 70
    64
  3
ランダム線3
 72
    65
 73
     4
 40
18.0
 49
3.0
 49
-4.0
 49
5.0
 49
-6.0
  0
LTYPE
  2
RAND4
 70
    64
  3
ランダム線4
 72
    65
 73
     4
 40
22.0
 49
4.0
 49
-5.0
 49
6.0
 49
-7.0
  0
LTYPE
  2
RAND5
 70
    64
  3
ランダム線5
 72
    65
 73
     4
 40
26.0
 49
5.0
 49
-6.0
 49
7.0
 49
-8.0
  0
LTYPE
  2
LONG1
 70
    64
  3
----------  --  ----------  --  
 72
    65
 73
     4
 40
40.0
 49
32.5
 49
-2.5
 49
2.5
 49
-2.5
  0
LTYPE
  2
LONG2
 70
    64
  3
--------  -  -  --------  -  -  
 72
    65
 73
     6
 40
40.0
 49
30.0
 49
-2.5
 49
1.25
 49
-2.5
 49
1.25
 49
-2.5
  0
LTYPE
  2
LONG3
 70
    64
  3
+++++++++++++++..+++++++++++++++
 72
    65
 73
     2
 40
40.0
 49
37.5
 49
-2.5
  0
LTYPE
  2
LONG4
 70
    64
  3
+++++++++++++++..+++++++++++++++
 72
    65
 73
     2
 40
80.0
 49
75.0
 49
-5.0
  0
LTYPE
  2
LONG5
 70
    64
  3
----------  --  ----------  --  
 72
    65
 73
     4
 40
60.0
 49
37.5
 49
-7.5
 49
7.5
 49
-7.5
  0
LTYPE
  2
dashed
 70
   64
  3
-------   -------------   ------
 72
   65
 73
    2
 40
7.5
 49
6
 49
-1.5
  0
LTYPE
  2
dashed_spaced
 70
   64
  3
----        --------        ----
 72
   65
 73
    2
 40
12
 49
6
 49
-6
  0
LTYPE
  2
long_dashed_dotted
 70
   64
  3
------------- --- --------------
 72
   65
 73
    4
 40
15.25
 49
12
 49
-1.5
 49
0.25
 49
-1.5
  0
LTYPE
  2
long_dashed_double-dotted
 70
   64
  3
----------- --- --- ------------
 72
   65
 73
    6
 40
17
 49
12
 49
-1.5
 49
0.25
 49
-1.5
 49
0.25
 49
-1.5
  0
LTYPE
  2
long_dashed_triplicate-dotted
 70
   64
  3
--------- --- --- --- ----------
 72
   65
 73
    8
 40
18.75
 49
12
 49
-1.5
 49
0.25
 49
-1.5
 49
0.25
 49
-1.5
 49
0.25
 49
-1.5
  0
LTYPE
  2
dotted
 70
   64
  3
   -       -       -       -    
 72
   65
 73
    2
 40
1.75
 49
0.25
 49
-1.5
  0
LTYPE
  2
chain
 70
   64
  3
-------------- -- --------------
 72
   65
 73
    4
 40
18.5
 49
12
 49
-1.5
 49
3.5
 49
-1.5
  0
LTYPE
  2
chain_double_dash
 70
   64
  3
------------ -- -- -------------
 72
   65
 73
    6
 40
23.5
 49
12
 49
-1.5
 49
3.5
 49
-1.5
 49
3.5
 49
-1.5
  0
LTYPE
  2
dashed_dotted
 70
   64
  3
-----------     -     ----------
 72
   65
 73
    4
 40
9.25
 49
6
 49
-1.5
 49
0.25
 49
-1.5
  0
LTYPE
  2
double-dashed_dotted
 70
   64
  3
------   -----------   -   -----
 72
   65
 73
    6
 40
16.75
 49
6
 49
-1.5
 49
6
 49
-1.5
 49
0.25
 49
-1.5
  0
LTYPE
  2
dashed_double-dotted
 70
   64
  3
---------    -    -    ---------
 72
   65
 73
    6
 40
11
 49
6
 49
-1.5
 49
0.25
 49
-1.5
 49
0.25
 49
-1.5
  0
LTYPE
  2
double-dashed_double-dotted
 70
   64
  3
-----   ---------   -   -   ----
 72
   65
 73
    8
 40
18.5
 49
6
 49
-1.5
 49
6
 49
-1.5
 49
0.25
 49
-1.5
 49
0.25
 49
-1.5
  0
LTYPE
  2
dashed_triplicate-dotted
 70
   64
  3
-------    -    -    -    ------
 72
   65
 73
    8
 40
12.75
 49
6
 49
-1.5
 49
0.25
 49
-1.5
 49
0.25
 49
-1.5
 49
0.25
 49
-1.5
  0
LTYPE
  2
double-dashed_triplicate-dotted
 70
   64
  3
-----  ---------  -  -  -  -----
 72
   65
 73
   10
 40
20.25
 49
6
 49
-1.5
 49
6
 49
-1.5
 49
0.25
 49
-1.5
 49
0.25
 49
-1.5
 49
0.25
 49
-1.5
  0
LTYPE
  2
undefined
 70
   64
  3
--------------------------------
 72
   65
 73
    0
 40
0
  0
LTYPE
  2
_
 70
   64
  3
                                
 72
   65
 73
    0
 40
0
  0
LTYPE
  2
__18
 70
   64
  3
                                
 72
   65
 73
    0
 40
0
  0
LTYPE
  2
__19
 70
   64
  3
                                
 72
   65
 73
    0
 40
0
  0
LTYPE
  2
__20
 70
   64
  3
                                
 72
   65
 73
    0
 40
0
  0
LTYPE
  2
__21
 70
   64
  3
                                
 72
   65
 73
    0
 40
0
  0
LTYPE
  2
__22
 70
   64
  3
                                
 72
   65
 73
    0
 40
0
  0
LTYPE
  2
__23
 70
   64
  3
                                
 72
   65
 73
    0
 40
0
  0
LTYPE
  2
__24
 70
   64
  3
                                
 72
   65
 73
    0
 40
0
  0
LTYPE
  2
__25
 70
   64
  3
                                
 72
   65
 73
    0
 40
0
  0
LTYPE
  2
__26
 70
   64
  3
                                
 72
   65
 73
    0
 40
0
  0
LTYPE
  2
__27
 70
   64
  3
                                
 72
   65
 73
    0
 40
0
  0
LTYPE
  2
__28
 70
   64
  3
                                
 72
   65
 73
    0
 40
0
  0
LTYPE
  2
__29
 70
   64
  3
                                
 72
   65
 73
    0
 40
0
  0
LTYPE
  2
__30
 70
   64
  3
                                
 72
   65
 73
    0
 40
0
  0
LTYPE
  2
__31
 70
   64
  3
                                
 72
   65
 73
    0
 40
0
  0
LTYPE
  2
__32
 70
   64
  3
                                
 72
   65
 73
    0
 40
0
  0
ENDTAB
  0
TABLE
  2
STYLE
  5
3
100
AcDbSymbolTable
 70
     1
  0
STYLE
  5
10
100
AcDbSymbolTableRecord
100
AcDbTextStyleTableRecord
  2
STANDARD
 70
     0
 40
0.0
 41
1.0
 50
0.0
 71
     0
 42
0.2
  3
txt
  4
bigfont.shx
  0
STYLE
  5
26
100
AcDbSymbolTableRecord
100
AcDbTextStyleTableRecord
  2
TATEGAKI
 70
    68
 40
0.0
 41
1.0
 50
0.0
 71
     0
 42
1.0
  3
txt
  4
bigfont.shx
  0
ENDTAB
  0
TABLE
  2
LAYER
 70
    3
  0
LAYER
  2
_0-0_
 70
   64
 62
    7
  6
CONTINUOUS
  0
LAYER
  2
_1-0_
 70
   64
 62
    7
  6
CONTINUOUS
  0
LAYER
  2
ADD_LINE
 70
   64
 62
    7
  6
CONTINUOUS
  0
ENDTAB
  0
ENDSEC
  0
SECTION
  2
BLOCKS
  0
ENDSEC
  0
SECTION
  2
ENTITIES
  0
TEXT
  8
_1-0_
 62
    7
 10
-175.7963501872731
 20
12.704226395133787
 40
15
 41
1
 50
0
  1
※本製品は吹きガラスによる一品生産品ですので、サイズ、彫刻（エングレビング）は同じ品番であっても多少の違いが生じます。また、製品の特性上小さな気泡が入る場合もございます。
  0
LINE
  8
_0-0_
  6
CONTINUOUS
 62
    4
 10
920.58124687279178
 20
1124.1000295069407
 11
920.58124687279178
 21
688.10002950694092
  0
LINE
  8
_0-0_
  6
CONTINUOUS
 62
    4
 10
920.58124687279178
 20
688.10002950694092
 11
1620.5812468727917
 21
688.10002950694092
  0
LINE
  8
_0-0_
  6
CONTINUOUS
 62
    4
 10
1620.5812468727917
 20
1124.1000295069407
 11
920.58124687279178
 21
1124.1000295069407
  0
LINE
  8
_0-0_
  6
CONTINUOUS
 62
    4
 10
1620.5812468727917
 20
688.10002950694092
 11
1620.5812468727917
 21
1124.1000295069407
  0
LINE
  8
_0-0_
  6
CONTINUOUS
 62
    7
 10
1227.0812468727913
 20
862.60002950694081
 11
1314.0812468727913
 21
862.60002950694081
  0
LINE
  8
_0-0_
  6
CONTINUOUS
 62
    7
 10
1314.0812468727913
 20
862.60002950694081
 11
1314.0812468727913
 21
949.6000295069407
  0
LINE
  8
_0-0_
  6
CONTINUOUS
 62
    7
 10
1314.0812468727913
 20
949.6000295069407
 11
1227.0812468727913
 21
949.6000295069407
  0
LINE
  8
_0-0_
  6
CONTINUOUS
 62
    7
 10
1227.0812468727913
 20
949.6000295069407
 11
1227.0812468727913
 21
862.60002950694081
  0
LINE
  8
_0-0_
  6
CONTINUOUS
 62
    4
 10
1314.0812468727913
 20
949.6000295069407
 11
1620.5812468727917
 21
1124.1000295069407
  0
LINE
  8
_0-0_
  6
CONTINUOUS
 62
    4
 10
1314.0812468727913
 20
862.60002950694081
 11
1620.5812468727917
 21
688.10002950694092
  0
LINE
  8
_0-0_
  6
CONTINUOUS
 62
    4
 10
1227.0812468727913
 20
862.60002950694081
 11
920.58124687279178
 21
688.10002950694092
  0
LINE
  8
_0-0_
  6
CONTINUOUS
 62
    4
 10
1227.0812468727913
 20
949.6000295069407
 11
920.58124687279178
 21
1124.1000295069407
  0
CIRCLE
  8
_0-0_
  6
CONTINUOUS
 62
    4
 10
1270.5812468727917
 20
906.10002950694047
 40
35
  0
CIRCLE
  8
_0-0_
  6
CONTINUOUS
 62
    4
 10
1270.5812468727917
 20
906.10002950694047
 40
23
  0
ARC
  8
_0-0_
  6
CONTINUOUS
 62
    7
 10
875.58124687279178
 20
1136.1000295069404
 40
5
 50
90
 51
180
  0
LINE
  8
_0-0_
  6
CONTINUOUS
 62
    7
 10
1665.5812468727917
 20
1141.1000295069404
 11
875.58124687279178
 21
1141.1000295069404
  0
ARC
  8
_0-0_
  6
CONTINUOUS
 62
    7
 10
1665.5812468727917
 20
1136.1000295069404
 40
5
 50
0
 51
90
  0
LINE
  8
_0-0_
  6
CONTINUOUS
 62
    7
 10
1670.5812468727917
 20
676.10002950694047
 11
1670.5812468727917
 21
1136.1000295069404
  0
ARC
  8
_0-0_
  6
CONTINUOUS
 62
    7
 10
1665.5812468727917
 20
676.10002950694047
 40
5
 50
270
 51
0
  0
LINE
  8
_0-0_
  6
CONTINUOUS
 62
    7
 10
870.58124687279178
 20
676.10002950694047
 11
870.58124687279178
 21
1136.1000295069404
  0
LINE
  8
_0-0_
  6
CONTINUOUS
 62
    7
 10
875.58124687279178
 20
671.10002950694047
 11
1665.5812468727917
 21
671.10002950694047
  0
ARC
  8
_0-0_
  6
CONTINUOUS
 62
    7
 10
875.58124687279178
 20
676.10002950694047
 40
5
 50
180
 51
270
  0
LINE
  8
_0-0_
  6
CONTINUOUS
 62
    4
 10
870.58124687279178
 20
1252.6428106467383
 11
1670.5812468727917
 21
1252.6428106467383
  0
LINE
  8
_0-0_
  6
CONTINUOUS
 62
    7
 10
870.58124687279178
 20
1252.6428106467383
 11
885.07013426712751
 21
1256.5250963232765
  0
LINE
  8
_0-0_
  6
CONTINUOUS
 62
    7
 10
870.58124687279178
 20
1252.6428106467383
 11
885.07013426712751
 21
1248.7605249702007
  0
LINE
  8
_0-0_
  6
CONTINUOUS
 62
    7
 10
1670.5812468727917
 20
1252.6428106467383
 11
1656.0923594784558
 21
1248.7605249702007
  0
LINE
  8
_0-0_
  6
CONTINUOUS
 62
    7
 10
1670.5812468727917
 20
1252.6428106467383
 11
1656.0923594784558
 21
1256.5250963232765
  0
TEXT
  8
_0-0_
 62
    7
 10
1258.0812468727917
 20
1255.1428106467383
 40
15
 41
1
 50
0
  1
800
  0
LINE
  8
_0-0_
  6
CONTINUOUS
 62
    4
 10
732.48337574818867
 20
1141.1000295069404
 11
732.48337574818867
 21
671.10002950694047
  0
LINE
  8
_0-0_
  6
CONTINUOUS
 62
    7
 10
732.48337574818867
 20
1141.1000295069404
 11
736.36566142472622
 21
1126.6111421126047
  0
LINE
  8
_0-0_
  6
CONTINUOUS
 62
    7
 10
732.48337574818867
 20
1141.1000295069404
 11
728.60109007165056
 21
1126.6111421126047
  0
LINE
  8
_0-0_
  6
CONTINUOUS
 62
    7
 10
732.48337574818867
 20
671.10002950694047
 11
728.60109007165056
 21
685.58891690127688
  0
LINE
  8
_0-0_
  6
CONTINUOUS
 62
    7
 10
732.48337574818867
 20
671.10002950694047
 11
736.36566142472622
 21
685.58891690127688
  0
TEXT
  8
_0-0_
 62
    7
 10
729.98337574818867
 20
893.60002950694047
 40
15
 41
1
 50
90
  1
470
  0
LINE
  8
_0-0_
  6
CONTINUOUS
 62
    4
 10
870.58124687279178
 20
1252.6428106467383
 11
870.58124687279178
 21
1155.8622398558193
  0
LINE
  8
_0-0_
  6
CONTINUOUS
 62
    4
 10
732.48337574818867
 20
1141.1000295069404
 11
853.5610179871619
 21
1141.1000295069404
  0
LINE
  8
_0-0_
  6
CONTINUOUS
 62
    4
 10
1670.5812468727917
 20
1252.6428106467383
 11
1670.5812468727917
 21
1155.8622398558193
  0
LINE
  8
_0-0_
  6
CONTINUOUS
 62
    4
 10
732.48337574818867
 20
671.10002950694047
 11
853.5610179871619
 21
671.10002950694047
  0
LINE
  8
_0-0_
  6
CONTINUOUS
 62
    7
 10
1502.5666889292015
 20
610.24358301308234
 11
1682.4061418799969
 21
610.24358301308234
  0
LINE
  8
_0-0_
  6
CONTINUOUS
 62
    7
 10
1682.4061418799969
 20
610.24358301308234
 11
1682.4061418799969
 21
579.28221199224901
  0
LINE
  8
_0-0_
  6
CONTINUOUS
 62
    7
 10
1682.4061418799969
 20
579.28221199224901
 11
1502.5666889292015
 21
579.28221199224901
  0
LINE
  8
_0-0_
  6
CONTINUOUS
 62
    7
 10
1502.5666889292015
 20
579.28221199224901
 11
1502.5666889292015
 21
610.24358301308234
  0
TEXT
  8
_0-0_
 62
    7
 10
-156.76442995114962
 20
1244.7466781796188
 40
30
 41
1
 50
0
  1
Rhapsody800シリーズ
  0
TEXT
  8
_0-0_
 62
    7
 10
-156.76442995114962
 20
1195.3716781796188
 40
20
 41
1
 50
0
  1
SC-WBR-8001 ELIZABETH
  0
TEXT
  8
_0-0_
 62
    7
 10
-156.76442995114962
 20
1162.8716781796188
 40
20
 41
1
 50
0
  1
SC-WBR-8002 GAIA
  0
TEXT
  8
_0-0_
 62
    7
 10
1636.8044206847
 20
100.52817319937184
 40
15
 41
1
 50
0
  1
PBO.24.9% クリスタル
  0
LINE
  8
_0-0_
  6
CONTINUOUS
 62
    7
 10
1502.5666889292015
 20
211.2459760419656
 11
1682.4061418799969
 21
211.2459760419656
  0
LINE
  8
_0-0_
  6
CONTINUOUS
 62
    7
 10
1682.4061418799969
 20
211.2459760419656
 11
1682.4061418799969
 21
180.28460502113284
  0
LINE
  8
_0-0_
  6
CONTINUOUS
 62
    7
 10
1502.5666889292015
 20
180.28460502113284
 11
1502.5666889292015
 21
211.2459760419656
  0
LINE
  8
_0-0_
  6
CONTINUOUS
 62
    7
 10
1682.4061418799969
 20
180.28460502113284
 11
1502.5666889292015
 21
180.28460502113284
  0
LINE
  8
_0-0_
  6
CONTINUOUS
 62
    7
 10
44.541231807542999
 20
382.8976728770416
 11
44.541231807542999
 21
370.89767287704171
  0
LINE
  8
_0-0_
  6
CONTINUOUS
 62
    7
 10
44.541231807542999
 20
370.89767287704171
 11
58.660914394140263
 21
370.89767287704171
  0
LINE
  8
_0-0_
  6
DASHED2
 62
    4
 10
307.54123180754254
 20
281.89767287704165
 11
307.54123180754254
 21
261.89767287704194
  0
LINE
  8
_0-0_
  6
CONTINUOUS
 62
    7
 10
244.54123180754299
 20
293.89767287704182
 11
256.54123180754288
 21
281.89767287704165
  0
LINE
  8
_0-0_
  6
CONTINUOUS
 62
    7
 10
314.54123180754299
 20
293.89767287704182
 11
302.54123180754254
 21
281.89767287704165
  0
LINE
  8
_0-0_
  6
CONTINUOUS
 62
    7
 10
236.25628832681547
 20
293.89767287704182
 11
322.82617528826995
 21
293.89767287704182
  0
LINE
  8
_0-0_
  6
CONTINUOUS
 62
    7
 10
61.541231807542885
 20
382.8976728770416
 11
236.25628832681547
 21
293.89767287704182
  0
LINE
  8
_0-0_
  6
CONTINUOUS
 62
    7
 10
514.54123180754299
 20
382.8976728770416
 11
514.54123180754299
 21
370.89767287704171
  0
LINE
  8
_0-0_
  6
CONTINUOUS
 62
    7
 10
514.54123180754299
 20
370.89767287704171
 11
500.42154922094573
 21
370.89767287704171
  0
LINE
  8
_0-0_
  6
CONTINUOUS
 62
    7
 10
497.54123180754254
 20
382.8976728770416
 11
322.82617528826995
 21
293.89767287704182
  0
LINE
  8
_0-0_
  6
CONTINUOUS
 62
    7
 10
44.541231807542999
 20
382.8976728770416
 11
514.54123180754299
 21
382.8976728770416
  0
LINE
  8
_0-0_
  6
CONTINUOUS
 62
    4
 10
189.54123180754299
 20
176.96274879939744
 11
369.54123180754299
 21
176.96274879939744
  0
LINE
  8
_0-0_
  6
CONTINUOUS
 62
    7
 10
189.54123180754299
 20
176.96274879939744
 11
204.03011920187884
 21
180.84503447593527
  0
LINE
  8
_0-0_
  6
CONTINUOUS
 62
    7
 10
189.54123180754299
 20
176.96274879939744
 11
204.03011920187884
 21
173.08046312285961
  0
LINE
  8
_0-0_
  6
CONTINUOUS
 62
    7
 10
369.54123180754299
 20
176.96274879939744
 11
355.05234441320658
 21
173.08046312285961
  0
LINE
  8
_0-0_
  6
CONTINUOUS
 62
    7
 10
369.54123180754299
 20
176.96274879939744
 11
355.05234441320658
 21
180.84503447593527
  0
LINE
  8
_0-0_
  6
CONTINUOUS
 62
    4
 10
189.54123180754299
 20
176.96274879939744
 11
189.54123180754299
 21
247.8985989216286
  0
LINE
  8
_0-0_
  6
CONTINUOUS
 62
    4
 10
369.54123180754299
 20
176.96274879939744
 11
369.54123180754299
 21
247.8985989216286
  0
TEXT
  8
_0-0_
 62
    7
 10
267.04123180754299
 20
179.46274879939744
 40
15
 41
1
 50
0
  1
180
  0
LINE
  8
_0-0_
  6
CONTINUOUS
 62
    4
 10
251.54123180754288
 20
210.28640935440415
 11
307.54123180754254
 21
210.28640935440415
  0
LINE
  8
_0-0_
  6
CONTINUOUS
 62
    7
 10
251.54123180754288
 20
210.28640935440415
 11
266.03011920187873
 21
214.16869503094198
  0
LINE
  8
_0-0_
  6
CONTINUOUS
 62
    7
 10
251.54123180754288
 20
210.28640935440415
 11
266.03011920187873
 21
206.40412367786632
  0
LINE
  8
_0-0_
  6
CONTINUOUS
 62
    7
 10
307.54123180754254
 20
210.28640935440415
 11
293.05234441320669
 21
206.40412367786632
  0
LINE
  8
_0-0_
  6
CONTINUOUS
 62
    7
 10
307.54123180754254
 20
210.28640935440415
 11
293.05234441320669
 21
214.16869503094198
  0
LINE
  8
_0-0_
  6
CONTINUOUS
 62
    4
 10
251.54123180754288
 20
210.28640935440415
 11
251.54123180754288
 21
247.8985989216286
  0
LINE
  8
_0-0_
  6
CONTINUOUS
 62
    4
 10
307.54123180754254
 20
210.28640935440415
 11
307.54123180754254
 21
247.8985989216286
  0
TEXT
  8
_0-0_
 62
    7
 10
271.41623180754299
 20
212.78640935440415
 40
15
 41
1
 50
0
  1
56
  0
LINE
  8
_0-0_
  6
CONTINUOUS
 62
    4
 10
256.54123180754288
 20
328.70405200137179
 11
302.54123180754254
 21
328.70405200137179
  0
LINE
  8
_0-0_
  6
CONTINUOUS
 62
    7
 10
256.54123180754288
 20
328.70405200137179
 11
271.03011920187873
 21
332.5863376779099
  0
LINE
  8
_0-0_
  6
CONTINUOUS
 62
    7
 10
256.54123180754288
 20
328.70405200137179
 11
271.03011920187873
 21
324.82176632483424
  0
LINE
  8
_0-0_
  6
CONTINUOUS
 62
    7
 10
302.54123180754254
 20
328.70405200137179
 11
288.05234441320669
 21
324.82176632483424
  0
LINE
  8
_0-0_
  6
CONTINUOUS
 62
    7
 10
302.54123180754254
 20
328.70405200137179
 11
288.05234441320669
 21
332.5863376779099
  0
TEXT
  8
_0-0_
 62
    7
 10
271.41623180754299
 20
331.20405200137179
 40
15
 41
1
 50
0
  1
46
  0
LINE
  8
_0-0_
  6
CONTINUOUS
 62
    4
 10
244.54123180754299
 20
354.37157979491553
 11
314.54123180754299
 21
354.37157979491553
  0
LINE
  8
_0-0_
  6
CONTINUOUS
 62
    7
 10
244.54123180754299
 20
354.37157979491553
 11
259.03011920187884
 21
358.25386547145308
  0
LINE
  8
_0-0_
  6
CONTINUOUS
 62
    7
 10
244.54123180754299
 20
354.37157979491553
 11
259.03011920187884
 21
350.48929411837741
  0
LINE
  8
_0-0_
  6
CONTINUOUS
 62
    7
 10
314.54123180754299
 20
354.37157979491553
 11
300.05234441320658
 21
350.48929411837741
  0
LINE
  8
_0-0_
  6
CONTINUOUS
 62
    7
 10
314.54123180754299
 20
354.37157979491553
 11
300.05234441320658
 21
358.25386547145308
  0
TEXT
  8
_0-0_
 62
    7
 10
271.41623180754299
 20
356.87157979491553
 40
15
 41
1
 50
0
  1
70
  0
LINE
  8
_0-0_
  6
CONTINUOUS
 62
    4
 10
314.54123180754299
 20
354.37157979491553
 11
314.54123180754299
 21
298.88082923173124
  0
LINE
  8
_0-0_
  6
CONTINUOUS
 62
    4
 10
302.54123180754254
 20
328.70405200137179
 11
302.54123180754254
 21
284.94702842952187
  0
LINE
  8
_0-0_
  6
CONTINUOUS
 62
    4
 10
256.54123180754288
 20
328.70405200137179
 11
256.54123180754288
 21
284.94702842952187
  0
LINE
  8
_0-0_
  6
DASHED2
 62
    4
 10
1298.5812468727917
 20
281.89767287704165
 11
1298.5812468727917
 21
261.89767287704194
  0
LINE
  8
_0-0_
  6
CONTINUOUS
 62
    7
 10
870.58124687279178
 20
382.8976728770416
 11
870.58124687279178
 21
370.89767287704171
  0
LINE
  8
_0-0_
  6
CONTINUOUS
 62
    7
 10
870.58124687279178
 20
382.8976728770416
 11
1670.5812468727917
 21
382.8976728770416
  0
LINE
  8
_0-0_
  6
CONTINUOUS
 62
    7
 10
1235.5812468727917
 20
293.89767287704182
 11
1247.5812468727915
 21
281.89767287704165
  0
LINE
  8
_0-0_
  6
CONTINUOUS
 62
    7
 10
1305.5812468727917
 20
293.89767287704182
 11
1293.5812468727917
 21
281.89767287704165
  0
LINE
  8
_0-0_
  6
CONTINUOUS
 62
    7
 10
1227.2963033920641
 20
293.89767287704182
 11
1313.8661903535191
 21
293.89767287704182
  0
LINE
  8
_0-0_
  6
CONTINUOUS
 62
    7
 10
1670.5812468727917
 20
382.8976728770416
 11
1670.5812468727917
 21
370.89767287704171
  0
LINE
  8
_0-0_
  6
CONTINUOUS
 62
    7
 10
1670.5812468727917
 20
382.8976728770416
 11
1670.5812468727917
 21
370.89767287704171
  0
LINE
  8
_0-0_
  6
CONTINUOUS
 62
    7
 10
920.58124687279178
 20
382.8976728770416
 11
1227.2963033920641
 21
293.89767287704182
  0
LINE
  8
_0-0_
  6
CONTINUOUS
 62
    7
 10
870.58124687279178
 20
370.89767287704171
 11
918.87539952853194
 21
370.89767287704171
  0
LINE
  8
_0-0_
  6
CONTINUOUS
 62
    7
 10
1670.5812468727917
 20
382.89767287704216
 11
1670.5812468727917
 21
370.89767287704171
  0
LINE
  8
_0-0_
  6
CONTINUOUS
 62
    7
 10
1670.5812468727917
 20
370.89767287704171
 11
1622.2870942170513
 21
370.89767287704171
  0
LINE
  8
_0-0_
  6
CONTINUOUS
 62
    7
 10
1620.5812468727917
 20
382.89767287704216
 11
1313.8661903535185
 21
293.89767287704182
  0
LINE
  8
_0-0_
  6
CONTINUOUS
 62
    4
 10
811.7407621490887
 20
370.89767287704171
 11
811.7407621490887
 21
345.89767287704171
  0
LINE
  8
_0-0_
  6
CONTINUOUS
 62
    4
 10
811.7407621490887
 20
382.8976728770416
 11
811.7407621490887
 21
407.8976728770416
  0
LINE
  8
_0-0_
  6
CONTINUOUS
 62
    4
 10
811.7407621490887
 20
370.89767287704171
 11
811.7407621490887
 21
382.8976728770416
  0
LINE
  8
_0-0_
  6
CONTINUOUS
 62
    7
 10
811.7407621490887
 20
370.89767287704171
 11
815.62304782562614
 21
356.40878548270529
  0
LINE
  8
_0-0_
  6
CONTINUOUS
 62
    7
 10
811.7407621490887
 20
370.89767287704171
 11
807.85847647255047
 21
356.40878548270529
  0
LINE
  8
_0-0_
  6
CONTINUOUS
 62
    7
 10
811.7407621490887
 20
382.8976728770416
 11
807.85847647255047
 21
397.38656027137744
  0
LINE
  8
_0-0_
  6
CONTINUOUS
 62
    7
 10
811.7407621490887
 20
382.8976728770416
 11
815.62304782562614
 21
397.38656027137744
  0
TEXT
  8
_0-0_
 62
    7
 10
809.2407621490887
 20
368.77267287704194
 40
15
 41
1
 50
90
  1
12
  0
LINE
  8
_0-0_
  6
CONTINUOUS
 62
    4
 10
811.7407621490887
 20
382.8976728770416
 11
853.5610179871619
 21
382.8976728770416
  0
LINE
  8
_0-0_
  6
CONTINUOUS
 62
    4
 10
811.7407621490887
 20
370.89767287704171
 11
853.5610179871619
 21
370.89767287704171
  0
LINE
  8
_0-0_
  6
CONTINUOUS
 62
    7
 10
918.87539952853194
 20
370.89767287704171
 11
1225.5904560478043
 21
281.89767287704165
  0
LINE
  8
_0-0_
  6
CONTINUOUS
 62
    4
 10
1768.2668682637236
 20
281.89767287704165
 11
1768.2668682637236
 21
382.89767287704216
  0
LINE
  8
_0-0_
  6
CONTINUOUS
 62
    7
 10
1768.2668682637236
 20
281.89767287704165
 11
1764.3845825871856
 21
296.38656027137778
  0
LINE
  8
_0-0_
  6
CONTINUOUS
 62
    7
 10
1768.2668682637236
 20
281.89767287704165
 11
1772.1491539402613
 21
296.38656027137778
  0
LINE
  8
_0-0_
  6
CONTINUOUS
 62
    7
 10
1768.2668682637236
 20
382.89767287704216
 11
1772.1491539402613
 21
368.40878548270575
  0
LINE
  8
_0-0_
  6
CONTINUOUS
 62
    7
 10
1768.2668682637236
 20
382.89767287704216
 11
1764.3845825871856
 21
368.40878548270575
  0
TEXT
  8
_0-0_
 62
    7
 10
1765.7668682637236
 20
319.89767287704148
 40
15
 41
1
 50
90
  1
101
  0
LINE
  8
_0-0_
  6
CONTINUOUS
 62
    4
 10
1768.2668682637236
 20
382.89767287704216
 11
1689.7257233439117
 21
382.89767287704216
  0
LINE
  8
_0-0_
  6
CONTINUOUS
 62
    4
 10
1768.2668682637236
 20
281.89767287704165
 11
1336.7637106319866
 21
281.89767287704165
  0
LINE
  8
_0-0_
  6
CONTINUOUS
 62
    4
 10
1825.9898783855128
 20
261.89767287704165
 11
1825.9898783855128
 21
382.89767287704216
  0
LINE
  8
_0-0_
  6
CONTINUOUS
 62
    7
 10
1825.9898783855128
 20
261.89767287704165
 11
1822.107592708975
 21
276.38656027137778
  0
LINE
  8
_0-0_
  6
CONTINUOUS
 62
    7
 10
1825.9898783855128
 20
261.89767287704165
 11
1829.8721640620508
 21
276.38656027137778
  0
LINE
  8
_0-0_
  6
CONTINUOUS
 62
    7
 10
1825.9898783855128
 20
382.89767287704216
 11
1829.8721640620508
 21
368.40878548270575
  0
LINE
  8
_0-0_
  6
CONTINUOUS
 62
    7
 10
1825.9898783855128
 20
382.89767287704216
 11
1822.107592708975
 21
368.40878548270575
  0
LINE
  8
_0-0_
  6
CONTINUOUS
 62
    4
 10
1825.9898783855128
 20
382.89767287704216
 11
1768.2668682637236
 21
382.89767287704216
  0
TEXT
  8
_0-0_
 62
    7
 10
1823.4898783855128
 20
309.89767287704148
 40
15
 41
1
 50
90
  1
121
  0
LINE
  8
_0-0_
  6
CONTINUOUS
 62
    4
 10
1825.9898783855128
 20
261.89767287704165
 11
1374.6148648102096
 21
261.89767287704165
  0
LINE
  8
_0-0_
  6
CONTINUOUS
 62
    4
 10
1180.5812468727917
 20
176.96274879939744
 11
1360.5812468727917
 21
176.96274879939744
  0
LINE
  8
_0-0_
  6
CONTINUOUS
 62
    7
 10
1180.5812468727917
 20
176.96274879939744
 11
1195.0701342671275
 21
180.84503447593527
  0
LINE
  8
_0-0_
  6
CONTINUOUS
 62
    7
 10
1180.5812468727917
 20
176.96274879939744
 11
1195.0701342671275
 21
173.08046312285961
  0
LINE
  8
_0-0_
  6
CONTINUOUS
 62
    7
 10
1360.5812468727917
 20
176.96274879939744
 11
1346.0923594784558
 21
173.08046312285961
  0
LINE
  8
_0-0_
  6
CONTINUOUS
 62
    7
 10
1360.5812468727917
 20
176.96274879939744
 11
1346.0923594784558
 21
180.84503447593527
  0
LINE
  8
_0-0_
  6
CONTINUOUS
 62
    4
 10
1180.5812468727917
 20
176.96274879939744
 11
1180.5812468727917
 21
247.8985989216286
  0
LINE
  8
_0-0_
  6
CONTINUOUS
 62
    4
 10
1360.5812468727917
 20
176.96274879939744
 11
1360.5812468727917
 21
247.8985989216286
  0
TEXT
  8
_0-0_
 62
    7
 10
1258.0812468727917
 20
179.46274879939744
 40
15
 41
1
 50
0
  1
180
  0
LINE
  8
_0-0_
  6
CONTINUOUS
 62
    4
 10
1242.5812468727915
 20
210.28640935440415
 11
1298.5812468727917
 21
210.28640935440415
  0
LINE
  8
_0-0_
  6
CONTINUOUS
 62
    7
 10
1242.5812468727915
 20
210.28640935440415
 11
1257.0701342671272
 21
214.16869503094198
  0
LINE
  8
_0-0_
  6
CONTINUOUS
 62
    7
 10
1242.5812468727915
 20
210.28640935440415
 11
1257.0701342671272
 21
206.40412367786632
  0
LINE
  8
_0-0_
  6
CONTINUOUS
 62
    7
 10
1298.5812468727917
 20
210.28640935440415
 11
1284.0923594784553
 21
206.40412367786632
  0
LINE
  8
_0-0_
  6
CONTINUOUS
 62
    7
 10
1298.5812468727917
 20
210.28640935440415
 11
1284.0923594784553
 21
214.16869503094198
  0
LINE
  8
_0-0_
  6
CONTINUOUS
 62
    4
 10
1242.5812468727915
 20
210.28640935440415
 11
1242.5812468727915
 21
247.8985989216286
  0
LINE
  8
_0-0_
  6
CONTINUOUS
 62
    4
 10
1298.5812468727917
 20
210.28640935440415
 11
1298.5812468727917
 21
247.8985989216286
  0
TEXT
  8
_0-0_
 62
    7
 10
1262.4562468727917
 20
212.78640935440415
 40
15
 41
1
 50
0
  1
56
  0
LINE
  8
_0-0_
  6
CONTINUOUS
 62
    4
 10
1247.5812468727915
 20
328.70405200137179
 11
1293.5812468727917
 21
328.70405200137179
  0
LINE
  8
_0-0_
  6
CONTINUOUS
 62
    7
 10
1247.5812468727915
 20
328.70405200137179
 11
1262.0701342671272
 21
332.5863376779099
  0
LINE
  8
_0-0_
  6
CONTINUOUS
 62
    7
 10
1247.5812468727915
 20
328.70405200137179
 11
1262.0701342671272
 21
324.82176632483424
  0
LINE
  8
_0-0_
  6
CONTINUOUS
 62
    7
 10
1293.5812468727917
 20
328.70405200137179
 11
1279.0923594784553
 21
324.82176632483424
  0
LINE
  8
_0-0_
  6
CONTINUOUS
 62
    7
 10
1293.5812468727917
 20
328.70405200137179
 11
1279.0923594784553
 21
332.5863376779099
  0
TEXT
  8
_0-0_
 62
    7
 10
1262.4562468727917
 20
331.20405200137179
 40
15
 41
1
 50
0
  1
46
  0
LINE
  8
_0-0_
  6
CONTINUOUS
 62
    4
 10
1235.5812468727917
 20
354.37157979491553
 11
1305.5812468727917
 21
354.37157979491553
  0
LINE
  8
_0-0_
  6
CONTINUOUS
 62
    7
 10
1235.5812468727917
 20
354.37157979491553
 11
1250.0701342671275
 21
358.25386547145308
  0
LINE
  8
_0-0_
  6
CONTINUOUS
 62
    7
 10
1235.5812468727917
 20
354.37157979491553
 11
1250.0701342671275
 21
350.48929411837741
  0
LINE
  8
_0-0_
  6
CONTINUOUS
 62
    7
 10
1305.5812468727917
 20
354.37157979491553
 11
1291.0923594784558
 21
350.48929411837741
  0
LINE
  8
_0-0_
  6
CONTINUOUS
 62
    7
 10
1305.5812468727917
 20
354.37157979491553
 11
1291.0923594784558
 21
358.25386547145308
  0
TEXT
  8
_0-0_
 62
    7
 10
1262.4562468727917
 20
356.87157979491553
 40
15
 41
1
 50
0
  1
70
  0
LINE
  8
_0-0_
  6
CONTINUOUS
 62
    4
 10
1247.5812468727915
 20
328.70405200137179
 11
1247.5812468727915
 21
284.94702842952187
  0
LINE
  8
_0-0_
  6
CONTINUOUS
 62
    4
 10
1293.5812468727917
 20
328.70405200137179
 11
1293.5812468727917
 21
284.94702842952187
  0
LINE
  8
_0-0_
  6
CONTINUOUS
 62
    4
 10
1305.5812468727917
 20
354.37157979491553
 11
1305.5812468727917
 21
298.88082923173124
  0
LINE
  8
_0-0_
  6
CONTINUOUS
 62
    4
 10
1235.5812468727917
 20
354.37157979491553
 11
1235.5812468727917
 21
298.88082923173124
  0
LINE
  8
_0-0_
  6
CONTINUOUS
 62
    4
 10
1097.2164917513553
 20
261.89767287704165
 11
1097.2164917513553
 21
236.89767287704165
  0
LINE
  8
_0-0_
  6
CONTINUOUS
 62
    4
 10
1097.2164917513553
 20
281.89767287704165
 11
1097.2164917513553
 21
306.89767287704194
  0
LINE
  8
_0-0_
  6
CONTINUOUS
 62
    4
 10
1097.2164917513553
 20
261.89767287704165
 11
1097.2164917513553
 21
281.89767287704165
  0
LINE
  8
_0-0_
  6
CONTINUOUS
 62
    7
 10
1097.2164917513553
 20
261.89767287704165
 11
1101.0987774278933
 21
247.4087854827058
  0
LINE
  8
_0-0_
  6
CONTINUOUS
 62
    7
 10
1097.2164917513553
 20
261.89767287704165
 11
1093.3342060748177
 21
247.4087854827058
  0
LINE
  8
_0-0_
  6
CONTINUOUS
 62
    7
 10
1097.2164917513553
 20
281.89767287704165
 11
1093.3342060748177
 21
296.38656027137778
  0
LINE
  8
_0-0_
  6
CONTINUOUS
 62
    7
 10
1097.2164917513553
 20
281.89767287704165
 11
1101.0987774278933
 21
296.38656027137778
  0
LINE
  8
_0-0_
  6
CONTINUOUS
 62
    4
 10
1097.2164917513553
 20
261.89767287704165
 11
1175.4413383602495
 21
261.89767287704165
  0
LINE
  8
_0-0_
  6
CONTINUOUS
 62
    4
 10
1097.2164917513553
 20
281.89767287704165
 11
1175.4413383602495
 21
281.89767287704165
  0
TEXT
  8
_0-0_
 62
    7
 10
1094.7164917513553
 20
263.77267287704165
 40
15
 41
1
 50
90
  1
20
  0
LINE
  8
_0-0_
  6
CONTINUOUS
 62
    7
 10
1622.2870942170513
 20
370.89767287704171
 11
1315.5720376977783
 21
281.89767287704165
  0
LINE
  8
_0-0_
  6
CONTINUOUS
 62
    7
 10
1670.5812468727917
 20
370.89767287704171
 11
1622.2870942170513
 21
370.89767287704171
  0
LINE
  8
_0-0_
  6
CONTINUOUS
 62
    4
 10
44.541231807542999
 20
437.34350275403096
 11
19.541231807542999
 21
437.34350275403096
  0
LINE
  8
_0-0_
  6
CONTINUOUS
 62
    4
 10
44.541231807542999
 20
437.34350275403096
 11
61.541231807542885
 21
437.34350275403096
  0
LINE
  8
_0-0_
  6
CONTINUOUS
 62
    7
 10
44.541231807542999
 20
437.34350275403096
 11
30.052344413206583
 21
433.46121707749284
  0
LINE
  8
_0-0_
  6
CONTINUOUS
 62
    7
 10
44.541231807542999
 20
437.34350275403096
 11
30.052344413206583
 21
441.22578843056908
  0
LINE
  8
_0-0_
  6
CONTINUOUS
 62
    4
 10
44.541231807542999
 20
437.34350275403096
 11
44.541231807542999
 21
398.57887780583746
  0
LINE
  8
_0-0_
  6
CONTINUOUS
 62
    4
 10
61.541231807542885
 20
437.34350275403096
 11
61.541231807542885
 21
398.57887780583746
  0
TEXT
  8
_0-0_
 62
    7
 10
44.916231807542658
 20
439.84350275403096
 40
15
 41
1
 50
0
  1
17
  0
LINE
  8
_0-0_
  6
CONTINUOUS
 62
    7
 10
44.541231807542999
 20
503.28970954925603
 11
59.030119201878846
 21
507.17199522579414
  0
LINE
  8
_0-0_
  6
CONTINUOUS
 62
    7
 10
44.541231807542999
 20
503.28970954925603
 11
59.030119201878846
 21
499.40742387271848
  0
LINE
  8
_0-0_
  6
CONTINUOUS
 62
    4
 10
44.541231807542999
 20
503.28970954925603
 11
44.541231807542999
 21
398.57887780583746
  0
LINE
  8
_0-0_
  6
CONTINUOUS
 62
    4
 10
61.541231807542885
 20
437.34350275403096
 11
86.541231807542885
 21
437.34350275403096
  0
LINE
  8
_0-0_
  6
CONTINUOUS
 62
    7
 10
61.541231807542885
 20
437.34350275403096
 11
76.030119201878733
 21
441.22578843056908
  0
LINE
  8
_0-0_
  6
CONTINUOUS
 62
    7
 10
61.541231807542885
 20
437.34350275403096
 11
76.030119201878733
 21
433.46121707749284
  0
LINE
  8
_0-0_
  6
CONTINUOUS
 62
    4
 10
44.541231807542999
 20
503.28970954925603
 11
514.54123180754243
 21
503.28970954925603
  0
LINE
  8
_0-0_
  6
CONTINUOUS
 62
    7
 10
514.54123180754243
 20
503.28970954925603
 11
500.05234441320658
 21
499.40742387271848
  0
LINE
  8
_0-0_
  6
CONTINUOUS
 62
    7
 10
514.54123180754243
 20
503.28970954925603
 11
500.05234441320658
 21
507.17199522579414
  0
LINE
  8
_0-0_
  6
CONTINUOUS
 62
    4
 10
514.54123180754243
 20
503.28970954925603
 11
514.54123180754243
 21
398.57887780583746
  0
TEXT
  8
_0-0_
 62
    7
 10
267.04123180754243
 20
505.78970954925603
 40
15
 41
1
 50
0
  1
470
  0
LINE
  8
_0-0_
  6
CONTINUOUS
 62
    4
 10
870.58124687279178
 20
437.34350275403096
 11
920.58124687279178
 21
437.34350275403096
  0
LINE
  8
_0-0_
  6
CONTINUOUS
 62
    7
 10
870.58124687279178
 20
437.34350275403096
 11
885.07013426712751
 21
441.22578843056908
  0
LINE
  8
_0-0_
  6
CONTINUOUS
 62
    7
 10
870.58124687279178
 20
437.34350275403096
 11
885.07013426712751
 21
433.46121707749284
  0
LINE
  8
_0-0_
  6
CONTINUOUS
 62
    7
 10
920.58124687279178
 20
437.34350275403096
 11
906.09235947845581
 21
433.46121707749284
  0
LINE
  8
_0-0_
  6
CONTINUOUS
 62
    7
 10
920.58124687279178
 20
437.34350275403096
 11
906.09235947845581
 21
441.22578843056908
  0
TEXT
  8
_0-0_
 62
    7
 10
887.45624687279178
 20
439.84350275403096
 40
15
 41
1
 50
0
  1
50
  0
LINE
  8
_0-0_
  6
CONTINUOUS
 62
    4
 10
870.58124687279178
 20
503.28970954925603
 11
1670.5812468727917
 21
503.28970954925603
  0
LINE
  8
_0-0_
  6
CONTINUOUS
 62
    7
 10
870.58124687279178
 20
503.28970954925603
 11
885.07013426712751
 21
507.17199522579414
  0
LINE
  8
_0-0_
  6
CONTINUOUS
 62
    7
 10
870.58124687279178
 20
503.28970954925603
 11
885.07013426712751
 21
499.40742387271848
  0
LINE
  8
_0-0_
  6
CONTINUOUS
 62
    7
 10
1670.5812468727917
 20
503.28970954925603
 11
1656.0923594784558
 21
499.40742387271848
  0
LINE
  8
_0-0_
  6
CONTINUOUS
 62
    7
 10
1670.5812468727917
 20
503.28970954925603
 11
1656.0923594784558
 21
507.17199522579414
  0
LINE
  8
_0-0_
  6
CONTINUOUS
 62
    4
 10
870.58124687279178
 20
503.28970954925603
 11
870.58124687279178
 21
437.34350275403096
  0
TEXT
  8
_0-0_
 62
    7
 10
1258.0812468727917
 20
505.78970954925603
 40
15
 41
1
 50
0
  1
800
  0
LINE
  8
_0-0_
  6
CONTINUOUS
 62
    4
 10
870.58124687279178
 20
437.34350275403096
 11
870.58124687279178
 21
398.57887780583746
  0
LINE
  8
_0-0_
  6
CONTINUOUS
 62
    4
 10
1670.5812468727917
 20
503.28970954925603
 11
1670.5812468727917
 21
398.57887780583746
  0
LINE
  8
_0-0_
  6
CONTINUOUS
 62
    4
 10
920.58124687279178
 20
437.34350275403096
 11
920.58124687279178
 21
398.57887780583746
  0
LINE
  8
_0-0_
  6
CONTINUOUS
 62
    7
 10
229.84123180754272
 20
261.89767287704165
 11
226.74123180754327
 21
261.89767287704165
  0
LINE
  8
_0-0_
  6
CONTINUOUS
 62
    7
 10
226.74123180754327
 20
261.89767287704165
 11
226.74123180754327
 21
264.99767287704167
  0
LINE
  8
_0-0_
  6
CONTINUOUS
 62
    7
 10
226.74123180754327
 20
264.99767287704167
 11
229.84123180754272
 21
264.99767287704167
  0
LINE
  8
_0-0_
  6
CONTINUOUS
 62
    7
 10
229.84123180754272
 20
264.99767287704167
 11
229.84123180754272
 21
261.89767287704165
  0
SOLID
  8
_0-0_
  6
CONTINUOUS
 62
    4
 10
226.74123180754327
 20
264.99767287704167
 11
226.74123180754327
 21
261.89767287704165
 12
229.84123180754272
 22
264.99767287704167
 13
229.84123180754272
 23
261.89767287704165
  0
LINE
  8
_0-0_
  6
CONTINUOUS
 62
    7
 10
329.24123180754327
 20
261.89767287704165
 11
332.34123180754272
 21
261.89767287704165
  0
LINE
  8
_0-0_
  6
CONTINUOUS
 62
    7
 10
332.34123180754272
 20
261.89767287704165
 11
332.34123180754272
 21
264.99767287704167
  0
LINE
  8
_0-0_
  6
CONTINUOUS
 62
    7
 10
332.34123180754272
 20
264.99767287704167
 11
329.24123180754327
 21
264.99767287704167
  0
LINE
  8
_0-0_
  6
CONTINUOUS
 62
    7
 10
329.24123180754327
 20
264.99767287704167
 11
329.24123180754327
 21
261.89767287704165
  0
SOLID
  8
_0-0_
  6
CONTINUOUS
 62
    4
 10
332.34123180754272
 20
264.99767287704167
 11
332.34123180754272
 21
261.89767287704165
 12
329.24123180754327
 22
264.99767287704167
 13
329.24123180754327
 23
261.89767287704165
  0
LINE
  8
_0-0_
  6
CONTINUOUS
 62
    7
 10
1220.8812468727915
 20
261.89767287704165
 11
1217.781246872792
 21
261.89767287704165
  0
LINE
  8
_0-0_
  6
CONTINUOUS
 62
    7
 10
1217.781246872792
 20
261.89767287704165
 11
1217.781246872792
 21
264.99767287704167
  0
LINE
  8
_0-0_
  6
CONTINUOUS
 62
    7
 10
1217.781246872792
 20
264.99767287704167
 11
1220.8812468727915
 21
264.99767287704167
  0
LINE
  8
_0-0_
  6
CONTINUOUS
 62
    7
 10
1220.8812468727915
 20
264.99767287704167
 11
1220.8812468727915
 21
261.89767287704165
  0
SOLID
  8
_0-0_
  6
CONTINUOUS
 62
    4
 10
1217.781246872792
 20
264.99767287704167
 11
1217.781246872792
 21
261.89767287704165
 12
1220.8812468727915
 22
264.99767287704167
 13
1220.8812468727915
 23
261.89767287704165
  0
LINE
  8
_0-0_
  6
CONTINUOUS
 62
    7
 10
1320.281246872792
 20
261.89767287704165
 11
1323.3812468727915
 21
261.89767287704165
  0
LINE
  8
_0-0_
  6
CONTINUOUS
 62
    7
 10
1323.3812468727915
 20
261.89767287704165
 11
1323.3812468727915
 21
264.99767287704167
  0
LINE
  8
_0-0_
  6
CONTINUOUS
 62
    7
 10
1323.3812468727915
 20
264.99767287704167
 11
1320.281246872792
 21
264.99767287704167
  0
LINE
  8
_0-0_
  6
CONTINUOUS
 62
    7
 10
1320.281246872792
 20
264.99767287704167
 11
1320.281246872792
 21
261.89767287704165
  0
SOLID
  8
_0-0_
  6
CONTINUOUS
 62
    4
 10
1323.3812468727915
 20
264.99767287704167
 11
1323.3812468727915
 21
261.89767287704165
 12
1320.281246872792
 22
264.99767287704167
 13
1320.281246872792
 23
261.89767287704165
  0
LINE
  8
_0-0_
  6
CONTINUOUS
 62
    7
 10
58.660914394140263
 20
370.89767287704171
 11
233.37597091341285
 21
281.89767287704165
  0
LINE
  8
_0-0_
  6
CONTINUOUS
 62
    7
 10
500.42154922094573
 20
370.89767287704171
 11
325.70649270167257
 21
281.89767287704165
  0
LINE
  8
_0-0_
  6
CONTINUOUS
 62
    3
 10
1180.5812468727917
 20
261.89767287704165
 11
1360.5812468727917
 21
261.89767287704165
  0
ARC
  8
_0-0_
  6
CONTINUOUS
 62
    3
 10
1350.5812468727917
 20
261.89767287704165
 40
10
 50
0.0000000000004071
 51
90
  0
LINE
  8
_0-0_
  6
CONTINUOUS
 62
    3
 10
1325.5812468727917
 20
271.89767287704165
 11
1350.5812468727917
 21
271.89767287704165
  0
ARC
  8
_0-0_
  6
CONTINUOUS
 62
    3
 10
1325.5812468727917
 20
278.89767287704182
 40
7
 50
180
 51
270
  0
LINE
  8
_0-0_
  6
CONTINUOUS
 62
    3
 10
1318.5812468727917
 20
278.89767287704182
 11
1318.5812468727917
 21
281.89767287704165
  0
LINE
  8
_0-0_
  6
CONTINUOUS
 62
    3
 10
1222.5812468727915
 20
281.89767287704165
 11
1318.5812468727917
 21
281.89767287704165
  0
LINE
  8
_0-0_
  6
CONTINUOUS
 62
    3
 10
1222.5812468727915
 20
278.89767287704182
 11
1222.5812468727915
 21
281.89767287704165
  0
ARC
  8
_0-0_
  6
CONTINUOUS
 62
    3
 10
1215.5812468727917
 20
278.89767287704182
 40
7
 50
270
 51
0
  0
LINE
  8
_0-0_
  6
CONTINUOUS
 62
    3
 10
1215.5812468727917
 20
271.89767287704165
 11
1190.5812468727917
 21
271.89767287704165
  0
ARC
  8
_0-0_
  6
CONTINUOUS
 62
    3
 10
1190.5812468727917
 20
261.89767287704165
 40
10
 50
90
 51
180
  0
LINE
  8
_0-0_
  6
CONTINUOUS
 62
    3
 10
231.54123180754288
 20
281.89767287704165
 11
327.54123180754254
 21
281.89767287704165
  0
LINE
  8
_0-0_
  6
CONTINUOUS
 62
    3
 10
327.54123180754254
 20
278.89767287704182
 11
327.54123180754254
 21
281.89767287704165
  0
ARC
  8
_0-0_
  6
CONTINUOUS
 62
    3
 10
334.54123180754299
 20
278.89767287704182
 40
7
 50
180
 51
270
  0
LINE
  8
_0-0_
  6
CONTINUOUS
 62
    3
 10
334.54123180754299
 20
271.89767287704165
 11
359.54123180754299
 21
271.89767287704165
  0
ARC
  8
_0-0_
  6
CONTINUOUS
 62
    3
 10
359.54123180754299
 20
261.89767287704165
 40
10
 50
0.0000000000004071
 51
90
  0
LINE
  8
_0-0_
  6
CONTINUOUS
 62
    3
 10
189.54123180754299
 20
261.89767287704165
 11
369.54123180754299
 21
261.89767287704165
  0
ARC
  8
_0-0_
  6
CONTINUOUS
 62
    3
 10
199.54123180754299
 20
261.89767287704165
 40
10
 50
90
 51
180
  0
LINE
  8
_0-0_
  6
CONTINUOUS
 62
    3
 10
224.54123180754299
 20
271.89767287704165
 11
199.54123180754299
 21
271.89767287704165
  0
ARC
  8
_0-0_
  6
CONTINUOUS
 62
    3
 10
224.54123180754299
 20
278.89767287704182
 40
7
 50
270
 51
0
  0
LINE
  8
_0-0_
  6
CONTINUOUS
 62
    3
 10
231.54123180754288
 20
278.89767287704182
 11
231.54123180754288
 21
281.89767287704165
  0
LINE
  8
_0-0_
  6
DASHED2
 62
    7
 10
251.54123180754288
 20
281.89767287704165
 11
251.54123180754288
 21
261.89767287704194
  0
LINE
  8
_0-0_
  6
DASHED2
 62
    7
 10
307.54123180754254
 20
281.89767287704165
 11
307.54123180754254
 21
261.89767287704165
  0
LINE
  8
_0-0_
  6
DASHED2
 62
    7
 10
1242.5812468727915
 20
281.89767287704165
 11
1242.5812468727915
 21
261.89767287704194
  0
LINE
  8
_0-0_
  6
DASHED2
 62
    7
 10
1298.5812468727917
 20
281.89767287704165
 11
1298.5812468727917
 21
261.89767287704165
  0
TEXT
  8
_0-0_
 62
    7
 10
633.8375416426843
 20
172.72340033059714
 40
15
 41
1
 50
0
  1
マウンティングディスク（セット済）
  0
LINE
  8
_0-0_
  6
CONTINUOUS
 62
    4
 10
359.86673209314892
 20
265.9598710773414
 11
624.91881938905214
 21
184.67163609313297
  0
LINE
  8
_0-0_
  6
CONTINUOUS
 62
    4
 10
924.97376758171094
 20
185.14064035662835
 11
1192.6257991420138
 21
264.41040580131721
  0
TEXT
  8
_0-0_
 62
    7
 10
1636.8044206847
 20
74.301790259265317
 40
15
 41
1
 50
0
  1
重量　17ｋｇ
  0
TEXT
  8
_0-0_
 62
    7
 10
1519.9864154045994
 20
185.76529053154916
 40
20
 41
1
 50
0
  1
側面図　S=1/2
  0
TEXT
  8
_0-0_
 62
    7
 10
1519.9864154045994
 20
584.76289750266596
 40
20
 41
1
 50
0
  1
上面図　S=1/2
  0
LINE
  8
_0-0_
  6
CONTINUOUS
 62
    4
 10
244.54123180754299
 20
354.37157979491553
 11
244.54123180754299
 21
298.88082923173124
  0
ENDSEC
  0
EOF
