  0
SECTION
  2
HEADER
  9
$ACADVER
  1
AC1032
  9
$ACADMAINTVER
 90
      197
  9
$DWGCODEPAGE
  3
ANSI_932
  9
$REQUIREDVERSIONS
160
                 0
  9
$INSBASE
 10
0.0
 20
0.0
 30
0.0
  9
$EXTMIN
 10
1.000000000000000E+20
 20
1.000000000000000E+20
 30
1.000000000000000E+20
  9
$EXTMAX
 10
-1.000000000000000E+20
 20
-1.000000000000000E+20
 30
-1.000000000000000E+20
  9
$LIMMIN
 10
0.0
 20
0.0
  9
$LIMMAX
 10
12.0
 20
9.0
  9
$ORTHOMODE
 70
     0
  9
$REGENMODE
 70
     1
  9
$FILLMODE
 70
     1
  9
$QTEXTMODE
 70
     0
  9
$MIRRTEXT
 70
     0
  9
$LTSCALE
 40
1.0
  9
$ATTMODE
 70
     1
  9
$TEXTSIZE
 40
0.2
  9
$TRACEWID
 40
0.05
  9
$TEXTSTYLE
  7
Standard
  9
$CLAYER
  8
0
  9
$CELTYPE
  6
ByLayer
  9
$CECOLOR
 62
   256
  9
$CELTSCALE
 40
1.0
  9
$DISPSILH
 70
     0
  9
$DIMSCALE
 40
1.0
  9
$DIMASZ
 40
0.18
  9
$DIMEXO
 40
0.0625
  9
$DIMDLI
 40
0.38
  9
$DIMRND
 40
0.0
  9
$DIMDLE
 40
0.0
  9
$DIMEXE
 40
0.18
  9
$DIMTP
 40
0.0
  9
$DIMTM
 40
0.0
  9
$DIMTXT
 40
0.18
  9
$DIMCEN
 40
0.09
  9
$DIMTSZ
 40
0.0
  9
$DIMTOL
 70
     0
  9
$DIMLIM
 70
     0
  9
$DIMTIH
 70
     1
  9
$DIMTOH
 70
     1
  9
$DIMSE1
 70
     0
  9
$DIMSE2
 70
     0
  9
$DIMTAD
 70
     0
  9
$DIMZIN
 70
     0
  9
$DIMBLK
  1

  9
$DIMASO
 70
     1
  9
$DIMSHO
 70
     1
  9
$DIMPOST
  1

  9
$DIMAPOST
  1

  9
$DIMALT
 70
     0
  9
$DIMALTD
 70
     2
  9
$DIMALTF
 40
25.4
  9
$DIMLFAC
 40
1.0
  9
$DIMTOFL
 70
     0
  9
$DIMTVP
 40
0.0
  9
$DIMTIX
 70
     0
  9
$DIMSOXD
 70
     0
  9
$DIMSAH
 70
     0
  9
$DIMBLK1
  1

  9
$DIMBLK2
  1

  9
$DIMSTYLE
  2
Standard
  9
$DIMCLRD
 70
     0
  9
$DIMCLRE
 70
     0
  9
$DIMCLRT
 70
     0
  9
$DIMTFAC
 40
1.0
  9
$DIMGAP
 40
0.09
  9
$DIMJUST
 70
     0
  9
$DIMSD1
 70
     0
  9
$DIMSD2
 70
     0
  9
$DIMTOLJ
 70
     1
  9
$DIMTZIN
 70
     0
  9
$DIMALTZ
 70
     0
  9
$DIMALTTZ
 70
     0
  9
$DIMUPT
 70
     0
  9
$DIMDEC
 70
     4
  9
$DIMTDEC
 70
     4
  9
$DIMALTU
 70
     2
  9
$DIMALTTD
 70
     2
  9
$DIMTXSTY
  7
Standard
  9
$DIMAUNIT
 70
     0
  9
$DIMADEC
 70
     0
  9
$DIMALTRND
 40
0.0
  9
$DIMAZIN
 70
     0
  9
$DIMDSEP
 70
    46
  9
$DIMATFIT
 70
     3
  9
$DIMFRAC
 70
     0
  9
$DIMLDRBLK
  1

  9
$DIMLUNIT
 70
     2
  9
$DIMLWD
 70
    -2
  9
$DIMLWE
 70
    -2
  9
$DIMTMOVE
 70
     0
  9
$DIMFXL
 40
1.0
  9
$DIMFXLON
 70
     0
  9
$DIMJOGANG
 40
0.7853981633974483
  9
$DIMTFILL
 70
     0
  9
$DIMTFILLCLR
 70
     0
  9
$DIMARCSYM
 70
     0
  9
$DIMLTYPE
  6

  9
$DIMLTEX1
  6

  9
$DIMLTEX2
  6

  9
$DIMTXTDIRECTION
 70
     0
  9
$LUNITS
 70
     2
  9
$LUPREC
 70
     4
  9
$SKETCHINC
 40
0.1
  9
$FILLETRAD
 40
0.0
  9
$AUNITS
 70
     0
  9
$AUPREC
 70
     0
  9
$MENU
  1
.
  9
$ELEVATION
 40
0.0
  9
$PELEVATION
 40
0.0
  9
$THICKNESS
 40
0.0
  9
$LIMCHECK
 70
     0
  9
$CHAMFERA
 40
0.0
  9
$CHAMFERB
 40
0.0
  9
$CHAMFERC
 40
0.0
  9
$CHAMFERD
 40
0.0
  9
$SKPOLY
 70
     0
  9
$TDCREATE
 40
2459672.359733796
  9
$TDUCREATE
 40
2459671.984733796
  9
$TDUPDATE
 40
2459672.359733796
  9
$TDUUPDATE
 40
2459671.984733796
  9
$TDINDWG
 40
0.0000000000
  9
$TDUSRTIMER
 40
0.0000000000
  9
$USRTIMER
 70
     1
  9
$ANGBASE
 50
0.0
  9
$ANGDIR
 70
     0
  9
$PDMODE
 70
     0
  9
$PDSIZE
 40
0.0
  9
$PLINEWID
 40
0.0
  9
$SPLFRAME
 70
     0
  9
$SPLINETYPE
 70
     6
  9
$SPLINESEGS
 70
     8
  9
$HANDSEED
  5
2C0
  9
$SURFTAB1
 70
     6
  9
$SURFTAB2
 70
     6
  9
$SURFTYPE
 70
     6
  9
$SURFU
 70
     6
  9
$SURFV
 70
     6
  9
$UCSBASE
  2

  9
$UCSNAME
  2

  9
$UCSORG
 10
0.0
 20
0.0
 30
0.0
  9
$UCSXDIR
 10
1.0
 20
0.0
 30
0.0
  9
$UCSYDIR
 10
0.0
 20
1.0
 30
0.0
  9
$UCSORTHOREF
  2

  9
$UCSORTHOVIEW
 70
     0
  9
$UCSORGTOP
 10
0.0
 20
0.0
 30
0.0
  9
$UCSORGBOTTOM
 10
0.0
 20
0.0
 30
0.0
  9
$UCSORGLEFT
 10
0.0
 20
0.0
 30
0.0
  9
$UCSORGRIGHT
 10
0.0
 20
0.0
 30
0.0
  9
$UCSORGFRONT
 10
0.0
 20
0.0
 30
0.0
  9
$UCSORGBACK
 10
0.0
 20
0.0
 30
0.0
  9
$PUCSBASE
  2

  9
$PUCSNAME
  2

  9
$PUCSORG
 10
0.0
 20
0.0
 30
0.0
  9
$PUCSXDIR
 10
1.0
 20
0.0
 30
0.0
  9
$PUCSYDIR
 10
0.0
 20
1.0
 30
0.0
  9
$PUCSORTHOREF
  2

  9
$PUCSORTHOVIEW
 70
     0
  9
$PUCSORGTOP
 10
0.0
 20
0.0
 30
0.0
  9
$PUCSORGBOTTOM
 10
0.0
 20
0.0
 30
0.0
  9
$PUCSORGLEFT
 10
0.0
 20
0.0
 30
0.0
  9
$PUCSORGRIGHT
 10
0.0
 20
0.0
 30
0.0
  9
$PUCSORGFRONT
 10
0.0
 20
0.0
 30
0.0
  9
$PUCSORGBACK
 10
0.0
 20
0.0
 30
0.0
  9
$USERI1
 70
     0
  9
$USERI2
 70
     0
  9
$USERI3
 70
     0
  9
$USERI4
 70
     0
  9
$USERI5
 70
     0
  9
$USERR1
 40
0.0
  9
$USERR2
 40
0.0
  9
$USERR3
 40
0.0
  9
$USERR4
 40
0.0
  9
$USERR5
 40
0.0
  9
$WORLDVIEW
 70
     1
  9
$SHADEDGE
 70
     3
  9
$SHADEDIF
 70
    70
  9
$TILEMODE
 70
     1
  9
$MAXACTVP
 70
    64
  9
$PINSBASE
 10
0.0
 20
0.0
 30
0.0
  9
$PLIMCHECK
 70
     0
  9
$PEXTMIN
 10
1.000000000000000E+20
 20
1.000000000000000E+20
 30
1.000000000000000E+20
  9
$PEXTMAX
 10
-1.000000000000000E+20
 20
-1.000000000000000E+20
 30
-1.000000000000000E+20
  9
$PLIMMIN
 10
0.0
 20
0.0
  9
$PLIMMAX
 10
12.0
 20
9.0
  9
$UNITMODE
 70
     0
  9
$VISRETAIN
 70
     1
  9
$PLINEGEN
 70
     0
  9
$PSLTSCALE
 70
     1
  9
$TREEDEPTH
 70
  3020
  9
$CMLSTYLE
  2
Standard
  9
$CMLJUST
 70
     0
  9
$CMLSCALE
 40
1.0
  9
$PROXYGRAPHICS
 70
     1
  9
$MEASUREMENT
 70
     0
  9
$CELWEIGHT
370
    -1
  9
$ENDCAPS
280
     0
  9
$JOINSTYLE
280
     0
  9
$LWDISPLAY
290
     1
  9
$INSUNITS
 70
     4
  9
$HYPERLINKBASE
  1

  9
$STYLESHEET
  1

  9
$XEDIT
290
     1
  9
$CEPSNTYPE
380
     0
  9
$PSTYLEMODE
290
     1
  9
$FINGERPRINTGUID
  2
{B450C3FD-CBF9-7243-826C-01E9DB4DC785}
  9
$VERSIONGUID
  2
{D29E8AC8-9E51-9D49-951A-8BD79A6EADB1}
  9
$EXTNAMES
290
     1
  9
$PSVPSCALE
 40
0.0
  9
$OLESTARTUP
290
     0
  9
$SORTENTS
280
   127
  9
$INDEXCTL
280
     0
  9
$HIDETEXT
280
     1
  9
$XCLIPFRAME
280
     2
  9
$HALOGAP
280
     0
  9
$OBSCOLOR
 70
   257
  9
$OBSLTYPE
280
     0
  9
$INTERSECTIONDISPLAY
280
     0
  9
$INTERSECTIONCOLOR
 70
   257
  9
$DIMASSOC
280
     2
  9
$PROJECTNAME
  1

  9
$CAMERADISPLAY
290
     0
  9
$LENSLENGTH
 40
50.0
  9
$CAMERAHEIGHT
 40
0.0
  9
$STEPSPERSEC
 40
2.0
  9
$STEPSIZE
 40
6.0
  9
$3DDWFPREC
 40
2.0
  9
$PSOLWIDTH
 40
0.25
  9
$PSOLHEIGHT
 40
4.0
  9
$LOFTANG1
 40
1.570796326794896
  9
$LOFTANG2
 40
1.570796326794896
  9
$LOFTMAG1
 40
0.0
  9
$LOFTMAG2
 40
0.0
  9
$LOFTPARAM
 70
     7
  9
$LOFTNORMALS
280
     1
  9
$LATITUDE
 40
37.795
  9
$LONGITUDE
 40
-122.394
  9
$NORTHDIRECTION
 40
0.0
  9
$TIMEZONE
 70
 -8000
  9
$LIGHTGLYPHDISPLAY
280
     1
  9
$TILEMODELIGHTSYNCH
280
     1
  9
$CMATERIAL
347
11
  9
$SOLIDHIST
280
     0
  9
$SHOWHIST
280
     1
  9
$DWFFRAME
280
     2
  9
$DGNFRAME
280
     0
  9
$REALWORLDSCALE
290
     1
  9
$INTERFERECOLOR
 62
     1
  9
$INTERFEREOBJVS
345
33
  9
$INTERFEREVPVS
346
30
  9
$CSHADOW
280
     0
  9
$SHADOWPLANELOCATION
 40
0.0
  0
ENDSEC
  0
SECTION
  2
CLASSES
  0
CLASS
  1
ACDBDICTIONARYWDFLT
  2
AcDbDictionaryWithDefault
  3
ObjectDBX Classes
 90
        0
 91
        1
280
     0
281
     0
  0
CLASS
  1
MATERIAL
  2
AcDbMaterial
  3
ObjectDBX Classes
 90
     1153
 91
        3
280
     0
281
     0
  0
CLASS
  1
VISUALSTYLE
  2
AcDbVisualStyle
  3
ObjectDBX Classes
 90
     4095
 91
       24
280
     0
281
     0
  0
CLASS
  1
SCALE
  2
AcDbScale
  3
ObjectDBX Classes
 90
     1153
 91
       17
280
     0
281
     0
  0
CLASS
  1
TABLESTYLE
  2
AcDbTableStyle
  3
ObjectDBX Classes
 90
     4095
 91
        1
280
     0
281
     0
  0
CLASS
  1
MLEADERSTYLE
  2
AcDbMLeaderStyle
  3
ACDB_MLEADERSTYLE_CLASS
 90
     4095
 91
        1
280
     0
281
     0
  0
CLASS
  1
ACDBSECTIONVIEWSTYLE
  2
AcDbSectionViewStyle
  3
ObjectDBX Classes
 90
     1025
 91
        1
280
     0
281
     0
  0
CLASS
  1
ACDBDETAILVIEWSTYLE
  2
AcDbDetailViewStyle
  3
ObjectDBX Classes
 90
     1025
 91
        1
280
     0
281
     0
  0
CLASS
  1
DICTIONARYVAR
  2
AcDbDictionaryVar
  3
ObjectDBX Classes
 90
        0
 91
        5
280
     0
281
     0
  0
CLASS
  1
CELLSTYLEMAP
  2
AcDbCellStyleMap
  3
ObjectDBX Classes
 90
     1152
 91
        1
280
     0
281
     0
  0
ENDSEC
  0
SECTION
  2
TABLES
  0
TABLE
  2
VPORT
  5
8
330
0
100
AcDbSymbolTable
 70
     1
  0
VPORT
  5
57
330
8
100
AcDbSymbolTableRecord
100
AcDbViewportTableRecord
  2
*Active
 70
     0
 10
0.0
 20
0.0
 11
1.0
 21
1.0
 12
0.0
 22
0.0
 13
0.0
 23
0.0
 14
1.0
 24
1.0
 15
0.0
 25
0.0
 16
0.0
 26
0.0
 36
1.0
 17
209.9999940135198
 27
148.5194444073147
 37
0.0
 40
303.2346665909216
 41
1.412767189859307
 42
50.0
 43
0.0
 44
0.0
 50
0.0
 51
0.0
 71
     0
 72
   100
 73
     1
 74
     1
 75
     0
 76
     0
 77
     0
 78
     0
281
     0
 65
     1
110
0.0
120
0.0
130
0.0
111
1.0
121
0.0
131
0.0
112
0.0
122
1.0
132
0.0
 79
     0
146
0.0
 60
     3
 61
     5
292
     1
282
     1
141
0.0
142
0.0
 63
   250
421
  3355443
  0
ENDTAB
  0
TABLE
  2
LTYPE
  5
5
330
0
100
AcDbSymbolTable
 70
    10
  0
LTYPE
  5
5B
330
5
100
AcDbSymbolTableRecord
100
AcDbLinetypeTableRecord
  2
ByBlock
 70
     0
  3

 72
    65
 73
     0
 40
0.0
  0
LTYPE
  5
5C
330
5
100
AcDbSymbolTableRecord
100
AcDbLinetypeTableRecord
  2
ByLayer
 70
     0
  3

 72
    65
 73
     0
 40
0.0
  0
LTYPE
  5
5D
330
5
100
AcDbSymbolTableRecord
100
AcDbLinetypeTableRecord
  2
Continuous
 70
     0
  3
Solid line
 72
    65
 73
     0
 40
0.0
  0
LTYPE
  5
17D
330
5
100
AcDbSymbolTableRecord
100
AcDbLinetypeTableRecord
  2
AI-Linetype-0
 70
     0
  3
Adobe Illustrator Linetype No. 0
 72
    65
 73
     4
 40
50.80665332795589
 49
31.75415832997243
 74
     0
 49
-6.350831665994486
 74
     0
 49
6.350831665994486
 74
     0
 49
-6.350831665994486
 74
     0
  0
LTYPE
  5
17F
330
5
100
AcDbSymbolTableRecord
100
AcDbLinetypeTableRecord
  2
AI-Linetype-1
 70
     0
  3
Adobe Illustrator Linetype No. 1
 72
    65
 73
     4
 40
50.80665332795589
 49
31.75415832997243
 74
     0
 49
-6.350831665994486
 74
     0
 49
6.350831665994486
 74
     0
 49
-6.350831665994486
 74
     0
  0
LTYPE
  5
185
330
5
100
AcDbSymbolTableRecord
100
AcDbLinetypeTableRecord
  2
AI-Linetype-2
 70
     0
  3
Adobe Illustrator Linetype No. 2
 72
    65
 73
     4
 40
50.80665332795589
 49
31.75415832997243
 74
     0
 49
-6.350831665994486
 74
     0
 49
6.350831665994486
 74
     0
 49
-6.350831665994486
 74
     0
  0
LTYPE
  5
187
330
5
100
AcDbSymbolTableRecord
100
AcDbLinetypeTableRecord
  2
AI-Linetype-3
 70
     0
  3
Adobe Illustrator Linetype No. 3
 72
    65
 73
     4
 40
50.80665332795589
 49
31.75415832997243
 74
     0
 49
-6.350831665994486
 74
     0
 49
6.350831665994486
 74
     0
 49
-6.350831665994486
 74
     0
  0
LTYPE
  5
264
330
5
100
AcDbSymbolTableRecord
100
AcDbLinetypeTableRecord
  2
AI-Linetype-4
 70
     0
  3
Adobe Illustrator Linetype No. 4
 72
    65
 73
     4
 40
50.80665332795589
 49
31.75415832997243
 74
     0
 49
-6.350831665994486
 74
     0
 49
6.350831665994486
 74
     0
 49
-6.350831665994486
 74
     0
  0
LTYPE
  5
27C
330
5
100
AcDbSymbolTableRecord
100
AcDbLinetypeTableRecord
  2
AI-Linetype-5
 70
     0
  3
Adobe Illustrator Linetype No. 5
 72
    65
 73
     4
 40
50.80665332795589
 49
31.75415832997243
 74
     0
 49
-6.350831665994486
 74
     0
 49
6.350831665994486
 74
     0
 49
-6.350831665994486
 74
     0
  0
LTYPE
  5
27E
330
5
100
AcDbSymbolTableRecord
100
AcDbLinetypeTableRecord
  2
AI-Linetype-6
 70
     0
  3
Adobe Illustrator Linetype No. 6
 72
    65
 73
     4
 40
50.80665332795589
 49
31.75415832997243
 74
     0
 49
-6.350831665994486
 74
     0
 49
6.350831665994486
 74
     0
 49
-6.350831665994486
 74
     0
  0
LTYPE
  5
2A5
330
5
100
AcDbSymbolTableRecord
100
AcDbLinetypeTableRecord
  2
AI-Linetype-7
 70
     0
  3
Adobe Illustrator Linetype No. 7
 72
    65
 73
     4
 40
50.80665332795589
 49
31.75415832997243
 74
     0
 49
-6.350831665994486
 74
     0
 49
6.350831665994486
 74
     0
 49
-6.350831665994486
 74
     0
  0
LTYPE
  5
2A7
330
5
100
AcDbSymbolTableRecord
100
AcDbLinetypeTableRecord
  2
AI-Linetype-8
 70
     0
  3
Adobe Illustrator Linetype No. 8
 72
    65
 73
     4
 40
50.80665332795589
 49
31.75415832997243
 74
     0
 49
-6.350831665994486
 74
     0
 49
6.350831665994486
 74
     0
 49
-6.350831665994486
 74
     0
  0
ENDTAB
  0
TABLE
  2
LAYER
  5
2
330
0
100
AcDbSymbolTable
 70
     2
  0
LAYER
  5
54
330
2
100
AcDbSymbolTableRecord
100
AcDbLayerTableRecord
  2
0
 70
     0
 62
     7
  6
Continuous
370
    -3
390
F
347
21
348
0
  0
LAYER
  5
78
330
2
100
AcDbSymbolTableRecord
100
AcDbLayerTableRecord
  2
レイヤー 1
 70
     0
 62
     7
  6
Continuous
370
     0
390
F
347
21
348
0
  0
ENDTAB
  0
TABLE
  2
STYLE
  5
3
330
0
100
AcDbSymbolTable
 70
     2
  0
STYLE
  5
55
330
3
100
AcDbSymbolTableRecord
100
AcDbTextStyleTableRecord
  2
Standard
 70
     0
 40
0.0
 41
1.0
 50
0.0
 71
     0
 42
0.2
  3
txt
  4

  0
STYLE
  5
5A
330
3
100
AcDbSymbolTableRecord
100
AcDbTextStyleTableRecord
  2
Annotative
 70
     0
 40
0.0
 41
1.0
 50
0.0
 71
     0
 42
0.2
  3
txt
  4

1001
AcadAnnotative
1000
AnnotativeData
1002
{
1070
     1
1070
     1
1002
}
  0
ENDTAB
  0
TABLE
  2
VIEW
  5
6
330
0
100
AcDbSymbolTable
 70
     0
  0
ENDTAB
  0
TABLE
  2
UCS
  5
7
330
0
100
AcDbSymbolTable
 70
     0
  0
ENDTAB
  0
TABLE
  2
APPID
  5
9
330
0
100
AcDbSymbolTable
 70
     2
  0
APPID
  5
56
330
9
100
AcDbSymbolTableRecord
100
AcDbRegAppTableRecord
  2
ACAD
 70
     0
  0
APPID
  5
5E
330
9
100
AcDbSymbolTableRecord
100
AcDbRegAppTableRecord
  2
AcadAnnotative
 70
     0
  0
ENDTAB
  0
TABLE
  2
DIMSTYLE
  5
A
330
0
100
AcDbSymbolTable
 70
     2
100
AcDbDimStyleTable
 71
     0
  0
DIMSTYLE
105
58
330
A
100
AcDbSymbolTableRecord
100
AcDbDimStyleTableRecord
  2
Standard
 70
     0
340
55
  0
DIMSTYLE
105
59
330
A
100
AcDbSymbolTableRecord
100
AcDbDimStyleTableRecord
  2
Annotative
 70
     0
340
55
1001
AcadAnnotative
1000
AnnotativeData
1002
{
1070
     1
1070
     1
1002
}
  0
ENDTAB
  0
TABLE
  2
BLOCK_RECORD
  5
1
330
0
100
AcDbSymbolTable
 70
    52
  0
BLOCK_RECORD
  5
70
330
1
100
AcDbSymbolTableRecord
100
AcDbBlockTableRecord
  2
*Model_Space
340
73
 70
     0
280
     1
281
     0
  0
BLOCK_RECORD
  5
6C
330
1
100
AcDbSymbolTableRecord
100
AcDbBlockTableRecord
  2
*Paper_Space
340
6F
 70
     0
280
     1
281
     0
  0
BLOCK_RECORD
  5
74
330
1
100
AcDbSymbolTableRecord
100
AcDbBlockTableRecord
  2
*Paper_Space0
340
77
 70
     0
280
     1
281
     0
  0
BLOCK_RECORD
  5
79
330
1
100
AcDbSymbolTableRecord
100
AcDbBlockTableRecord
  2
Block_0
340
0
102
{BLKREFS
331
7A
102
}
 70
     0
280
     1
281
     0
  0
BLOCK_RECORD
  5
7D
330
1
100
AcDbSymbolTableRecord
100
AcDbBlockTableRecord
  2
Block_1
340
0
102
{BLKREFS
331
7E
102
}
 70
     0
280
     1
281
     0
  0
BLOCK_RECORD
  5
90
330
1
100
AcDbSymbolTableRecord
100
AcDbBlockTableRecord
  2
Block_2
340
0
102
{BLKREFS
331
91
102
}
 70
     0
280
     1
281
     0
  0
BLOCK_RECORD
  5
97
330
1
100
AcDbSymbolTableRecord
100
AcDbBlockTableRecord
  2
Block_3
340
0
102
{BLKREFS
331
98
102
}
 70
     0
280
     1
281
     0
  0
BLOCK_RECORD
  5
9D
330
1
100
AcDbSymbolTableRecord
100
AcDbBlockTableRecord
  2
Block_4
340
0
102
{BLKREFS
331
9E
102
}
 70
     0
280
     1
281
     0
  0
BLOCK_RECORD
  5
A3
330
1
100
AcDbSymbolTableRecord
100
AcDbBlockTableRecord
  2
Block_5
340
0
102
{BLKREFS
331
A4
102
}
 70
     0
280
     1
281
     0
  0
BLOCK_RECORD
  5
AB
330
1
100
AcDbSymbolTableRecord
100
AcDbBlockTableRecord
  2
Block_6
340
0
102
{BLKREFS
331
AC
102
}
 70
     0
280
     1
281
     0
  0
BLOCK_RECORD
  5
B1
330
1
100
AcDbSymbolTableRecord
100
AcDbBlockTableRecord
  2
Block_7
340
0
102
{BLKREFS
331
B2
102
}
 70
     0
280
     1
281
     0
  0
BLOCK_RECORD
  5
B8
330
1
100
AcDbSymbolTableRecord
100
AcDbBlockTableRecord
  2
Block_8
340
0
102
{BLKREFS
331
B9
102
}
 70
     0
280
     1
281
     0
  0
BLOCK_RECORD
  5
BE
330
1
100
AcDbSymbolTableRecord
100
AcDbBlockTableRecord
  2
Block_9
340
0
102
{BLKREFS
331
BF
102
}
 70
     0
280
     1
281
     0
  0
BLOCK_RECORD
  5
C6
330
1
100
AcDbSymbolTableRecord
100
AcDbBlockTableRecord
  2
Block_10
340
0
102
{BLKREFS
331
C7
102
}
 70
     0
280
     1
281
     0
  0
BLOCK_RECORD
  5
CC
330
1
100
AcDbSymbolTableRecord
100
AcDbBlockTableRecord
  2
Block_11
340
0
102
{BLKREFS
331
CD
102
}
 70
     0
280
     1
281
     0
  0
BLOCK_RECORD
  5
D2
330
1
100
AcDbSymbolTableRecord
100
AcDbBlockTableRecord
  2
Block_12
340
0
102
{BLKREFS
331
D3
102
}
 70
     0
280
     1
281
     0
  0
BLOCK_RECORD
  5
D8
330
1
100
AcDbSymbolTableRecord
100
AcDbBlockTableRecord
  2
Block_13
340
0
102
{BLKREFS
331
D9
102
}
 70
     0
280
     1
281
     0
  0
BLOCK_RECORD
  5
E2
330
1
100
AcDbSymbolTableRecord
100
AcDbBlockTableRecord
  2
Block_14
340
0
102
{BLKREFS
331
E3
102
}
 70
     0
280
     1
281
     0
  0
BLOCK_RECORD
  5
EB
330
1
100
AcDbSymbolTableRecord
100
AcDbBlockTableRecord
  2
Block_15
340
0
102
{BLKREFS
331
EC
102
}
 70
     0
280
     1
281
     0
  0
BLOCK_RECORD
  5
F2
330
1
100
AcDbSymbolTableRecord
100
AcDbBlockTableRecord
  2
Block_16
340
0
102
{BLKREFS
331
F3
102
}
 70
     0
280
     1
281
     0
  0
BLOCK_RECORD
  5
F9
330
1
100
AcDbSymbolTableRecord
100
AcDbBlockTableRecord
  2
Block_17
340
0
102
{BLKREFS
331
FA
102
}
 70
     0
280
     1
281
     0
  0
BLOCK_RECORD
  5
102
330
1
100
AcDbSymbolTableRecord
100
AcDbBlockTableRecord
  2
Block_18
340
0
102
{BLKREFS
331
103
102
}
 70
     0
280
     1
281
     0
  0
BLOCK_RECORD
  5
10E
330
1
100
AcDbSymbolTableRecord
100
AcDbBlockTableRecord
  2
Block_19
340
0
102
{BLKREFS
331
10F
102
}
 70
     0
280
     1
281
     0
  0
BLOCK_RECORD
  5
115
330
1
100
AcDbSymbolTableRecord
100
AcDbBlockTableRecord
  2
Block_20
340
0
102
{BLKREFS
331
116
102
}
 70
     0
280
     1
281
     0
  0
BLOCK_RECORD
  5
11F
330
1
100
AcDbSymbolTableRecord
100
AcDbBlockTableRecord
  2
Block_21
340
0
102
{BLKREFS
331
120
102
}
 70
     0
280
     1
281
     0
  0
BLOCK_RECORD
  5
126
330
1
100
AcDbSymbolTableRecord
100
AcDbBlockTableRecord
  2
Block_22
340
0
102
{BLKREFS
331
127
102
}
 70
     0
280
     1
281
     0
  0
BLOCK_RECORD
  5
12D
330
1
100
AcDbSymbolTableRecord
100
AcDbBlockTableRecord
  2
Block_23
340
0
102
{BLKREFS
331
12E
102
}
 70
     0
280
     1
281
     0
  0
BLOCK_RECORD
  5
133
330
1
100
AcDbSymbolTableRecord
100
AcDbBlockTableRecord
  2
Block_24
340
0
102
{BLKREFS
331
134
102
}
 70
     0
280
     1
281
     0
  0
BLOCK_RECORD
  5
139
330
1
100
AcDbSymbolTableRecord
100
AcDbBlockTableRecord
  2
Block_25
340
0
102
{BLKREFS
331
13A
102
}
 70
     0
280
     1
281
     0
  0
BLOCK_RECORD
  5
146
330
1
100
AcDbSymbolTableRecord
100
AcDbBlockTableRecord
  2
Block_26
340
0
102
{BLKREFS
331
147
102
}
 70
     0
280
     1
281
     0
  0
BLOCK_RECORD
  5
14C
330
1
100
AcDbSymbolTableRecord
100
AcDbBlockTableRecord
  2
Block_27
340
0
102
{BLKREFS
331
14D
102
}
 70
     0
280
     1
281
     0
  0
BLOCK_RECORD
  5
152
330
1
100
AcDbSymbolTableRecord
100
AcDbBlockTableRecord
  2
Block_28
340
0
102
{BLKREFS
331
153
102
}
 70
     0
280
     1
281
     0
  0
BLOCK_RECORD
  5
158
330
1
100
AcDbSymbolTableRecord
100
AcDbBlockTableRecord
  2
Block_29
340
0
102
{BLKREFS
331
159
102
}
 70
     0
280
     1
281
     0
  0
BLOCK_RECORD
  5
15E
330
1
100
AcDbSymbolTableRecord
100
AcDbBlockTableRecord
  2
Block_30
340
0
102
{BLKREFS
331
15F
102
}
 70
     0
280
     1
281
     0
  0
BLOCK_RECORD
  5
164
330
1
100
AcDbSymbolTableRecord
100
AcDbBlockTableRecord
  2
Block_31
340
0
102
{BLKREFS
331
165
102
}
 70
     0
280
     1
281
     0
  0
BLOCK_RECORD
  5
16B
330
1
100
AcDbSymbolTableRecord
100
AcDbBlockTableRecord
  2
Block_32
340
0
102
{BLKREFS
331
16C
102
}
 70
     0
280
     1
281
     0
  0
BLOCK_RECORD
  5
172
330
1
100
AcDbSymbolTableRecord
100
AcDbBlockTableRecord
  2
Block_33
340
0
102
{BLKREFS
331
173
102
}
 70
     0
280
     1
281
     0
  0
BLOCK_RECORD
  5
178
330
1
100
AcDbSymbolTableRecord
100
AcDbBlockTableRecord
  2
Block_34
340
0
102
{BLKREFS
331
179
102
}
 70
     0
280
     1
281
     0
  0
BLOCK_RECORD
  5
180
330
1
100
AcDbSymbolTableRecord
100
AcDbBlockTableRecord
  2
Block_35
340
0
102
{BLKREFS
331
181
102
}
 70
     0
280
     1
281
     0
  0
BLOCK_RECORD
  5
188
330
1
100
AcDbSymbolTableRecord
100
AcDbBlockTableRecord
  2
Block_36
340
0
102
{BLKREFS
331
189
102
}
 70
     0
280
     1
281
     0
  0
BLOCK_RECORD
  5
18E
330
1
100
AcDbSymbolTableRecord
100
AcDbBlockTableRecord
  2
Block_37
340
0
102
{BLKREFS
331
18F
102
}
 70
     0
280
     1
281
     0
  0
BLOCK_RECORD
  5
194
330
1
100
AcDbSymbolTableRecord
100
AcDbBlockTableRecord
  2
Block_38
340
0
102
{BLKREFS
331
195
102
}
 70
     0
280
     1
281
     0
  0
BLOCK_RECORD
  5
19A
330
1
100
AcDbSymbolTableRecord
100
AcDbBlockTableRecord
  2
Block_39
340
0
102
{BLKREFS
331
19B
102
}
 70
     0
280
     1
281
     0
  0
BLOCK_RECORD
  5
1C4
330
1
100
AcDbSymbolTableRecord
100
AcDbBlockTableRecord
  2
Block_40
340
0
102
{BLKREFS
331
1C5
102
}
 70
     0
280
     1
281
     0
  0
BLOCK_RECORD
  5
1D2
330
1
100
AcDbSymbolTableRecord
100
AcDbBlockTableRecord
  2
Block_41
340
0
102
{BLKREFS
331
1D3
102
}
 70
     0
280
     1
281
     0
  0
BLOCK_RECORD
  5
1E0
330
1
100
AcDbSymbolTableRecord
100
AcDbBlockTableRecord
  2
Block_42
340
0
102
{BLKREFS
331
1E1
102
}
 70
     0
280
     1
281
     0
  0
BLOCK_RECORD
  5
1EE
330
1
100
AcDbSymbolTableRecord
100
AcDbBlockTableRecord
  2
Block_43
340
0
102
{BLKREFS
331
1EF
102
}
 70
     0
280
     1
281
     0
  0
BLOCK_RECORD
  5
20D
330
1
100
AcDbSymbolTableRecord
100
AcDbBlockTableRecord
  2
Block_44
340
0
102
{BLKREFS
331
20E
102
}
 70
     0
280
     1
281
     0
  0
BLOCK_RECORD
  5
224
330
1
100
AcDbSymbolTableRecord
100
AcDbBlockTableRecord
  2
Block_45
340
0
102
{BLKREFS
331
225
102
}
 70
     0
280
     1
281
     0
  0
BLOCK_RECORD
  5
232
330
1
100
AcDbSymbolTableRecord
100
AcDbBlockTableRecord
  2
Block_46
340
0
102
{BLKREFS
331
233
102
}
 70
     0
280
     1
281
     0
  0
BLOCK_RECORD
  5
23E
330
1
100
AcDbSymbolTableRecord
100
AcDbBlockTableRecord
  2
Block_47
340
0
102
{BLKREFS
331
23F
102
}
 70
     0
280
     1
281
     0
  0
BLOCK_RECORD
  5
285
330
1
100
AcDbSymbolTableRecord
100
AcDbBlockTableRecord
  2
Block_48
340
0
102
{BLKREFS
331
286
102
}
 70
     0
280
     1
281
     0
  0
BLOCK_RECORD
  5
294
330
1
100
AcDbSymbolTableRecord
100
AcDbBlockTableRecord
  2
Block_49
340
0
102
{BLKREFS
331
295
102
}
 70
     0
280
     1
281
     0
  0
BLOCK_RECORD
  5
2A8
330
1
100
AcDbSymbolTableRecord
100
AcDbBlockTableRecord
  2
Block_50
340
0
102
{BLKREFS
331
2A9
102
}
 70
     0
280
     1
281
     0
  0
ENDTAB
  0
ENDSEC
  0
SECTION
  2
BLOCKS
  0
BLOCK
  5
71
330
70
100
AcDbEntity
  8
0
100
AcDbBlockBegin
  2
*Model_Space
 70
     0
 10
0.0
 20
0.0
 30
0.0
  3
*Model_Space
  1

  0
ENDBLK
  5
72
330
70
100
AcDbEntity
  8
0
100
AcDbBlockEnd
  0
BLOCK
  5
6D
330
6C
100
AcDbEntity
 67
     1
  8
0
100
AcDbBlockBegin
  2
*Paper_Space
 70
     0
 10
0.0
 20
0.0
 30
0.0
  3
*Paper_Space
  1

  0
ENDBLK
  5
6E
330
6C
100
AcDbEntity
 67
     1
  8
0
100
AcDbBlockEnd
  0
BLOCK
  5
75
330
74
100
AcDbEntity
 67
     1
  8
0
100
AcDbBlockBegin
  2
*Paper_Space0
 70
     0
 10
0.0
 20
0.0
 30
0.0
  3
*Paper_Space0
  1

  0
ENDBLK
  5
76
330
74
100
AcDbEntity
 67
     1
  8
0
100
AcDbBlockEnd
  0
BLOCK
  5
7B
330
79
100
AcDbEntity
  8
0
100
AcDbBlockBegin
  2
Block_0
 70
     0
 10
0.0
 20
0.0
 30
0.0
  3
Block_0
  1

  0
INSERT
  5
7E
330
79
100
AcDbEntity
  8
レイヤー 1
100
AcDbBlockReference
  2
Block_1
 10
0.0
 20
0.0
 30
0.0
  0
MTEXT
  5
84
330
79
100
AcDbEntity
  8
レイヤー 1
100
AcDbMText
 10
300.5076693313401
 20
6.750882613295732
 30
0.0
 40
0.2
 41
0.0
 46
0.0
 71
     7
 72
     1
  1
\C143;\c13415014;\FKozGoPr6N-Regular|b0|i0|c128;\H2.500327;\W1.000000;A4
 73
     1
 44
1.0
  0
MTEXT
  5
85
330
79
100
AcDbEntity
  8
レイヤー 1
100
AcDbMText
 10
183.5780925715642
 20
11.00143873151613
 30
0.0
 40
0.2
 41
0.0
 46
0.0
 71
     7
 72
     1
  1
\C143;\c13415014;\FKozGoPr6N-Regular|b0|i0|c128;\H3.000392;\W1.004780;2022年02月20日 作成
 73
     1
 44
1.0
  0
MTEXT
  5
86
330
79
100
AcDbEntity
  8
レイヤー 1
100
AcDbMText
 10
216.0195878230568
 20
21.08417277338835
 30
0.0
 40
0.2
 41
0.0
 46
0.0
 71
     7
 72
     1
  1
\C143;\c13415014;\FKozGoPr6N-Regular|b0|i0|c128;\H2.997200;\W0.833330;熊谷
 73
     1
 44
1.0
  0
MTEXT
  5
87
330
79
100
AcDbEntity
  8
レイヤー 1
100
AcDbMText
 10
200.947165884008
 20
21.08417277338835
 30
0.0
 40
0.2
 41
0.0
 46
0.0
 71
     7
 72
     1
  1
\C143;\c13415014;\FKozGoPr6N-Regular|b0|i0|c128;\H2.997200;\W0.833330;片桐
 73
     1
 44
1.0
  0
MTEXT
  5
88
330
79
100
AcDbEntity
  8
レイヤー 1
100
AcDbMText
 10
186.2379216046449
 20
21.08417277338835
 30
0.0
 40
0.2
 41
0.0
 46
0.0
 71
     7
 72
     1
  1
\C143;\c13415014;\FKozGoPr6N-Regular|b0|i0|c128;\H2.997200;\W0.833330;中田
 73
     1
 44
1.0
  0
MTEXT
  5
89
330
79
100
AcDbEntity
  8
レイヤー 1
100
AcDbMText
 10
253.2206762740429
 20
14.00183429367972
 30
0.0
 40
0.2
 41
0.0
 46
0.0
 71
     7
 72
     1
  1
\C143;\c13415014;\FKozGoPr6N-Regular|b0|i0|c128;\H4.500588;\W0.862070;Pトラップ
 73
     1
 44
1.0
  0
MTEXT
  5
8A
330
79
100
AcDbEntity
  8
レイヤー 1
100
AcDbMText
 10
245.2973011675168
 20
26.50346676905638
 30
0.0
 40
0.2
 41
0.0
 46
0.0
 71
     7
 72
     1
  1
\C143;\c13415014;\FKozGoPr6N-Regular|b0|i0|c128;\H4.500588;\W0.877190;SC.433.401.32.152
 73
     1
 44
1.0
  0
LWPOLYLINE
  5
8B
330
79
100
AcDbEntity
  8
レイヤー 1
 62
   143
420
  6730444
370
    25
100
AcDbPolyline
 90
        1
 70
     0
 43
0.0
 10
164.2616823727078
 20
15.14355461881029
  0
LWPOLYLINE
  5
8C
330
79
100
AcDbEntity
  8
レイヤー 1
 62
   143
420
  6730444
370
    25
100
AcDbPolyline
 90
        1
 70
     0
 43
0.0
 10
164.2616672984533
 20
17.03687449532905
  0
LWPOLYLINE
  5
8D
330
79
100
AcDbEntity
  8
レイヤー 1
 62
   143
420
  6730444
370
    25
100
AcDbPolyline
 90
        1
 70
     0
 43
0.0
 10
164.5649914696482
 20
13.87145507346825
  0
LWPOLYLINE
  5
8E
330
79
100
AcDbEntity
  8
レイヤー 1
 62
   143
420
  6730444
370
    25
100
AcDbPolyline
 90
        1
 70
     0
 43
0.0
 10
157.9015908052435
 20
14.90641625583962
  0
LWPOLYLINE
  5
8F
330
79
100
AcDbEntity
  8
レイヤー 1
 62
   143
420
  6730444
370
    25
100
AcDbPolyline
 90
        1
 70
     0
 43
0.0
 10
157.9015665029481
 20
14.90638490694982
  0
INSERT
  5
91
330
79
100
AcDbEntity
  8
レイヤー 1
100
AcDbBlockReference
  2
Block_2
 10
0.0
 20
0.0
 30
0.0
  0
LWPOLYLINE
  5
96
330
79
100
AcDbEntity
  8
レイヤー 1
 62
   143
420
  6730444
370
    25
100
AcDbPolyline
 90
        1
 70
     0
 43
0.0
 10
158.4594757542627
 20
13.70228507839978
  0
INSERT
  5
98
330
79
100
AcDbEntity
  8
レイヤー 1
100
AcDbBlockReference
  2
Block_3
 10
0.0
 20
0.0
 30
0.0
  0
INSERT
  5
9E
330
79
100
AcDbEntity
  8
レイヤー 1
100
AcDbBlockReference
  2
Block_4
 10
0.0
 20
0.0
 30
0.0
  0
INSERT
  5
A4
330
79
100
AcDbEntity
  8
レイヤー 1
100
AcDbBlockReference
  2
Block_5
 10
0.0
 20
0.0
 30
0.0
  0
LWPOLYLINE
  5
A9
330
79
100
AcDbEntity
  8
レイヤー 1
 62
   143
420
  6730444
370
    25
100
AcDbPolyline
 90
        1
 70
     0
 43
0.0
 10
146.2317266034157
 20
13.87130805422036
  0
LWPOLYLINE
  5
AA
330
79
100
AcDbEntity
  8
レイヤー 1
 62
   143
420
  6730444
370
    25
100
AcDbPolyline
 90
        1
 70
     0
 43
0.0
 10
145.8124127061581
 20
14.61098889443907
  0
INSERT
  5
AC
330
79
100
AcDbEntity
  8
レイヤー 1
100
AcDbBlockReference
  2
Block_6
 10
0.0
 20
0.0
 30
0.0
  0
INSERT
  5
B2
330
79
100
AcDbEntity
  8
レイヤー 1
100
AcDbBlockReference
  2
Block_7
 10
0.0
 20
0.0
 30
0.0
  0
LWPOLYLINE
  5
B7
330
79
100
AcDbEntity
  8
レイヤー 1
 62
   143
420
  6730444
370
    25
100
AcDbPolyline
 90
        1
 70
     0
 43
0.0
 10
143.2291134964225
 20
15.49861910443067
  0
INSERT
  5
B9
330
79
100
AcDbEntity
  8
レイヤー 1
100
AcDbBlockReference
  2
Block_8
 10
0.0
 20
0.0
 30
0.0
  0
INSERT
  5
BF
330
79
100
AcDbEntity
  8
レイヤー 1
100
AcDbBlockReference
  2
Block_9
 10
0.0
 20
0.0
 30
0.0
  0
LWPOLYLINE
  5
C4
330
79
100
AcDbEntity
  8
レイヤー 1
 62
   143
420
  6730444
370
    25
100
AcDbPolyline
 90
        1
 70
     0
 43
0.0
 10
142.3073598189312
 20
13.87118703837644
  0
LWPOLYLINE
  5
C5
330
79
100
AcDbEntity
  8
レイヤー 1
 62
   143
420
  6730444
370
    25
100
AcDbPolyline
 90
        1
 70
     0
 43
0.0
 10
140.8449433569886
 20
13.87130805422036
  0
INSERT
  5
C7
330
79
100
AcDbEntity
  8
レイヤー 1
100
AcDbBlockReference
  2
Block_10
 10
0.0
 20
0.0
 30
0.0
  0
INSERT
  5
CD
330
79
100
AcDbEntity
  8
レイヤー 1
100
AcDbBlockReference
  2
Block_11
 10
0.0
 20
0.0
 30
0.0
  0
INSERT
  5
D3
330
79
100
AcDbEntity
  8
レイヤー 1
100
AcDbBlockReference
  2
Block_12
 10
0.0
 20
0.0
 30
0.0
  0
INSERT
  5
D9
330
79
100
AcDbEntity
  8
レイヤー 1
100
AcDbBlockReference
  2
Block_13
 10
0.0
 20
0.0
 30
0.0
  0
LWPOLYLINE
  5
DE
330
79
100
AcDbEntity
  8
レイヤー 1
 62
   143
420
  6730444
370
    25
100
AcDbPolyline
 90
        1
 70
     0
 43
0.0
 10
161.7643231562292
 20
15.14339359772915
  0
LWPOLYLINE
  5
DF
330
79
100
AcDbEntity
  8
レイヤー 1
 62
   143
420
  6730444
370
    25
100
AcDbPolyline
 90
        1
 70
     0
 43
0.0
 10
173.6724301849768
 20
13.87132305618456
  0
LWPOLYLINE
  5
E0
330
79
100
AcDbEntity
  8
レイヤー 1
 62
   143
420
  6730444
370
    25
100
AcDbPolyline
 90
        1
 70
     0
 43
0.0
 10
173.6724301849768
 20
18.30920607104946
  0
LWPOLYLINE
  5
E1
330
79
100
AcDbEntity
  8
レイヤー 1
 62
   143
420
  6730444
370
    25
100
AcDbPolyline
 90
        1
 70
     0
 43
0.0
 10
158.421211470608
 20
18.30919106908526
  0
INSERT
  5
E3
330
79
100
AcDbEntity
  8
レイヤー 1
100
AcDbBlockReference
  2
Block_14
 10
0.0
 20
0.0
 30
0.0
  0
LWPOLYLINE
  5
E8
330
79
100
AcDbEntity
  8
レイヤー 1
 62
   143
420
  6730444
370
    25
100
AcDbPolyline
 90
        1
 70
     0
 43
0.0
 10
158.4214865066161
 20
18.30919807000189
  0
LWPOLYLINE
  5
E9
330
79
100
AcDbEntity
  8
レイヤー 1
 62
   143
420
  6730444
370
    25
100
AcDbPolyline
 90
        1
 70
     0
 43
0.0
 10
154.1905095802328
 20
18.30919106908526
  0
LWPOLYLINE
  5
EA
330
79
100
AcDbEntity
  8
レイヤー 1
 62
   143
420
  6730444
370
    25
100
AcDbPolyline
 90
        1
 70
     0
 43
0.0
 10
155.4626101257061
 20
18.30919106908526
  0
INSERT
  5
EC
330
79
100
AcDbEntity
  8
レイヤー 1
100
AcDbBlockReference
  2
Block_15
 10
0.0
 20
0.0
 30
0.0
  0
LWPOLYLINE
  5
F1
330
79
100
AcDbEntity
  8
レイヤー 1
 62
   143
420
  6730444
370
    25
100
AcDbPolyline
 90
        1
 70
     0
 43
0.0
 10
138.7266240231746
 20
13.87132305618456
  0
INSERT
  5
F3
330
79
100
AcDbEntity
  8
レイヤー 1
100
AcDbBlockReference
  2
Block_16
 10
0.0
 20
0.0
 30
0.0
  0
LWPOLYLINE
  5
F8
330
79
100
AcDbEntity
  8
レイヤー 1
 62
   143
420
  6730444
370
    25
100
AcDbPolyline
 90
        1
 70
     0
 43
0.0
 10
136.182490941132
 20
15.49861910443067
  0
INSERT
  5
FA
330
79
100
AcDbEntity
  8
レイヤー 1
100
AcDbBlockReference
  2
Block_17
 10
0.0
 20
0.0
 30
0.0
  0
LWPOLYLINE
  5
FF
330
79
100
AcDbEntity
  8
レイヤー 1
 62
   143
420
  6730444
370
    25
100
AcDbPolyline
 90
        1
 70
     0
 43
0.0
 10
136.182490941132
 20
16.68187201782737
  0
LWPOLYLINE
  5
100
330
79
100
AcDbEntity
  8
レイヤー 1
 62
   143
420
  6730444
370
    25
100
AcDbPolyline
 90
        1
 70
     0
 43
0.0
 10
136.1824599370726
 20
16.68188701979157
  0
LWPOLYLINE
  5
101
330
79
100
AcDbEntity
  8
レイヤー 1
 62
   143
420
  6730444
370
    25
100
AcDbPolyline
 90
        1
 70
     0
 43
0.0
 10
134.9397892446044
 20
18.30919106908526
  0
INSERT
  5
103
330
79
100
AcDbEntity
  8
レイヤー 1
100
AcDbBlockReference
  2
Block_18
 10
0.0
 20
0.0
 30
0.0
  0
LWPOLYLINE
  5
108
330
79
100
AcDbEntity
  8
レイヤー 1
 62
   143
420
  6730444
370
    25
100
AcDbPolyline
 90
        1
 70
     0
 43
0.0
 10
136.1834520669642
 20
13.87130805422036
  0
LWPOLYLINE
  5
109
330
79
100
AcDbEntity
  8
レイヤー 1
 62
   143
420
  6730444
370
    25
100
AcDbPolyline
 90
        1
 70
     0
 43
0.0
 10
134.9397892446044
 20
13.87130805422036
  0
LWPOLYLINE
  5
10A
330
79
100
AcDbEntity
  8
レイヤー 1
 62
   143
420
  6730444
370
    25
100
AcDbPolyline
 90
        1
 70
     0
 43
0.0
 10
160.492176604733
 20
13.87132305618456
  0
LWPOLYLINE
  5
10B
330
79
100
AcDbEntity
  8
レイヤー 1
 62
   143
420
  6730444
370
    25
100
AcDbPolyline
 90
        1
 70
     0
 43
0.0
 10
154.1905165811494
 20
18.30919106908526
  0
LWPOLYLINE
  5
10C
330
79
100
AcDbEntity
  8
レイヤー 1
 62
   143
420
  6730444
370
    25
100
AcDbPolyline
 90
        1
 70
     0
 43
0.0
 10
171.6184962806082
 20
13.87132305618456
  0
LWPOLYLINE
  5
10D
330
79
100
AcDbEntity
  8
レイヤー 1
 62
   143
420
  6730444
370
    25
100
AcDbPolyline
 90
        1
 70
     0
 43
0.0
 10
166.2317430381091
 20
13.87130805422036
  0
INSERT
  5
10F
330
79
100
AcDbEntity
  8
レイヤー 1
100
AcDbBlockReference
  2
Block_19
 10
0.0
 20
0.0
 30
0.0
  0
LWPOLYLINE
  5
114
330
79
100
AcDbEntity
  8
レイヤー 1
 62
   143
420
  6730444
370
    25
100
AcDbPolyline
 90
        1
 70
     0
 43
0.0
 10
151.7765195367285
 20
18.30919106908526
  0
INSERT
  5
116
330
79
100
AcDbEntity
  8
レイヤー 1
100
AcDbBlockReference
  2
Block_20
 10
0.0
 20
0.0
 30
0.0
  0
LWPOLYLINE
  5
11B
330
79
100
AcDbEntity
  8
レイヤー 1
 62
   143
420
  6730444
370
    25
100
AcDbPolyline
 90
        1
 70
     0
 43
0.0
 10
149.2321044177612
 20
13.87130805422036
  0
LWPOLYLINE
  5
11C
330
79
100
AcDbEntity
  8
レイヤー 1
 62
   143
420
  6730444
370
    25
100
AcDbPolyline
 90
        1
 70
     0
 43
0.0
 10
170.5658374648032
 20
18.30915206397833
  0
LWPOLYLINE
  5
11D
330
79
100
AcDbEntity
  8
レイヤー 1
 62
   143
420
  6730444
370
    25
100
AcDbPolyline
 90
        1
 70
     0
 43
0.0
 10
171.1991543796843
 20
14.61091988540439
  0
LWPOLYLINE
  5
11E
330
79
100
AcDbEntity
  8
レイヤー 1
 62
   143
420
  6730444
370
    25
100
AcDbPolyline
 90
        1
 70
     0
 43
0.0
 10
169.6563093879077
 20
17.33417941897379
  0
INSERT
  5
120
330
79
100
AcDbEntity
  8
レイヤー 1
100
AcDbBlockReference
  2
Block_21
 10
0.0
 20
0.0
 30
0.0
  0
LWPOLYLINE
  5
125
330
79
100
AcDbEntity
  8
レイヤー 1
 62
   143
420
  6730444
370
    25
100
AcDbPolyline
 90
        1
 70
     0
 43
0.0
 10
168.6160201915534
 20
15.49860410246647
  0
INSERT
  5
127
330
79
100
AcDbEntity
  8
レイヤー 1
100
AcDbBlockReference
  2
Block_22
 10
0.0
 20
0.0
 30
0.0
  0
LWPOLYLINE
  5
12C
330
79
100
AcDbEntity
  8
レイヤー 1
 62
   143
420
  6730444
370
    25
100
AcDbPolyline
 90
        1
 70
     0
 43
0.0
 10
168.1132983743953
 20
14.61075286353756
  0
INSERT
  5
12E
330
79
100
AcDbEntity
  8
レイヤー 1
100
AcDbBlockReference
  2
Block_23
 10
0.0
 20
0.0
 30
0.0
  0
INSERT
  5
134
330
79
100
AcDbEntity
  8
レイヤー 1
100
AcDbBlockReference
  2
Block_24
 10
0.0
 20
0.0
 30
0.0
  0
INSERT
  5
13A
330
79
100
AcDbEntity
  8
レイヤー 1
100
AcDbBlockReference
  2
Block_25
 10
0.0
 20
0.0
 30
0.0
  0
LWPOLYLINE
  5
13F
330
79
100
AcDbEntity
  8
レイヤー 1
 62
   143
420
  6730444
370
    25
100
AcDbPolyline
 90
        1
 70
     0
 43
0.0
 10
151.2187405113908
 20
16.09000052904899
  0
LWPOLYLINE
  5
140
330
79
100
AcDbEntity
  8
レイヤー 1
 62
   143
420
  6730444
370
    25
100
AcDbPolyline
 90
        1
 70
     0
 43
0.0
 10
150.03041193348
 20
16.68259511249611
  0
LWPOLYLINE
  5
141
330
79
100
AcDbEntity
  8
レイヤー 1
 62
   143
420
  6730444
370
    25
100
AcDbPolyline
 90
        1
 70
     0
 43
0.0
 10
149.2320504106904
 20
16.68188801992252
  0
LWPOLYLINE
  5
142
330
79
100
AcDbEntity
  8
レイヤー 1
 62
   143
420
  6730444
370
    25
100
AcDbPolyline
 90
        1
 70
     0
 43
0.0
 10
150.0310140123051
 20
15.49861910443067
  0
LWPOLYLINE
  5
143
330
79
100
AcDbEntity
  8
レイヤー 1
 62
   143
420
  6730444
370
    25
100
AcDbPolyline
 90
        1
 70
     0
 43
0.0
 10
149.2321044177612
 20
18.30919106908526
  0
LWPOLYLINE
  5
144
330
79
100
AcDbEntity
  8
レイヤー 1
 62
   143
420
  6730444
370
    25
100
AcDbPolyline
 90
        1
 70
     0
 43
0.0
 10
147.9895477402192
 20
18.30920607104946
  0
LWPOLYLINE
  5
145
330
79
100
AcDbEntity
  8
レイヤー 1
 62
   143
420
  6730444
370
    25
100
AcDbPolyline
 90
        1
 70
     0
 43
0.0
 10
147.9896777572417
 20
18.30920507091851
  0
INSERT
  5
147
330
79
100
AcDbEntity
  8
レイヤー 1
100
AcDbBlockReference
  2
Block_26
 10
0.0
 20
0.0
 30
0.0
  0
INSERT
  5
14D
330
79
100
AcDbEntity
  8
レイヤー 1
100
AcDbBlockReference
  2
Block_27
 10
0.0
 20
0.0
 30
0.0
  0
INSERT
  5
153
330
79
100
AcDbEntity
  8
レイヤー 1
100
AcDbBlockReference
  2
Block_28
 10
0.0
 20
0.0
 30
0.0
  0
INSERT
  5
159
330
79
100
AcDbEntity
  8
レイヤー 1
100
AcDbBlockReference
  2
Block_29
 10
0.0
 20
0.0
 30
0.0
  0
INSERT
  5
15F
330
79
100
AcDbEntity
  8
レイヤー 1
100
AcDbBlockReference
  2
Block_30
 10
0.0
 20
0.0
 30
0.0
  0
INSERT
  5
165
330
79
100
AcDbEntity
  8
レイヤー 1
100
AcDbBlockReference
  2
Block_31
 10
0.0
 20
0.0
 30
0.0
  0
LWPOLYLINE
  5
16A
330
79
100
AcDbEntity
  8
レイヤー 1
 62
   143
420
  6730444
370
    25
100
AcDbPolyline
 90
        1
 70
     0
 43
0.0
 10
127.764074788392
 20
19.85724774318377
  0
INSERT
  5
16C
330
79
100
AcDbEntity
  8
レイヤー 1
100
AcDbBlockReference
  2
Block_32
 10
0.0
 20
0.0
 30
0.0
  0
LWPOLYLINE
  5
171
330
79
100
AcDbEntity
  8
レイヤー 1
 62
   143
420
  6730444
370
    25
100
AcDbPolyline
 90
        1
 70
     0
 43
0.0
 10
124.6274641382221
 20
12.2604151535008
  0
INSERT
  5
173
330
79
100
AcDbEntity
  8
レイヤー 1
100
AcDbBlockReference
  2
Block_33
 10
0.0
 20
0.0
 30
0.0
  0
INSERT
  5
179
330
79
100
AcDbEntity
  8
レイヤー 1
100
AcDbBlockReference
  2
Block_34
 10
0.0
 20
0.0
 30
0.0
  0
INSERT
  5
181
330
79
100
AcDbEntity
  8
レイヤー 1
100
AcDbBlockReference
  2
Block_35
 10
0.0
 20
0.0
 30
0.0
  0
INSERT
  5
189
330
79
100
AcDbEntity
  8
レイヤー 1
100
AcDbBlockReference
  2
Block_36
 10
0.0
 20
0.0
 30
0.0
  0
INSERT
  5
18F
330
79
100
AcDbEntity
  8
レイヤー 1
100
AcDbBlockReference
  2
Block_37
 10
0.0
 20
0.0
 30
0.0
  0
INSERT
  5
195
330
79
100
AcDbEntity
  8
レイヤー 1
100
AcDbBlockReference
  2
Block_38
 10
0.0
 20
0.0
 30
0.0
  0
INSERT
  5
19B
330
79
100
AcDbEntity
  8
レイヤー 1
100
AcDbBlockReference
  2
Block_39
 10
0.0
 20
0.0
 30
0.0
  0
LINE
  5
1A0
330
79
100
AcDbEntity
  8
レイヤー 1
 62
     4
420
    65535
370
    25
100
AcDbLine
 10
182.0755003285927
 20
15.00196408154697
 30
0.0
 11
227.0813925732336
 21
15.00196408154697
 31
0.0
  0
LINE
  5
1A1
330
79
100
AcDbEntity
  8
レイヤー 1
 62
     4
420
    65535
370
    25
100
AcDbLine
 10
182.0755003285927
 20
30.00392816309395
 30
0.0
 11
227.0813925732336
 21
30.00392816309395
 31
0.0
  0
LINE
  5
1A2
330
79
100
AcDbEntity
  8
レイヤー 1
 62
     4
420
    65535
370
    25
100
AcDbLine
 10
115.0667274310162
 20
35.00458285694273
 30
0.0
 11
242.2833798421416
 21
35.00458285694273
 31
0.0
  0
LINE
  5
1A3
330
79
100
AcDbEntity
  8
レイヤー 1
 62
     4
420
    65535
370
    25
100
AcDbLine
 10
115.0667274310162
 20
22.50294612232014
 30
0.0
 11
182.0755003285927
 21
22.50294612232014
 31
0.0
  0
LINE
  5
1A4
330
79
100
AcDbEntity
  8
レイヤー 1
 62
     4
420
    65535
370
    25
100
AcDbLine
 10
162.0728815531966
 20
35.00458285694273
 30
0.0
 11
162.0728815531966
 21
22.50294612232014
 31
0.0
  0
LINE
  5
1A5
330
79
100
AcDbEntity
  8
レイヤー 1
 62
     4
420
    65535
370
    25
100
AcDbLine
 10
142.0702627778009
 20
35.00458285694273
 30
0.0
 11
142.0702627778009
 21
22.50294612232014
 31
0.0
  0
LINE
  5
1A6
330
79
100
AcDbEntity
  8
レイヤー 1
 62
     4
420
    65535
370
    25
100
AcDbLine
 10
167.0735362470457
 20
35.00458285694273
 30
0.0
 11
167.0735362470457
 21
22.50294612232014
 31
0.0
  0
LINE
  5
1A7
330
79
100
AcDbEntity
  8
レイヤー 1
 62
     4
420
    65535
370
    25
100
AcDbLine
 10
177.8573030753449
 20
31.48943364788931
 30
0.0
 11
170.1529704115771
 21
25.06915709483603
 31
0.0
  0
LINE
  5
1A8
330
79
100
AcDbEntity
  8
レイヤー 1
 62
     4
420
    65535
370
    25
100
AcDbLine
 10
242.2833798421416
 20
35.00458285694273
 30
0.0
 11
305.0916057972775
 21
35.00458285694273
 31
0.0
  0
LINE
  5
1A9
330
79
100
AcDbEntity
  8
レイヤー 1
 62
     4
420
    65535
370
    25
100
AcDbLine
 10
227.0813925732336
 20
22.50294612232014
 30
0.0
 11
305.0916057972775
 21
22.50294612232014
 31
0.0
  0
LWPOLYLINE
  5
1AA
330
79
100
AcDbEntity
  8
レイヤー 1
 62
     4
420
    65535
370
    25
100
AcDbPolyline
 90
        1
 70
     0
 43
0.0
 10
127.1027882116773
 20
28.75376448963175
  0
MTEXT
  5
1AB
330
79
100
AcDbEntity
  8
レイヤー 1
100
AcDbMText
 10
214.2015032762565
 20
30.90557479085759
 30
0.0
 40
0.2
 41
0.0
 46
0.0
 71
     7
 72
     1
  1
\C140;\c16760576;\FKozGoPr6N-Regular|b0|i0|c128;\H2.497667;\W1.043410;承　認
 73
     1
 44
1.0
  0
MTEXT
  5
1AC
330
79
100
AcDbEntity
  8
レイヤー 1
100
AcDbMText
 10
184.1975638035057
 20
30.90557479085759
 30
0.0
 40
0.2
 41
0.0
 46
0.0
 71
     7
 72
     1
  1
\C140;\c16760576;\FKozGoPr6N-Regular|b0|i0|c128;\H2.497667;\W1.043410;製　図
 73
     1
 44
1.0
  0
MTEXT
  5
1AD
330
79
100
AcDbEntity
  8
レイヤー 1
100
AcDbMText
 10
199.1995335398811
 20
30.90557479085759
 30
0.0
 40
0.2
 41
0.0
 46
0.0
 71
     7
 72
     1
  1
\C140;\c16760576;\FKozGoPr6N-Regular|b0|i0|c128;\H2.497667;\W1.043410;検　図
 73
     1
 44
1.0
  0
MTEXT
  5
1AE
330
79
100
AcDbEntity
  8
レイヤー 1
100
AcDbMText
 10
227.9710116346305
 20
29.6592630524132
 30
0.0
 40
0.2
 41
0.0
 46
0.0
 71
     7
 72
     1
  1
\C140;\c16760576;\FKozGoPr6N-Regular|b0|i0|c128;\H2.497667;\W1.043410;品
 73
     1
 44
1.0
  0
MTEXT
  5
1AF
330
79
100
AcDbEntity
  8
レイヤー 1
100
AcDbMText
 10
227.9710116346305
 20
24.65860467930085
 30
0.0
 40
0.2
 41
0.0
 46
0.0
 71
     7
 72
     1
  1
\C140;\c16760576;\FKozGoPr6N-Regular|b0|i0|c128;\H2.497667;\W1.043410;番
 73
     1
 44
1.0
  0
MTEXT
  5
1B0
330
79
100
AcDbEntity
  8
レイヤー 1
100
AcDbMText
 10
227.9710116346305
 20
17.15762653981527
 30
0.0
 40
0.2
 41
0.0
 46
0.0
 71
     7
 72
     1
  1
\C140;\c16760576;\FKozGoPr6N-Regular|b0|i0|c128;\H2.497667;\W1.043410;品
 73
     1
 44
1.0
  0
MTEXT
  5
1B1
330
79
100
AcDbEntity
  8
レイヤー 1
100
AcDbMText
 10
143.4443235250656
 20
26.80233687684434
 30
0.0
 40
0.2
 41
0.0
 46
0.0
 71
     7
 72
     1
  1
\C140;\c16760576;\FHGGothicE|b0|i0|c128;\H2.997200;\W1.043410;単位ｍｍ
 73
     1
 44
1.0
  0
MTEXT
  5
1B2
330
79
100
AcDbEntity
  8
レイヤー 1
100
AcDbMText
 10
162.9625119967485
 20
24.65860467930085
 30
0.0
 40
0.2
 41
0.0
 46
0.0
 71
     7
 72
     1
  1
\C140;\c16760576;\FKozGoPr6N-Regular|b0|i0|c128;\H2.497667;\W1.043410;度
 73
     1
 44
1.0
  0
MTEXT
  5
1B3
330
79
100
AcDbEntity
  8
レイヤー 1
100
AcDbMText
 10
162.9625119967485
 20
29.6592630524132
 30
0.0
 40
0.2
 41
0.0
 46
0.0
 71
     7
 72
     1
  1
\C140;\c16760576;\FKozGoPr6N-Regular|b0|i0|c128;\H2.497667;\W1.043410;尺
 73
     1
 44
1.0
  0
MTEXT
  5
1B4
330
79
100
AcDbEntity
  8
レイヤー 1
100
AcDbMText
 10
170.211208216182
 20
29.4211881140165
 30
0.0
 40
0.2
 41
0.0
 46
0.0
 71
     7
 72
     1
  1
\C110;\c8388352;\FKozGoPr6N-Regular|b0|i0|c128;\H3.750491;\W1.399880;1
 73
     1
 44
1.0
  0
MTEXT
  5
1B5
330
79
100
AcDbEntity
  8
レイヤー 1
100
AcDbMText
 10
175.5391129796612
 20
24.18348833115302
 30
0.0
 40
0.2
 41
0.0
 46
0.0
 71
     7
 72
     1
  1
\C110;\c8388352;\FKozGoPr6N-Regular|b0|i0|c128;\H3.750491;\W1.043410;２
 73
     1
 44
1.0
  0
MTEXT
  5
1B6
330
79
100
AcDbEntity
  8
レイヤー 1
100
AcDbMText
 10
227.9710116346305
 20
12.15697220392419
 30
0.0
 40
0.2
 41
0.0
 46
0.0
 71
     7
 72
     1
  1
\C140;\c16760576;\FKozGoPr6N-Regular|b0|i0|c128;\H2.497667;\W1.043410;名
 73
     1
 44
1.0
  0
LINE
  5
1B7
330
79
100
AcDbEntity
  8
レイヤー 1
 62
     4
420
    65535
370
    25
100
AcDbLine
 10
182.0755003285927
 20
35.00458285694273
 30
0.0
 11
182.0755003285927
 21
10.00130938769819
 31
0.0
  0
LINE
  5
1B8
330
79
100
AcDbEntity
  8
レイヤー 1
 62
     4
420
    65535
370
    25
100
AcDbLine
 10
232.0820472670824
 20
35.00458285694273
 30
0.0
 11
232.0820472670824
 21
10.00130938769819
 31
0.0
  0
LINE
  5
1B9
330
79
100
AcDbEntity
  8
レイヤー 1
 62
     4
420
    65535
370
    25
100
AcDbLine
 10
197.0774644101396
 20
35.00458285694273
 30
0.0
 11
197.0774644101396
 21
15.00196408154697
 31
0.0
  0
LINE
  5
1BA
330
79
100
AcDbEntity
  8
レイヤー 1
 62
     4
420
    65535
370
    25
100
AcDbLine
 10
212.0794284916867
 20
35.00458285694273
 30
0.0
 11
212.0794284916867
 21
15.00196408154697
 31
0.0
  0
LINE
  5
1BB
330
79
100
AcDbEntity
  8
レイヤー 1
 62
     4
420
    65535
370
    25
100
AcDbLine
 10
227.0813925732336
 20
35.00458285694273
 30
0.0
 11
227.0813925732336
 21
10.00130938769819
 31
0.0
  0
LINE
  5
1BC
330
79
100
AcDbEntity
  8
レイヤー 1
 62
   120
420
    65471
370
    25
100
AcDbLine
 10
115.0667274310162
 20
10.00130938769819
 30
0.0
 11
115.0667274310162
 21
287.0375794269313
 31
0.0
  0
LINE
  5
1BD
330
79
100
AcDbEntity
  8
レイヤー 1
 62
   120
420
    65471
370
    25
100
AcDbLine
 10
115.0667274310162
 20
287.0375794269313
 30
0.0
 11
305.0916057972775
 21
287.0375794269313
 31
0.0
  0
LINE
  5
1BE
330
79
100
AcDbEntity
  8
レイヤー 1
 62
   120
420
    65471
370
    25
100
AcDbLine
 10
305.0916057972775
 20
10.00130938769819
 30
0.0
 11
305.0916057972775
 21
287.0375794269313
 31
0.0
  0
LINE
  5
1BF
330
79
100
AcDbEntity
  8
レイヤー 1
 62
   120
420
    65471
370
    25
100
AcDbLine
 10
115.0667274310162
 20
10.00130938769819
 30
0.0
 11
305.0916057972775
 21
10.00130938769819
 31
0.0
  0
LINE
  5
1C0
330
79
100
AcDbEntity
  8
レイヤー 1
 62
     4
420
    65535
370
    25
100
AcDbLine
 10
315.0929151849751
 20
0.0
 30
0.0
 11
315.0929151849751
 21
297.0388888146292
 31
0.0
  0
LINE
  5
1C1
330
79
100
AcDbEntity
  8
レイヤー 1
 62
     4
420
    65535
370
    25
100
AcDbLine
 10
105.0654180433184
 20
0.0
 30
0.0
 11
105.0654180433184
 21
297.0388888146292
 31
0.0
  0
LINE
  5
1C2
330
79
100
AcDbEntity
  8
レイヤー 1
 62
     4
420
    65535
370
    25
100
AcDbLine
 10
105.0654180433184
 20
0.0
 30
0.0
 11
315.0929151849751
 21
0.0
 31
0.0
  0
LINE
  5
1C3
330
79
100
AcDbEntity
  8
レイヤー 1
 62
     4
420
    65535
370
    25
100
AcDbLine
 10
105.0654180433184
 20
297.0388888146292
 30
0.0
 11
315.0929151849751
 21
297.0388888146292
 31
0.0
  0
INSERT
  5
1C5
330
79
100
AcDbEntity
  8
レイヤー 1
100
AcDbBlockReference
  2
Block_40
 10
0.0
 20
0.0
 30
0.0
  0
INSERT
  5
1D3
330
79
100
AcDbEntity
  8
レイヤー 1
100
AcDbBlockReference
  2
Block_41
 10
0.0
 20
0.0
 30
0.0
  0
INSERT
  5
1E1
330
79
100
AcDbEntity
  8
レイヤー 1
100
AcDbBlockReference
  2
Block_42
 10
0.0
 20
0.0
 30
0.0
  0
INSERT
  5
1EF
330
79
100
AcDbEntity
  8
レイヤー 1
100
AcDbBlockReference
  2
Block_43
 10
0.0
 20
0.0
 30
0.0
  0
LINE
  5
1FF
330
79
100
AcDbEntity
  8
レイヤー 1
 62
     3
420
    65280
370
    25
100
AcDbLine
 10
213.7369454965096
 20
148.7569104967614
 30
0.0
 11
192.234130312959
 21
148.7569104967614
 31
0.0
  0
LINE
  5
200
330
79
100
AcDbEntity
  8
レイヤー 1
 62
     3
420
    65280
370
    25
100
AcDbLine
 10
213.7369454965096
 20
142.7561248641427
 30
0.0
 11
192.234130312959
 21
142.7561248641427
 31
0.0
  0
SPLINE
  5
201
330
79
100
AcDbEntity
  8
レイヤー 1
 62
     3
420
    65280
370
    25
100
AcDbSpline
210
0.0
220
0.0
230
1.0
 70
     8
 71
     3
 72
    11
 73
     7
 74
     0
 42
0.0000000001
 43
0.0000000001
 40
0.0
 40
0.0
 40
0.0
 40
0.0
 40
1.0
 40
1.0
 40
1.0
 40
2.0
 40
2.0
 40
2.0
 40
2.0
 10
213.736945491068
 20
142.756124858746
 30
0.0
 10
215.394016689998
 20
144.3993871250572
 30
0.0
 10
215.4052110416868
 20
147.0748360189199
 30
0.0
 10
213.7619487753755
 20
148.7319072178502
 30
0.0
 10
213.7536492556965
 20
148.7402764814226
 30
0.0
 10
213.7453147546401
 20
148.7486109824787
 30
0.0
 10
213.736945491068
 20
148.756910502158
 30
0.0
  0
SPLINE
  5
202
330
79
100
AcDbEntity
  8
レイヤー 1
 62
     3
420
    65280
370
    25
100
AcDbSpline
210
0.0
220
0.0
230
1.0
 70
     8
 71
     3
 72
    11
 73
     7
 74
     0
 42
0.0000000001
 43
0.0000000001
 40
0.0
 40
0.0
 40
0.0
 40
0.0
 40
1.0
 40
1.0
 40
1.0
 40
2.0
 40
2.0
 40
2.0
 40
2.0
 10
192.234130318401
 20
148.756910502158
 30
0.0
 10
190.577059119471
 20
147.1136482358469
 30
0.0
 10
190.5658647677825
 20
144.4381993419835
 30
0.0
 10
192.2091270340931
 20
142.7811281430535
 30
0.0
 10
192.2174265537725
 20
142.7727588794815
 30
0.0
 10
192.2257610548282
 20
142.764424378425
 30
0.0
 10
192.234130318401
 20
142.756124858746
 30
0.0
  0
ELLIPSE
  5
203
330
79
100
AcDbEntity
  8
レイヤー 1
 62
     3
420
    65280
370
    25
100
AcDbEllipse
 10
202.9855379047345
 20
145.7565176804519
 30
0.0
 11
5.333380506614043
 21
0.0
 31
0.0
210
0.0
220
0.0
230
1.0
 40
0.562568999999956
 41
0.0
 42
6.283185307179586
  0
ELLIPSE
  5
204
330
79
100
AcDbEntity
  8
レイヤー 1
 62
     3
420
    65280
370
    25
100
AcDbEllipse
 10
212.30847447876
 20
145.7565176804519
 30
0.0
 11
0.0000000000000002
 21
3.00039281630949
 31
0.0
210
0.0
220
0.0
230
1.0
 40
0.8927609999998701
 41
0.0
 42
6.283185307179586
  0
ELLIPSE
  5
205
330
79
100
AcDbEntity
  8
レイヤー 1
 62
     3
420
    65280
370
    25
100
AcDbEllipse
 10
193.662601330709
 20
145.7565176804519
 30
0.0
 11
0.0000000000000002
 21
3.00039281630949
 31
0.0
210
0.0
220
0.0
230
1.0
 40
0.8927609999999233
 41
0.0
 42
6.283185307179586
  0
LINE
  5
206
330
79
100
AcDbEntity
  8
レイヤー 1
 62
     3
420
    65280
370
    25
100
AcDbLine
 10
175.7319848252214
 20
189.0121677805435
 30
0.0
 11
154.2291696416708
 21
189.0121677805435
 31
0.0
  0
LINE
  5
207
330
79
100
AcDbEntity
  8
レイヤー 1
 62
     3
420
    65280
370
    25
100
AcDbLine
 10
175.7319848252214
 20
183.0113821479245
 30
0.0
 11
154.2291696416708
 21
183.0113821479245
 31
0.0
  0
SPLINE
  5
208
330
79
100
AcDbEntity
  8
レイヤー 1
 62
     3
420
    65280
370
    25
100
AcDbSpline
210
0.0
220
0.0
230
1.0
 70
     8
 71
     3
 72
    11
 73
     7
 74
     0
 42
0.0000000001
 43
0.0000000001
 40
0.0
 40
0.0
 40
0.0
 40
0.0
 40
1.0
 40
1.0
 40
1.0
 40
2.0
 40
2.0
 40
2.0
 40
2.0
 10
175.7319848197795
 20
183.0113821425282
 30
0.0
 10
177.3890560187094
 20
184.6546444088394
 30
0.0
 10
177.4002503703985
 20
187.3300933027021
 30
0.0
 10
175.7569881040874
 20
188.9871645016324
 30
0.0
 10
175.7486885844083
 20
188.9955337652047
 30
0.0
 10
175.7403540833519
 20
189.0038682662608
 30
0.0
 10
175.7319848197795
 20
189.0121677859399
 30
0.0
  0
SPLINE
  5
209
330
79
100
AcDbEntity
  8
レイヤー 1
 62
     3
420
    65280
370
    25
100
AcDbSpline
210
0.0
220
0.0
230
1.0
 70
     8
 71
     3
 72
    11
 73
     7
 74
     0
 42
0.0000000001
 43
0.0000000001
 40
0.0
 40
0.0
 40
0.0
 40
0.0
 40
1.0
 40
1.0
 40
1.0
 40
2.0
 40
2.0
 40
2.0
 40
2.0
 10
154.2291696471128
 20
189.0121677859399
 30
0.0
 10
152.5720984481829
 20
187.3689055196293
 30
0.0
 10
152.5609040964941
 20
184.6934566257656
 30
0.0
 10
154.2041663628049
 20
183.0363854268357
 30
0.0
 10
154.2124658824843
 20
183.0280161632633
 30
0.0
 10
154.2208003835404
 20
183.0196816622072
 30
0.0
 10
154.2291696471128
 20
183.0113821425282
 30
0.0
  0
ELLIPSE
  5
20A
330
79
100
AcDbEntity
  8
レイヤー 1
 62
     3
420
    65280
370
    25
100
AcDbEllipse
 10
164.9805772334462
 20
186.011774964234
 30
0.0
 11
5.333380506613802
 21
0.0
 31
0.0
210
0.0
220
0.0
230
1.0
 40
0.5625689999999814
 41
0.0
 42
6.283185307179586
  0
ELLIPSE
  5
20B
330
79
100
AcDbEntity
  8
レイヤー 1
 62
     3
420
    65280
370
    25
100
AcDbEllipse
 10
174.3035138074716
 20
186.0117749642339
 30
0.0
 11
0.0000000000000002
 21
3.000392816309571
 31
0.0
210
0.0
220
0.0
230
1.0
 40
0.8927609999998992
 41
0.0
 42
6.283185307179586
  0
ELLIPSE
  5
20C
330
79
100
AcDbEntity
  8
レイヤー 1
 62
     3
420
    65280
370
    25
100
AcDbEllipse
 10
155.6576406594208
 20
186.0117749642339
 30
0.0
 11
0.0000000000000002
 21
3.000392816309571
 31
0.0
210
0.0
220
0.0
230
1.0
 40
0.8927609999998992
 41
0.0
 42
6.283185307179586
  0
INSERT
  5
20E
330
79
100
AcDbEntity
  8
レイヤー 1
100
AcDbBlockReference
  2
Block_44
 10
0.0
 20
0.0
 30
0.0
  0
SPLINE
  5
21E
330
79
100
AcDbEntity
  8
レイヤー 1
 62
     3
420
    65280
370
    25
100
AcDbSpline
210
0.0
220
0.0
230
1.0
 70
     8
 71
     3
 72
     8
 73
     4
 74
     0
 42
0.0000000001
 43
0.0000000001
 40
0.0
 40
0.0
 40
0.0
 40
0.0
 40
1.0
 40
1.0
 40
1.0
 40
1.0
 10
174.9818715276252
 20
211.5151116730968
 30
0.0
 10
176.58208115173
 20
213.2339160653795
 30
0.0
 10
176.58208115173
 20
215.8971064663202
 30
0.0
 10
174.9818715276252
 20
217.6159108586027
 30
0.0
  0
ELLIPSE
  5
21F
330
79
100
AcDbEntity
  8
レイヤー 1
 62
     3
420
    65280
370
    25
100
AcDbEllipse
 10
173.9167011653312
 20
214.5655112658499
 30
0.0
 11
0.0000000000000002
 21
3.00039281630933
 31
0.0
210
0.0
220
0.0
230
1.0
 40
0.7550099999999597
 41
0.0
 42
6.283185307179586
  0
ELLIPSE
  5
220
330
79
100
AcDbEntity
  8
レイヤー 1
 62
     3
420
    65280
370
    25
100
AcDbEllipse
 10
164.9805622314821
 20
214.5655112658499
 30
0.0
 11
4.457530414324798
 21
0.0
 31
0.0
210
0.0
220
0.0
230
1.0
 40
0.6731069999999816
 41
0.0
 42
6.283185307179586
  0
SPLINE
  5
221
330
79
100
AcDbEntity
  8
レイヤー 1
 62
     3
420
    65280
370
    25
100
AcDbSpline
210
0.0
220
0.0
230
1.0
 70
     8
 71
     3
 72
     8
 73
     4
 74
     0
 42
0.0000000001
 43
0.0000000001
 40
0.0
 40
0.0
 40
0.0
 40
0.0
 40
1.0
 40
1.0
 40
1.0
 40
1.0
 10
154.979252935339
 20
217.6159108586027
 30
0.0
 10
153.3790433112342
 20
215.8971064663202
 30
0.0
 10
153.3790433112342
 20
213.2339160653795
 30
0.0
 10
154.979252935339
 20
211.5151116730968
 30
0.0
  0
ELLIPSE
  5
222
330
79
100
AcDbEntity
  8
レイヤー 1
 62
     3
420
    65280
370
    25
100
AcDbEllipse
 10
156.0444232976332
 20
214.5655112658499
 30
0.0
 11
0.0000000000000002
 21
3.00039281630933
 31
0.0
210
0.0
220
0.0
230
1.0
 40
0.7550099999999597
 41
0.0
 42
6.283185307179586
  0
LINE
  5
223
330
79
100
AcDbEntity
  8
レイヤー 1
 62
     3
420
    65280
370
    25
100
AcDbLine
 10
174.9818716191797
 20
217.6159106290977
 30
0.0
 11
154.9792528437842
 21
217.6159106290977
 31
0.0
  0
INSERT
  5
225
330
79
100
AcDbEntity
  8
レイヤー 1
100
AcDbBlockReference
  2
Block_45
 10
0.0
 20
0.0
 30
0.0
  0
INSERT
  5
233
330
79
100
AcDbEntity
  8
レイヤー 1
100
AcDbBlockReference
  2
Block_46
 10
0.0
 20
0.0
 30
0.0
  0
MTEXT
  5
23A
330
79
100
AcDbEntity
  8
レイヤー 1
100
AcDbMText
 10
182.1493468782908
 20
225.7349078143888
 30
0.0
 40
0.2
 41
0.0
 46
0.0
 71
     7
 72
     1
  1
\C143;\c13415014;\FKozGoPr6N-Regular|b0|i0|c128;\H2.500327;\W0.989010;G1  1/4
 73
     1
 44
1.0
  0
LINE
  5
23B
330
79
100
AcDbEntity
  8
レイヤー 1
 62
     3
420
    65280
370
    25
100
AcDbLine
 10
173.4816752110255
 20
211.5151119026018
 30
0.0
 11
173.4816752110255
 21
189.0121657802816
 31
0.0
  0
LINE
  5
23C
330
79
100
AcDbEntity
  8
レイヤー 1
 62
     3
420
    65280
370
    25
100
AcDbLine
 10
156.4794492519387
 20
211.5151119026018
 30
0.0
 11
156.4794492519387
 21
189.0121657802816
 31
0.0
  0
LINE
  5
23D
330
79
100
AcDbEntity
  8
レイヤー 1
 62
     3
420
    65280
370
    25
100
AcDbLine
 10
174.9818866211442
 20
211.5151119026018
 30
0.0
 11
154.9792528437842
 21
211.5151119026018
 31
0.0
  0
INSERT
  5
23F
330
79
100
AcDbEntity
  8
レイヤー 1
100
AcDbBlockReference
  2
Block_47
 10
0.0
 20
0.0
 30
0.0
  0
SPLINE
  5
24C
330
79
100
AcDbEntity
  8
レイヤー 1
 62
     3
420
    65280
370
    25
100
AcDbSpline
210
0.0
220
0.0
230
1.0
 70
     8
 71
     3
 72
    11
 73
     7
 74
     0
 42
0.0000000001
 43
0.0000000001
 40
0.0
 40
0.0
 40
0.0
 40
0.0
 40
1.0
 40
1.0
 40
1.0
 40
2.0
 40
2.0
 40
2.0
 40
2.0
 10
157.0420224478366
 20
142.2989809686443
 30
0.0
 10
157.0301677856201
 20
127.408007581862
 30
0.0
 10
169.092076726808
 20
115.3268784356556
 30
0.0
 10
183.98305011359
 20
115.3150237734388
 30
0.0
 10
198.2911671149565
 20
115.3036331215579
 30
0.0
 10
210.1165472255302
 20
126.4705377649636
 30
0.0
 10
210.9240432241367
 20
140.7558551252455
 30
0.0
  0
SPLINE
  5
24D
330
79
100
AcDbEntity
  8
レイヤー 1
 62
     3
420
    65280
370
    25
100
AcDbSpline
210
0.0
220
0.0
230
1.0
 70
     8
 71
     3
 72
     8
 73
     4
 74
     0
 42
0.0000000001
 43
0.0000000001
 40
0.0
 40
0.0
 40
0.0
 40
0.0
 40
1.0
 40
1.0
 40
1.0
 40
1.0
 10
172.9191013386726
 20
142.3651437376796
 30
0.0
 10
172.8889763027599
 20
136.2245685795175
 30
0.0
 10
177.8424748485153
 20
131.2222277001865
 30
0.0
 10
183.9830500066778
 20
131.1921026642745
 30
0.0
  0
SPLINE
  5
24E
330
79
100
AcDbEntity
  8
レイヤー 1
 62
     3
420
    65280
370
    25
100
AcDbSpline
210
0.0
220
0.0
230
1.0
 70
     8
 71
     3
 72
     8
 73
     4
 74
     0
 42
0.0000000001
 43
0.0000000001
 40
0.0
 40
0.0
 40
0.0
 40
0.0
 40
1.0
 40
1.0
 40
1.0
 40
1.0
 10
183.9830500066778
 20
131.1921026642745
 30
0.0
 10
189.5436737314728
 20
131.1648228109882
 30
0.0
 10
194.2694090234496
 20
135.2497767317677
 30
0.0
 10
195.0469836321326
 20
140.7558332268532
 30
0.0
  0
LINE
  5
24F
330
79
100
AcDbEntity
  8
レイヤー 1
 62
     3
420
    65280
370
    25
100
AcDbLine
 10
156.4794492519387
 20
181.51118573977
 30
0.0
 11
156.4794492519387
 21
162.7587546409789
 31
0.0
  0
LINE
  5
250
330
79
100
AcDbEntity
  8
レイヤー 1
 62
     3
420
    65280
370
    25
100
AcDbLine
 10
173.4816752110255
 20
181.51118573977
 30
0.0
 11
173.4816752110255
 21
162.7587546409789
 31
0.0
  0
SPLINE
  5
251
330
79
100
AcDbEntity
  8
レイヤー 1
 62
     3
420
    65280
370
    25
100
AcDbSpline
210
0.0
220
0.0
230
1.0
 70
     8
 71
     3
 72
     8
 73
     4
 74
     0
 42
0.0000000001
 43
0.0000000001
 40
0.0
 40
0.0
 40
0.0
 40
0.0
 40
1.0
 40
1.0
 40
1.0
 40
1.0
 10
270.4943761433114
 20
185.6367288625882
 30
0.0
 10
265.9374332543249
 20
185.6367309701384
 30
0.0
 10
262.2432994155323
 20
181.8866264884739
 30
0.0
 10
262.2432972770087
 20
177.2606360664481
 30
0.0
  0
LINE
  5
252
330
79
100
AcDbEntity
  8
レイヤー 1
 62
     3
420
    65280
370
    25
100
AcDbLine
 10
221.9880257413604
 20
161.3210474140094
 30
0.0
 11
262.2432920263211
 21
161.3210474140094
 31
0.0
  0
LINE
  5
253
330
79
100
AcDbEntity
  8
レイヤー 1
 62
     3
420
    65280
370
    25
100
AcDbLine
 10
270.4943762716955
 20
177.1981280672417
 30
0.0
 11
277.9953583124687
 21
177.1981280672417
 31
0.0
  0
LINE
  5
254
330
79
100
AcDbEntity
  8
レイヤー 1
 62
     3
420
    65280
370
    25
100
AcDbLine
 10
212.4867588200356
 20
142.7561208636189
 30
0.0
 11
212.4867588200356
 21
142.6359841351229
 31
0.0
  0
LINE
  5
255
330
79
100
AcDbEntity
  8
レイヤー 1
 62
     3
420
    65280
370
    25
100
AcDbLine
 10
210.9240542282081
 20
141.0058697178913
 30
0.0
 11
211.9786903028791
 21
141.7559659217063
 31
0.0
  0
LINE
  5
256
330
79
100
AcDbEntity
  8
レイヤー 1
 62
     3
420
    65280
370
    25
100
AcDbLine
 10
156.4794342499749
 20
181.51118573977
 30
0.0
 11
164.9805472295179
 21
181.51118573977
 31
0.0
  0
LINE
  5
257
330
79
100
AcDbEntity
  8
レイヤー 1
 62
     3
420
    65280
370
    25
100
AcDbLine
 10
155.5543171321365
 20
183.0114211530311
 30
0.0
 11
155.9873858301951
 21
182.2613239490848
 31
0.0
  0
LINE
  5
258
330
79
100
AcDbEntity
  8
レイヤー 1
 62
     3
420
    65280
370
    25
100
AcDbLine
 10
155.9873808295404
 20
182.2612839438473
 30
0.0
 11
164.9805472295179
 21
182.2612839438473
 31
0.0
  0
LINE
  5
259
330
79
100
AcDbEntity
  8
レイヤー 1
 62
     3
420
    65280
370
    25
100
AcDbLine
 10
155.987368827969
 20
182.2613049465972
 30
0.0
 11
156.4794332498439
 21
181.5112047422577
 31
0.0
  0
LINE
  5
25A
330
79
100
AcDbEntity
  8
レイヤー 1
 62
   110
420
    65407
370
    25
100
AcDbLine
 10
155.9873808295404
 20
183.0114061510672
 30
0.0
 11
155.9873808295404
 21
182.26130794699
 31
0.0
  0
LINE
  5
25B
330
79
100
AcDbEntity
  8
レイヤー 1
 62
     3
420
    65280
370
    25
100
AcDbLine
 10
154.97923784182
 20
183.0113821479245
 30
0.0
 11
164.9805472295179
 21
183.0113821479245
 31
0.0
  0
LINE
  5
25C
330
79
100
AcDbEntity
  8
レイヤー 1
 62
     3
420
    65280
370
    25
100
AcDbLine
 10
212.9868132879805
 20
142.7561248641427
 30
0.0
 11
202.9855039002823
 21
142.7561248641427
 31
0.0
  0
LINE
  5
25D
330
79
100
AcDbEntity
  8
レイヤー 1
 62
     3
420
    65280
370
    25
100
AcDbLine
 10
212.4867338167626
 20
142.6359921361705
 30
0.0
 11
211.9786572985578
 21
141.7559789234086
 31
0.0
  0
LINE
  5
25E
330
79
100
AcDbEntity
  8
レイヤー 1
 62
     3
420
    65280
370
    25
100
AcDbLine
 10
211.9786813017006
 20
141.7559979258966
 30
0.0
 11
202.9854998997585
 21
141.7559979258966
 31
0.0
  0
LINE
  5
25F
330
79
100
AcDbEntity
  8
レイヤー 1
 62
   110
420
    65407
370
    25
100
AcDbLine
 10
211.9786933032719
 20
142.7561208636189
 30
0.0
 11
211.9786933032719
 21
141.7559749228848
 31
0.0
  0
LINE
  5
260
330
79
100
AcDbEntity
  8
レイヤー 1
 62
     3
420
    65280
370
    25
100
AcDbLine
 10
210.9240432267676
 20
141.0058917207714
 30
0.0
 11
202.9854998997585
 21
141.0058917207714
 31
0.0
  0
LINE
  5
261
330
79
100
AcDbEntity
  8
レイヤー 1
 62
     3
420
    65280
370
    25
100
AcDbLine
 10
172.9191015579675
 20
160.5084450267826
 30
0.0
 11
172.9191015579675
 21
142.2560513937099
 31
0.0
  0
LINE
  5
262
330
79
100
AcDbEntity
  8
レイヤー 1
 62
     3
420
    65280
370
    25
100
AcDbLine
 10
157.0420229049967
 20
160.5084490273064
 30
0.0
 11
157.0420229049967
 21
142.2560513937099
 31
0.0
  0
LINE
  5
263
330
79
100
AcDbEntity
  8
レイヤー 1
  6
AI-Linetype-4
 62
   110
420
    65407
370
    25
100
AcDbLine
 10
202.9855379047345
 20
150.2570989038686
 30
0.0
 11
202.9855379047345
 21
140.7558549855554
 31
0.0
  0
LINE
  5
265
330
79
100
AcDbEntity
  8
レイヤー 1
 62
     3
420
    65280
370
    25
100
AcDbLine
 10
156.4794532524625
 20
162.7587596416339
 30
0.0
 11
157.0420279056515
 21
160.508456028223
 31
0.0
  0
LINE
  5
266
330
79
100
AcDbEntity
  8
レイヤー 1
 62
     3
420
    65280
370
    25
100
AcDbLine
 10
270.4943762716955
 20
185.6367288625882
 30
0.0
 11
270.4943762716955
 21
152.8824376174844
 31
0.0
  0
LINE
  5
267
330
79
100
AcDbEntity
  8
レイヤー 1
 62
     3
420
    65280
370
    25
100
AcDbLine
 10
270.4943762716955
 20
161.3210454137476
 30
0.0
 11
277.9953583124687
 21
161.3210454137476
 31
0.0
  0
LINE
  5
268
330
79
100
AcDbEntity
  8
レイヤー 1
 62
     3
420
    65280
370
    25
100
AcDbLine
 10
262.2432920263211
 20
177.2606362509148
 30
0.0
 11
262.2432920263211
 21
161.2585302291579
 31
0.0
  0
SPLINE
  5
269
330
79
100
AcDbEntity
  8
レイヤー 1
 62
     3
420
    65280
370
    25
100
AcDbSpline
210
0.0
220
0.0
230
1.0
 70
     8
 71
     3
 72
     8
 73
     4
 74
     0
 42
0.0000000001
 43
0.0000000001
 40
0.0
 40
0.0
 40
0.0
 40
0.0
 40
1.0
 40
1.0
 40
1.0
 40
1.0
 10
262.2432972770087
 20
161.2585304136245
 30
0.0
 10
262.2432994155323
 20
156.6325399915987
 30
0.0
 10
265.9374332543249
 20
152.8824355099346
 30
0.0
 10
270.4943761433114
 20
152.8824376174848
 30
0.0
  0
LINE
  5
26A
330
79
100
AcDbEntity
  8
レイヤー 1
 62
     3
420
    65280
370
    25
100
AcDbLine
 10
221.9880257413604
 20
177.1981260669801
 30
0.0
 11
262.2432920263211
 21
177.1981260669801
 31
0.0
  0
LINE
  5
26B
330
79
100
AcDbEntity
  8
レイヤー 1
 62
     3
420
    65280
370
    25
100
AcDbLine
 10
192.9842245165125
 20
142.7561248641427
 30
0.0
 11
202.9855339042107
 21
142.7561248641427
 31
0.0
  0
LINE
  5
26C
330
79
100
AcDbEntity
  8
レイヤー 1
 62
     3
420
    65280
370
    25
100
AcDbLine
 10
193.9923565027925
 20
141.7559979258966
 30
0.0
 11
202.9855379047345
 21
141.7559979258966
 31
0.0
  0
LINE
  5
26D
330
79
100
AcDbEntity
  8
レイヤー 1
 62
     3
420
    65280
370
    25
100
AcDbLine
 10
195.0469945777254
 20
141.0058917207714
 30
0.0
 11
202.9855379047345
 21
141.0058917207714
 31
0.0
  0
LINE
  5
26E
330
79
100
AcDbEntity
  8
レイヤー 1
 62
     3
420
    65280
370
    25
100
AcDbLine
 10
193.4843029875997
 20
142.6359921361705
 30
0.0
 11
193.9923805059351
 21
141.7559789234086
 31
0.0
  0
LINE
  5
26F
330
79
100
AcDbEntity
  8
レイヤー 1
 62
     3
420
    65280
370
    25
100
AcDbLine
 10
193.4842789844573
 20
142.7561208636189
 30
0.0
 11
193.4842789844573
 21
142.6359841351229
 31
0.0
  0
LINE
  5
270
330
79
100
AcDbEntity
  8
レイヤー 1
 62
     3
420
    65280
370
    25
100
AcDbLine
 10
195.0469835762849
 20
141.0058697178913
 30
0.0
 11
193.9923475016142
 21
141.7559659217063
 31
0.0
  0
LINE
  5
271
330
79
100
AcDbEntity
  8
レイヤー 1
 62
   110
420
    65407
370
    25
100
AcDbLine
 10
193.9923445012217
 20
142.7561208636189
 30
0.0
 11
193.9923445012217
 21
141.7559749228848
 31
0.0
  0
LINE
  5
272
330
79
100
AcDbEntity
  8
レイヤー 1
 62
     3
420
    65280
370
    25
100
AcDbLine
 10
173.4816902129893
 20
181.51118573977
 30
0.0
 11
164.9805772334463
 21
181.51118573977
 31
0.0
  0
LINE
  5
273
330
79
100
AcDbEntity
  8
レイヤー 1
 62
     3
420
    65280
370
    25
100
AcDbLine
 10
173.9737436334238
 20
182.2612839438473
 30
0.0
 11
164.9805772334463
 21
182.2612839438473
 31
0.0
  0
LINE
  5
274
330
79
100
AcDbEntity
  8
レイヤー 1
 62
     3
420
    65280
370
    25
100
AcDbLine
 10
174.9818866211442
 20
183.0113821479245
 30
0.0
 11
164.9805772334463
 21
183.0113821479245
 31
0.0
  0
LINE
  5
275
330
79
100
AcDbEntity
  8
レイヤー 1
 62
   110
420
    65407
370
    25
100
AcDbLine
 10
173.9737436334238
 20
183.0114061510672
 30
0.0
 11
173.9737436334238
 21
182.26130794699
 31
0.0
  0
LINE
  5
276
330
79
100
AcDbEntity
  8
レイヤー 1
 62
     3
420
    65280
370
    25
100
AcDbLine
 10
173.9737556349952
 20
182.2613049465972
 30
0.0
 11
173.4816902129893
 21
181.5112047422577
 31
0.0
  0
LINE
  5
277
330
79
100
AcDbEntity
  8
レイヤー 1
 62
     3
420
    65280
370
    25
100
AcDbLine
 10
174.4068073308278
 20
183.0114211530311
 30
0.0
 11
173.9737386327691
 21
182.2613239490848
 31
0.0
  0
LINE
  5
278
330
79
100
AcDbEntity
  8
レイヤー 1
 62
     3
420
    65280
370
    25
100
AcDbLine
 10
173.4816712105017
 20
162.7587596416339
 30
0.0
 11
172.9190965573127
 21
160.508456028223
 31
0.0
  0
LINE
  5
279
330
79
100
AcDbEntity
  8
レイヤー 1
 62
     3
420
    65280
370
    25
100
AcDbLine
 10
156.9795147213237
 20
162.7587596416339
 30
0.0
 11
172.9816097416405
 21
162.7587596416339
 31
0.0
  0
LINE
  5
27A
330
79
100
AcDbEntity
  8
レイヤー 1
 62
     3
420
    65280
370
    25
100
AcDbLine
 10
171.2408298359028
 20
160.5084450267826
 30
0.0
 11
158.5453217193238
 21
160.5084450267826
 31
0.0
  0
SPLINE
  5
27B
330
79
100
AcDbEntity
  8
レイヤー 1
  6
AI-Linetype-5
 62
   110
420
    65407
370
    25
100
AcDbSpline
210
0.0
220
0.0
230
1.0
 70
     8
 71
     3
 72
    11
 73
     7
 74
     0
 42
0.0000000001
 43
0.0000000001
 40
0.0
 40
0.0
 40
0.0
 40
0.0
 40
1.0
 40
1.0
 40
1.0
 40
2.0
 40
2.0
 40
2.0
 40
2.0
 10
164.9805622314821
 20
142.2560513937099
 30
0.0
 10
164.9805622314821
 20
131.7612671526964
 30
0.0
 10
173.4882658270944
 20
123.253563557084
 30
0.0
 10
183.9830500681079
 20
123.253563557084
 30
0.0
 10
194.4778343091221
 20
123.253563557084
 30
0.0
 10
202.9855379047345
 20
131.7612671526964
 30
0.0
 10
202.9855379047345
 20
142.2560513937099
 30
0.0
  0
SPLINE
  5
27D
330
79
100
AcDbEntity
  8
レイヤー 1
  6
AI-Linetype-6
 62
   110
420
    65407
370
    25
100
AcDbSpline
210
0.0
220
0.0
230
1.0
 70
     8
 71
     3
 72
     8
 73
     4
 74
     0
 42
0.0000000001
 43
0.0000000001
 40
0.0
 40
0.0
 40
0.0
 40
0.0
 40
1.0
 40
1.0
 40
1.0
 40
1.0
 10
221.9880257413604
 20
169.2595867404948
 30
0.0
 10
211.4932415003468
 20
169.2595867404948
 30
0.0
 10
202.9855379047345
 20
160.7518831448824
 30
0.0
 10
202.9855379047345
 20
150.2570989038686
 30
0.0
  0
LINE
  5
27F
330
79
100
AcDbEntity
  8
レイヤー 1
 62
     3
420
    65280
370
    25
100
AcDbLine
 10
210.9240432267676
 20
140.7558549855554
 30
0.0
 11
210.9240432267676
 21
141.0058917207714
 31
0.0
  0
LINE
  5
280
330
79
100
AcDbEntity
  8
レイヤー 1
 62
     3
420
    65280
370
    25
100
AcDbLine
 10
195.0469835762849
 20
140.7558339828055
 30
0.0
 11
195.0469835762849
 21
141.0058697178913
 31
0.0
  0
SPLINE
  5
281
330
79
100
AcDbEntity
  8
レイヤー 1
 62
     3
420
    65280
370
    25
100
AcDbSpline
210
0.0
220
0.0
230
1.0
 70
     8
 71
     3
 72
     8
 73
     4
 74
     0
 42
0.0000000001
 43
0.0000000001
 40
0.0
 40
0.0
 40
0.0
 40
0.0
 40
1.0
 40
1.0
 40
1.0
 40
1.0
 10
221.9880257413604
 20
177.1981260669801
 30
0.0
 10
207.1089072943971
 20
177.1981260669801
 30
0.0
 10
195.0469985782491
 20
165.1362173508322
 30
0.0
 10
195.0469985782491
 20
150.2570989038686
 30
0.0
  0
SPLINE
  5
282
330
79
100
AcDbEntity
  8
レイヤー 1
 62
     3
420
    65280
370
    25
100
AcDbSpline
210
0.0
220
0.0
230
1.0
 70
     8
 71
     3
 72
     8
 73
     4
 74
     0
 42
0.0000000001
 43
0.0000000001
 40
0.0
 40
0.0
 40
0.0
 40
0.0
 40
1.0
 40
1.0
 40
1.0
 40
1.0
 10
221.9880257413604
 20
161.3210474140094
 30
0.0
 10
215.8775757062966
 20
161.3210474140094
 30
0.0
 10
210.9240772312198
 20
156.3675489389324
 30
0.0
 10
210.9240772312198
 20
150.2570989038686
 30
0.0
  0
LINE
  5
283
330
79
100
AcDbEntity
  8
レイヤー 1
 62
     3
420
    65280
370
    25
100
AcDbLine
 10
195.0469985782491
 20
150.2570989038686
 30
0.0
 11
195.0469985782491
 21
148.7569064962376
 31
0.0
  0
LINE
  5
284
330
79
100
AcDbEntity
  8
レイヤー 1
 62
     3
420
    65280
370
    25
100
AcDbLine
 10
210.9240772312198
 20
150.2570989038686
 30
0.0
 11
210.9240772312198
 21
148.7569064962376
 31
0.0
  0
INSERT
  5
286
330
79
100
AcDbEntity
  8
レイヤー 1
100
AcDbBlockReference
  2
Block_48
 10
0.0
 20
0.0
 30
0.0
  0
LINE
  5
293
330
79
100
AcDbEntity
  8
レイヤー 1
 62
     3
420
    65280
370
    25
100
AcDbLine
 10
277.9953583124687
 20
161.3210454137476
 30
0.0
 11
277.9953583124687
 21
177.1981280672417
 31
0.0
  0
INSERT
  5
295
330
79
100
AcDbEntity
  8
レイヤー 1
100
AcDbBlockReference
  2
Block_49
 10
0.0
 20
0.0
 30
0.0
  0
LINE
  5
2A4
330
79
100
AcDbEntity
  8
レイヤー 1
  6
AI-Linetype-7
 62
   110
420
    65407
370
    25
100
AcDbLine
 10
221.9880257413604
 20
169.2595867404948
 30
0.0
 11
280.4956856593938
 21
169.2595867404948
 31
0.0
  0
LINE
  5
2A6
330
79
100
AcDbEntity
  8
レイヤー 1
  6
AI-Linetype-8
 62
   110
420
    65407
370
    25
100
AcDbLine
 10
164.9805622314821
 20
220.0162228818832
 30
0.0
 11
164.9805622314821
 21
142.5060881289266
 31
0.0
  0
INSERT
  5
2A9
330
79
100
AcDbEntity
  8
レイヤー 1
100
AcDbBlockReference
  2
Block_50
 10
0.0
 20
0.0
 30
0.0
  0
ENDBLK
  5
7C
330
79
100
AcDbEntity
  8
0
100
AcDbBlockEnd
  0
BLOCK
  5
7F
330
7D
100
AcDbEntity
  8
0
100
AcDbBlockBegin
  2
Block_1
 70
     0
 10
0.0
 20
0.0
 30
0.0
  3
Block_1
  1

  0
MTEXT
  5
81
330
7D
100
AcDbEntity
  8
レイヤー 1
100
AcDbMText
 10
119.77172670549
 20
53.10713198711656
 30
0.0
 40
0.2
 41
0.0
 46
0.0
 71
     7
 72
     1
  1
\C143;\c13415014;\FKozGoPr6N-Regular|b0|i0|c128;\H4.000523;\W0.853530;※1　（ ）内寸法は参考寸法である。
 73
     1
 44
1.0
  0
MTEXT
  5
82
330
7D
100
AcDbEntity
  8
レイヤー 1
100
AcDbMText
 10
119.77172670549
 20
46.70629529844983
 30
0.0
 40
0.2
 41
0.0
 46
0.0
 71
     7
 72
     1
  1
\C143;\c13415014;\FKozGoPr6N-Regular|b0|i0|c128;\H4.000523;\W0.853530;※2　テール管の差込代は、15ｍｍ以上を確保すること。
 73
     1
 44
1.0
  0
MTEXT
  5
83
330
7D
100
AcDbEntity
  8
レイヤー 1
100
AcDbMText
 10
119.77172670549
 20
40.30545860978312
 30
0.0
 40
0.2
 41
0.0
 46
0.0
 71
     7
 72
     1
  1
\C143;\c13415014;\FKozGoPr6N-Regular|b0|i0|c128;\H4.000523;\W0.853530;※3　壁排水管の差込代は、40ｍｍ以上を確保すること。
 73
     1
 44
1.0
  0
ENDBLK
  5
80
330
7D
100
AcDbEntity
  8
0
100
AcDbBlockEnd
  0
BLOCK
  5
92
330
90
100
AcDbEntity
  8
0
100
AcDbBlockBegin
  2
Block_2
 70
     0
 10
0.0
 20
0.0
 30
0.0
  3
Block_2
  1

  0
LWPOLYLINE
  5
94
330
90
100
AcDbEntity
  8
レイヤー 1
 62
   143
420
  6730444
370
    25
100
AcDbPolyline
 90
        1
 70
     0
 43
0.0
 10
159.6933190169976
 20
15.16096689845445
  0
LWPOLYLINE
  5
95
330
90
100
AcDbEntity
  8
レイヤー 1
 62
   143
420
  6730444
370
    25
100
AcDbPolyline
 90
        1
 70
     0
 43
0.0
 10
158.4594576544698
 20
13.70219989340929
  0
ENDBLK
  5
93
330
90
100
AcDbEntity
  8
0
100
AcDbBlockEnd
  0
BLOCK
  5
99
330
97
100
AcDbEntity
  8
0
100
AcDbBlockBegin
  2
Block_3
 70
     0
 10
0.0
 20
0.0
 30
0.0
  3
Block_3
  1

  0
LWPOLYLINE
  5
9B
330
97
100
AcDbEntity
  8
レイヤー 1
 62
   143
420
  6730444
370
    25
100
AcDbPolyline
 90
        1
 70
     0
 43
0.0
 10
174.9445537334616
 20
13.87132305618456
  0
LWPOLYLINE
  5
9C
330
97
100
AcDbEntity
  8
レイヤー 1
 62
   143
420
  6730444
370
    25
100
AcDbPolyline
 90
        1
 70
     0
 43
0.0
 10
174.9445537334616
 20
18.30920607104946
  0
ENDBLK
  5
9A
330
97
100
AcDbEntity
  8
0
100
AcDbBlockEnd
  0
BLOCK
  5
9F
330
9D
100
AcDbEntity
  8
0
100
AcDbBlockBegin
  2
Block_4
 70
     0
 10
0.0
 20
0.0
 30
0.0
  3
Block_4
  1

  0
LWPOLYLINE
  5
A1
330
9D
100
AcDbEntity
  8
レイヤー 1
 62
   143
420
  6730444
370
    25
100
AcDbPolyline
 90
        1
 70
     0
 43
0.0
 10
173.6723841789539
 20
13.87132305618456
  0
LWPOLYLINE
  5
A2
330
9D
100
AcDbEntity
  8
レイヤー 1
 62
   143
420
  6730444
370
    25
100
AcDbPolyline
 90
        1
 70
     0
 43
0.0
 10
173.6723841789539
 20
18.30920607104946
  0
ENDBLK
  5
A0
330
9D
100
AcDbEntity
  8
0
100
AcDbBlockEnd
  0
BLOCK
  5
A5
330
A3
100
AcDbEntity
  8
0
100
AcDbBlockBegin
  2
Block_5
 70
     0
 10
0.0
 20
0.0
 30
0.0
  3
Block_5
  1

  0
LWPOLYLINE
  5
A7
330
A3
100
AcDbEntity
  8
レイヤー 1
 62
   143
420
  6730444
370
    25
100
AcDbPolyline
 90
        1
 70
     0
 43
0.0
 10
145.1789127673153
 20
18.30900104420665
  0
LWPOLYLINE
  5
A8
330
A3
100
AcDbEntity
  8
レイヤー 1
 62
   143
420
  6730444
370
    25
100
AcDbPolyline
 90
        1
 70
     0
 43
0.0
 10
147.6937000073527
 20
13.87112503025838
  0
ENDBLK
  5
A6
330
A3
100
AcDbEntity
  8
0
100
AcDbBlockEnd
  0
BLOCK
  5
AD
330
AB
100
AcDbEntity
  8
0
100
AcDbBlockBegin
  2
Block_6
 70
     0
 10
0.0
 20
0.0
 30
0.0
  3
Block_6
  1

  0
LWPOLYLINE
  5
AF
330
AB
100
AcDbEntity
  8
レイヤー 1
 62
   143
420
  6730444
370
    25
100
AcDbPolyline
 90
        1
 70
     0
 43
0.0
 10
144.2694566998474
 20
17.3342754315434
  0
LWPOLYLINE
  5
B0
330
AB
100
AcDbEntity
  8
レイヤー 1
 62
   143
420
  6730444
370
    25
100
AcDbPolyline
 90
        1
 70
     0
 43
0.0
 10
145.3096498836315
 20
15.49864810822813
  0
ENDBLK
  5
AE
330
AB
100
AcDbEntity
  8
0
100
AcDbBlockEnd
  0
BLOCK
  5
B3
330
B1
100
AcDbEntity
  8
0
100
AcDbBlockBegin
  2
Block_7
 70
     0
 10
0.0
 20
0.0
 30
0.0
  3
Block_7
  1

  0
LWPOLYLINE
  5
B5
330
B1
100
AcDbEntity
  8
レイヤー 1
 62
   143
420
  6730444
370
    25
100
AcDbPolyline
 90
        1
 70
     0
 43
0.0
 10
144.2702688061697
 20
17.33359134198158
  0
LWPOLYLINE
  5
B6
330
B1
100
AcDbEntity
  8
レイヤー 1
 62
   143
420
  6730444
370
    25
100
AcDbPolyline
 90
        1
 70
     0
 43
0.0
 10
143.2300656210761
 20
15.49790801133329
  0
ENDBLK
  5
B4
330
B1
100
AcDbEntity
  8
0
100
AcDbBlockEnd
  0
BLOCK
  5
BA
330
B8
100
AcDbEntity
  8
0
100
AcDbBlockBegin
  2
Block_8
 70
     0
 10
0.0
 20
0.0
 30
0.0
  3
Block_8
  1

  0
LWPOLYLINE
  5
BC
330
B8
100
AcDbEntity
  8
レイヤー 1
 62
   143
420
  6730444
370
    25
100
AcDbPolyline
 90
        1
 70
     0
 43
0.0
 10
145.8124977172879
 20
14.61086887872674
  0
LWPOLYLINE
  5
BD
330
B8
100
AcDbEntity
  8
レイヤー 1
 62
   143
420
  6730444
370
    25
100
AcDbPolyline
 90
        1
 70
     0
 43
0.0
 10
142.7262856653847
 20
14.61086887872674
  0
ENDBLK
  5
BB
330
B8
100
AcDbEntity
  8
0
100
AcDbBlockEnd
  0
BLOCK
  5
C0
330
BE
100
AcDbEntity
  8
0
100
AcDbBlockBegin
  2
Block_9
 70
     0
 10
0.0
 20
0.0
 30
0.0
  3
Block_9
  1

  0
LWPOLYLINE
  5
C2
330
BE
100
AcDbEntity
  8
レイヤー 1
 62
   143
420
  6730444
370
    25
100
AcDbPolyline
 90
        1
 70
     0
 43
0.0
 10
143.3592455335204
 20
18.30929608283403
  0
LWPOLYLINE
  5
C3
330
BE
100
AcDbEntity
  8
レイヤー 1
 62
   143
420
  6730444
370
    25
100
AcDbPolyline
 90
        1
 70
     0
 43
0.0
 10
140.8444842968879
 20
13.87148407726507
  0
ENDBLK
  5
C1
330
BE
100
AcDbEntity
  8
0
100
AcDbBlockEnd
  0
BLOCK
  5
C8
330
C6
100
AcDbEntity
  8
0
100
AcDbBlockBegin
  2
Block_10
 70
     0
 10
0.0
 20
0.0
 30
0.0
  3
Block_10
  1

  0
LWPOLYLINE
  5
CA
330
C6
100
AcDbEntity
  8
レイヤー 1
 62
   143
420
  6730444
370
    25
100
AcDbPolyline
 90
        1
 70
     0
 43
0.0
 10
145.1791898035853
 20
18.30919106908526
  0
LWPOLYLINE
  5
CB
330
C6
100
AcDbEntity
  8
レイヤー 1
 62
   143
420
  6730444
370
    25
100
AcDbPolyline
 90
        1
 70
     0
 43
0.0
 10
143.3596695890386
 20
18.30919106908526
  0
ENDBLK
  5
C9
330
C6
100
AcDbEntity
  8
0
100
AcDbBlockEnd
  0
BLOCK
  5
CE
330
CC
100
AcDbEntity
  8
0
100
AcDbBlockBegin
  2
Block_11
 70
     0
 10
0.0
 20
0.0
 30
0.0
  3
Block_11
  1

  0
LWPOLYLINE
  5
D0
330
CC
100
AcDbEntity
  8
レイヤー 1
 62
   143
420
  6730444
370
    25
100
AcDbPolyline
 90
        1
 70
     0
 43
0.0
 10
161.7643161553126
 20
15.1437146397605
  0
LWPOLYLINE
  5
D1
330
CC
100
AcDbEntity
  8
レイヤー 1
 62
   143
420
  6730444
370
    25
100
AcDbPolyline
 90
        1
 70
     0
 43
0.0
 10
161.7643161553126
 20
17.03711252649245
  0
ENDBLK
  5
CF
330
CC
100
AcDbEntity
  8
0
100
AcDbBlockEnd
  0
BLOCK
  5
D4
330
D2
100
AcDbEntity
  8
0
100
AcDbBlockBegin
  2
Block_12
 70
     0
 10
0.0
 20
0.0
 30
0.0
  3
Block_12
  1

  0
LWPOLYLINE
  5
D6
330
D2
100
AcDbEntity
  8
レイヤー 1
 62
   143
420
  6730444
370
    25
100
AcDbPolyline
 90
        1
 70
     0
 43
0.0
 10
160.4921235977931
 20
13.87132305618456
  0
LWPOLYLINE
  5
D7
330
D2
100
AcDbEntity
  8
レイヤー 1
 62
   143
420
  6730444
370
    25
100
AcDbPolyline
 90
        1
 70
     0
 43
0.0
 10
160.4921235977931
 20
18.30920607104946
  0
ENDBLK
  5
D5
330
D2
100
AcDbEntity
  8
0
100
AcDbBlockEnd
  0
BLOCK
  5
DA
330
D8
100
AcDbEntity
  8
0
100
AcDbBlockBegin
  2
Block_13
 70
     0
 10
0.0
 20
0.0
 30
0.0
  3
Block_13
  1

  0
LWPOLYLINE
  5
DC
330
D8
100
AcDbEntity
  8
レイヤー 1
 62
   143
420
  6730444
370
    25
100
AcDbPolyline
 90
        1
 70
     0
 43
0.0
 10
164.2617431225147
 20
17.03682248852046
  0
LWPOLYLINE
  5
DD
330
D8
100
AcDbEntity
  8
レイヤー 1
 62
   143
420
  6730444
370
    25
100
AcDbPolyline
 90
        1
 70
     0
 43
0.0
 10
161.7643231562292
 20
17.03682248852046
  0
ENDBLK
  5
DB
330
D8
100
AcDbEntity
  8
0
100
AcDbBlockEnd
  0
BLOCK
  5
E4
330
E2
100
AcDbEntity
  8
0
100
AcDbBlockBegin
  2
Block_14
 70
     0
 10
0.0
 20
0.0
 30
0.0
  3
Block_14
  1

  0
LWPOLYLINE
  5
E6
330
E2
100
AcDbEntity
  8
レイヤー 1
 62
   143
420
  6730444
370
    25
100
AcDbPolyline
 90
        1
 70
     0
 43
0.0
 10
164.565043831137
 20
18.30919106908526
  0
LWPOLYLINE
  5
E7
330
E2
100
AcDbEntity
  8
レイヤー 1
 62
   143
420
  6730444
370
    25
100
AcDbPolyline
 90
        1
 70
     0
 43
0.0
 10
160.492176604733
 20
18.30919106908526
  0
ENDBLK
  5
E5
330
E2
100
AcDbEntity
  8
0
100
AcDbBlockEnd
  0
BLOCK
  5
ED
330
EB
100
AcDbEntity
  8
0
100
AcDbBlockBegin
  2
Block_15
 70
     0
 10
0.0
 20
0.0
 30
0.0
  3
Block_15
  1

  0
LWPOLYLINE
  5
EF
330
EB
100
AcDbEntity
  8
レイヤー 1
 62
   143
420
  6730444
370
    25
100
AcDbPolyline
 90
        1
 70
     0
 43
0.0
 10
140.5490386166585
 20
13.87144207176594
  0
LWPOLYLINE
  5
F0
330
EB
100
AcDbEntity
  8
レイヤー 1
 62
   143
420
  6730444
370
    25
100
AcDbPolyline
 90
        1
 70
     0
 43
0.0
 10
138.168816994171
 20
16.0903015684614
  0
ENDBLK
  5
EE
330
EB
100
AcDbEntity
  8
0
100
AcDbBlockEnd
  0
BLOCK
  5
F4
330
F2
100
AcDbEntity
  8
0
100
AcDbBlockBegin
  2
Block_16
 70
     0
 10
0.0
 20
0.0
 30
0.0
  3
Block_16
  1

  0
LWPOLYLINE
  5
F6
330
F2
100
AcDbEntity
  8
レイヤー 1
 62
   143
420
  6730444
370
    25
100
AcDbPolyline
 90
        1
 70
     0
 43
0.0
 10
138.7268380511956
 20
13.87125404714923
  0
LWPOLYLINE
  5
F7
330
F2
100
AcDbEntity
  8
レイヤー 1
 62
   143
420
  6730444
370
    25
100
AcDbPolyline
 90
        1
 70
     0
 43
0.0
 10
136.981253516428
 20
15.49852509212232
  0
ENDBLK
  5
F5
330
F2
100
AcDbEntity
  8
0
100
AcDbBlockEnd
  0
BLOCK
  5
FB
330
F9
100
AcDbEntity
  8
0
100
AcDbBlockBegin
  2
Block_17
 70
     0
 10
0.0
 20
0.0
 30
0.0
  3
Block_17
  1

  0
LWPOLYLINE
  5
FD
330
F9
100
AcDbEntity
  8
レイヤー 1
 62
   143
420
  6730444
370
    25
100
AcDbPolyline
 90
        1
 70
     0
 43
0.0
 10
138.7269590670392
 20
18.30871800715128
  0
LWPOLYLINE
  5
FE
330
F9
100
AcDbEntity
  8
レイヤー 1
 62
   143
420
  6730444
370
    25
100
AcDbPolyline
 90
        1
 70
     0
 43
0.0
 10
136.9814195381639
 20
16.68152997304614
  0
ENDBLK
  5
FC
330
F9
100
AcDbEntity
  8
0
100
AcDbBlockEnd
  0
BLOCK
  5
104
330
102
100
AcDbEntity
  8
0
100
AcDbBlockBegin
  2
Block_18
 70
     0
 10
0.0
 20
0.0
 30
0.0
  3
Block_18
  1

  0
LWPOLYLINE
  5
106
330
102
100
AcDbEntity
  8
レイヤー 1
 62
   143
420
  6730444
370
    25
100
AcDbPolyline
 90
        1
 70
     0
 43
0.0
 10
134.9394231966804
 20
13.87132305618456
  0
LWPOLYLINE
  5
107
330
102
100
AcDbEntity
  8
レイヤー 1
 62
   143
420
  6730444
370
    25
100
AcDbPolyline
 90
        1
 70
     0
 43
0.0
 10
134.9394231966804
 20
18.30919106908526
  0
ENDBLK
  5
105
330
102
100
AcDbEntity
  8
0
100
AcDbBlockEnd
  0
BLOCK
  5
110
330
10E
100
AcDbEntity
  8
0
100
AcDbBlockBegin
  2
Block_19
 70
     0
 10
0.0
 20
0.0
 30
0.0
  3
Block_19
  1

  0
LWPOLYLINE
  5
112
330
10E
100
AcDbEntity
  8
レイヤー 1
 62
   143
420
  6730444
370
    25
100
AcDbPolyline
 90
        1
 70
     0
 43
0.0
 10
170.5659824837895
 20
18.30920607104946
  0
LWPOLYLINE
  5
113
330
10E
100
AcDbEntity
  8
レイヤー 1
 62
   143
420
  6730444
370
    25
100
AcDbPolyline
 90
        1
 70
     0
 43
0.0
 10
168.7464842721233
 20
18.30920607104946
  0
ENDBLK
  5
111
330
10E
100
AcDbEntity
  8
0
100
AcDbBlockEnd
  0
BLOCK
  5
117
330
115
100
AcDbEntity
  8
0
100
AcDbBlockBegin
  2
Block_20
 70
     0
 10
0.0
 20
0.0
 30
0.0
  3
Block_20
  1

  0
LWPOLYLINE
  5
119
330
115
100
AcDbEntity
  8
レイヤー 1
 62
   143
420
  6730444
370
    25
100
AcDbPolyline
 90
        1
 70
     0
 43
0.0
 10
153.5988181150235
 20
13.87132305618456
  0
LWPOLYLINE
  5
11A
330
115
100
AcDbEntity
  8
レイヤー 1
 62
   143
420
  6730444
370
    25
100
AcDbPolyline
 90
        1
 70
     0
 43
0.0
 10
151.7765195367285
 20
13.87132305618456
  0
ENDBLK
  5
118
330
115
100
AcDbEntity
  8
0
100
AcDbBlockEnd
  0
BLOCK
  5
121
330
11F
100
AcDbEntity
  8
0
100
AcDbBlockBegin
  2
Block_21
 70
     0
 10
0.0
 20
0.0
 30
0.0
  3
Block_21
  1

  0
LWPOLYLINE
  5
123
330
11F
100
AcDbEntity
  8
レイヤー 1
 62
   143
420
  6730444
370
    25
100
AcDbPolyline
 90
        1
 70
     0
 43
0.0
 10
169.6560763573987
 20
17.33420342211587
  0
LWPOLYLINE
  5
124
330
11F
100
AcDbEntity
  8
レイヤー 1
 62
   143
420
  6730444
370
    25
100
AcDbPolyline
 90
        1
 70
     0
 43
0.0
 10
168.6158831736153
 20
15.49859310102606
  0
ENDBLK
  5
122
330
11F
100
AcDbEntity
  8
0
100
AcDbBlockEnd
  0
BLOCK
  5
128
330
126
100
AcDbEntity
  8
0
100
AcDbBlockBegin
  2
Block_22
 70
     0
 10
0.0
 20
0.0
 30
0.0
  3
Block_22
  1

  0
LWPOLYLINE
  5
12A
330
126
100
AcDbEntity
  8
レイヤー 1
 62
   143
420
  6730444
370
    25
100
AcDbPolyline
 90
        1
 70
     0
 43
0.0
 10
171.1993584063958
 20
14.6104028177094
  0
LWPOLYLINE
  5
12B
330
126
100
AcDbEntity
  8
レイヤー 1
 62
   143
420
  6730444
370
    25
100
AcDbPolyline
 90
        1
 70
     0
 43
0.0
 10
168.1130853465052
 20
14.6104028177094
  0
ENDBLK
  5
129
330
126
100
AcDbEntity
  8
0
100
AcDbBlockEnd
  0
BLOCK
  5
12F
330
12D
100
AcDbEntity
  8
0
100
AcDbBlockBegin
  2
Block_23
 70
     0
 10
0.0
 20
0.0
 30
0.0
  3
Block_23
  1

  0
LWPOLYLINE
  5
131
330
12D
100
AcDbEntity
  8
レイヤー 1
 62
   143
420
  6730444
370
    25
100
AcDbPolyline
 90
        1
 70
     0
 43
0.0
 10
168.745999208618
 20
18.30934808964262
  0
LWPOLYLINE
  5
132
330
12D
100
AcDbEntity
  8
レイヤー 1
 62
   143
420
  6730444
370
    25
100
AcDbPolyline
 90
        1
 70
     0
 43
0.0
 10
166.2312629752586
 20
13.87157008852585
  0
ENDBLK
  5
130
330
12D
100
AcDbEntity
  8
0
100
AcDbBlockEnd
  0
BLOCK
  5
135
330
133
100
AcDbEntity
  8
0
100
AcDbBlockBegin
  2
Block_24
 70
     0
 10
0.0
 20
0.0
 30
0.0
  3
Block_24
  1

  0
LWPOLYLINE
  5
137
330
133
100
AcDbEntity
  8
レイヤー 1
 62
   143
420
  6730444
370
    25
100
AcDbPolyline
 90
        1
 70
     0
 43
0.0
 10
153.5987000995725
 20
13.87135706063611
  0
LWPOLYLINE
  5
138
330
133
100
AcDbEntity
  8
レイヤー 1
 62
   143
420
  6730444
370
    25
100
AcDbPolyline
 90
        1
 70
     0
 43
0.0
 10
151.2185714892624
 20
16.09011454397628
  0
ENDBLK
  5
136
330
133
100
AcDbEntity
  8
0
100
AcDbBlockEnd
  0
BLOCK
  5
13B
330
139
100
AcDbEntity
  8
0
100
AcDbBlockBegin
  2
Block_25
 70
     0
 10
0.0
 20
0.0
 30
0.0
  3
Block_25
  1

  0
LWPOLYLINE
  5
13D
330
139
100
AcDbEntity
  8
レイヤー 1
 62
   143
420
  6730444
370
    25
100
AcDbPolyline
 90
        1
 70
     0
 43
0.0
 10
151.7767985732604
 20
13.87116303523372
  0
LWPOLYLINE
  5
13E
330
139
100
AcDbEntity
  8
レイヤー 1
 62
   143
420
  6730444
370
    25
100
AcDbPolyline
 90
        1
 70
     0
 43
0.0
 10
150.0312220395404
 20
15.49837607261253
  0
ENDBLK
  5
13C
330
139
100
AcDbEntity
  8
0
100
AcDbBlockEnd
  0
BLOCK
  5
148
330
146
100
AcDbEntity
  8
0
100
AcDbBlockBegin
  2
Block_26
 70
     0
 10
0.0
 20
0.0
 30
0.0
  3
Block_26
  1

  0
LWPOLYLINE
  5
14A
330
146
100
AcDbEntity
  8
レイヤー 1
 62
   143
420
  6730444
370
    25
100
AcDbPolyline
 90
        1
 70
     0
 43
0.0
 10
127.7640750029389
 20
19.85724794884638
  0
LWPOLYLINE
  5
14B
330
146
100
AcDbEntity
  8
レイヤー 1
 62
   143
420
  6730444
370
    25
100
AcDbPolyline
 90
        1
 70
     0
 43
0.0
 10
127.7640750029389
 20
12.64700756117195
  0
ENDBLK
  5
149
330
146
100
AcDbEntity
  8
0
100
AcDbBlockEnd
  0
BLOCK
  5
14E
330
14C
100
AcDbEntity
  8
0
100
AcDbBlockBegin
  2
Block_27
 70
     0
 10
0.0
 20
0.0
 30
0.0
  3
Block_27
  1

  0
LWPOLYLINE
  5
150
330
14C
100
AcDbEntity
  8
レイヤー 1
 62
   143
420
  6730444
370
    25
100
AcDbPolyline
 90
        1
 70
     0
 43
0.0
 10
124.627464261078
 20
12.26041482095631
  0
LWPOLYLINE
  5
151
330
14C
100
AcDbEntity
  8
レイヤー 1
 62
   143
420
  6730444
370
    25
100
AcDbPolyline
 90
        1
 70
     0
 43
0.0
 10
124.6274640520721
 20
20.24384063145863
  0
ENDBLK
  5
14F
330
14C
100
AcDbEntity
  8
0
100
AcDbBlockEnd
  0
BLOCK
  5
154
330
152
100
AcDbEntity
  8
0
100
AcDbBlockBegin
  2
Block_28
 70
     0
 10
0.0
 20
0.0
 30
0.0
  3
Block_28
  1

  0
LWPOLYLINE
  5
156
330
152
100
AcDbEntity
  8
レイヤー 1
 62
   143
420
  6730444
370
    25
100
AcDbPolyline
 90
        1
 70
     0
 43
0.0
 10
125.4875767969011
 20
11.25723713492296
  0
LWPOLYLINE
  5
157
330
152
100
AcDbEntity
  8
レイヤー 1
 62
   143
420
  6730444
370
    25
100
AcDbPolyline
 90
        1
 70
     0
 43
0.0
 10
125.4875765353692
 20
21.24701836252706
  0
ENDBLK
  5
155
330
152
100
AcDbEntity
  8
0
100
AcDbBlockEnd
  0
BLOCK
  5
15A
330
158
100
AcDbEntity
  8
0
100
AcDbBlockBegin
  2
Block_29
 70
     0
 10
0.0
 20
0.0
 30
0.0
  3
Block_29
  1

  0
LWPOLYLINE
  5
15C
330
158
100
AcDbEntity
  8
レイヤー 1
 62
   143
420
  6730444
370
    25
100
AcDbPolyline
 90
        1
 70
     0
 43
0.0
 10
127.1890541493922
 20
21.03446222877511
  0
LWPOLYLINE
  5
15D
330
158
100
AcDbEntity
  8
レイヤー 1
 62
   143
420
  6730444
370
    25
100
AcDbPolyline
 90
        1
 70
     0
 43
0.0
 10
127.1890541493922
 20
11.46979328124323
  0
ENDBLK
  5
15B
330
158
100
AcDbEntity
  8
0
100
AcDbBlockEnd
  0
BLOCK
  5
160
330
15E
100
AcDbEntity
  8
0
100
AcDbBlockBegin
  2
Block_30
 70
     0
 10
0.0
 20
0.0
 30
0.0
  3
Block_30
  1

  0
LWPOLYLINE
  5
162
330
15E
100
AcDbEntity
  8
レイヤー 1
 62
   143
420
  6730444
370
    25
100
AcDbPolyline
 90
        1
 70
     0
 43
0.0
 10
126.7980853194789
 20
16.25212775500917
  0
LWPOLYLINE
  5
163
330
15E
100
AcDbEntity
  8
レイヤー 1
 62
   143
420
  6730444
370
    25
100
AcDbPolyline
 90
        1
 70
     0
 43
0.0
 10
127.764074788392
 20
12.64700776683457
  0
ENDBLK
  5
161
330
15E
100
AcDbEntity
  8
0
100
AcDbBlockEnd
  0
BLOCK
  5
166
330
164
100
AcDbEntity
  8
0
100
AcDbBlockBegin
  2
Block_31
 70
     0
 10
0.0
 20
0.0
 30
0.0
  3
Block_31
  1

  0
LWPOLYLINE
  5
168
330
164
100
AcDbEntity
  8
レイヤー 1
 62
   143
420
  6730444
370
    25
100
AcDbPolyline
 90
        1
 70
     0
 43
0.0
 10
125.9076317398473
 20
16.25212775500917
  0
LWPOLYLINE
  5
169
330
164
100
AcDbEntity
  8
レイヤー 1
 62
   143
420
  6730444
370
    25
100
AcDbPolyline
 90
        1
 70
     0
 43
0.0
 10
127.1890545058011
 20
11.46979364404639
  0
ENDBLK
  5
167
330
164
100
AcDbEntity
  8
0
100
AcDbBlockEnd
  0
BLOCK
  5
16D
330
16B
100
AcDbEntity
  8
0
100
AcDbBlockBegin
  2
Block_32
 70
     0
 10
0.0
 20
0.0
 30
0.0
  3
Block_32
  1

  0
LWPOLYLINE
  5
16F
330
16B
100
AcDbEntity
  8
レイヤー 1
 62
   143
420
  6730444
370
    25
100
AcDbPolyline
 90
        1
 70
     0
 43
0.0
 10
127.1890545058011
 20
21.03446186597195
  0
LWPOLYLINE
  5
170
330
16B
100
AcDbEntity
  8
レイヤー 1
 62
   143
420
  6730444
370
    25
100
AcDbPolyline
 90
        1
 70
     0
 43
0.0
 10
125.9076317398473
 20
16.25212775500917
  0
ENDBLK
  5
16E
330
16B
100
AcDbEntity
  8
0
100
AcDbBlockEnd
  0
BLOCK
  5
174
330
172
100
AcDbEntity
  8
0
100
AcDbBlockBegin
  2
Block_33
 70
     0
 10
0.0
 20
0.0
 30
0.0
  3
Block_33
  1

  0
LWPOLYLINE
  5
176
330
172
100
AcDbEntity
  8
レイヤー 1
 62
   143
420
  6730444
370
    25
100
AcDbPolyline
 90
        1
 70
     0
 43
0.0
 10
125.4875767455642
 20
11.25723781589141
  0
LWPOLYLINE
  5
177
330
172
100
AcDbEntity
  8
レイヤー 1
 62
   143
420
  6730444
370
    25
100
AcDbPolyline
 90
        1
 70
     0
 43
0.0
 10
125.4875767455642
 20
21.24701769412692
  0
ENDBLK
  5
175
330
172
100
AcDbEntity
  8
0
100
AcDbBlockEnd
  0
BLOCK
  5
17A
330
178
100
AcDbEntity
  8
0
100
AcDbBlockBegin
  2
Block_34
 70
     0
 10
0.0
 20
0.0
 30
0.0
  3
Block_34
  1

  0
LWPOLYLINE
  5
17C
330
178
100
AcDbEntity
  8
レイヤー 1
  6
AI-Linetype-0
 62
   140
420
    49151
370
    25
100
AcDbPolyline
 90
        1
 70
     0
 43
0.0
 10
138.3944505344811
 20
28.75376448963175
  0
LWPOLYLINE
  5
17E
330
178
100
AcDbEntity
  8
レイヤー 1
  6
AI-Linetype-1
 62
   140
420
    49151
370
    25
100
AcDbPolyline
 90
        1
 70
     0
 43
0.0
 10
118.9582819196617
 20
28.75376448963175
  0
ENDBLK
  5
17B
330
178
100
AcDbEntity
  8
0
100
AcDbBlockEnd
  0
BLOCK
  5
182
330
180
100
AcDbEntity
  8
0
100
AcDbBlockBegin
  2
Block_35
 70
     0
 10
0.0
 20
0.0
 30
0.0
  3
Block_35
  1

  0
LWPOLYLINE
  5
184
330
180
100
AcDbEntity
  8
レイヤー 1
  6
AI-Linetype-2
 62
   140
420
    49151
370
    25
100
AcDbPolyline
 90
        1
 70
     0
 43
0.0
 10
123.7273462933291
 20
23.7497833602803
  0
LWPOLYLINE
  5
186
330
180
100
AcDbEntity
  8
レイヤー 1
  6
AI-Linetype-3
 62
   140
420
    49151
370
    25
100
AcDbPolyline
 90
        1
 70
     0
 43
0.0
 10
123.7273462933291
 20
33.82780079071971
  0
ENDBLK
  5
183
330
180
100
AcDbEntity
  8
0
100
AcDbBlockEnd
  0
BLOCK
  5
18A
330
188
100
AcDbEntity
  8
0
100
AcDbBlockBegin
  2
Block_36
 70
     0
 10
0.0
 20
0.0
 30
0.0
  3
Block_36
  1

  0
LWPOLYLINE
  5
18C
330
188
100
AcDbEntity
  8
レイヤー 1
 62
     4
420
    65535
370
    25
100
AcDbPolyline
 90
        1
 70
     0
 43
0.0
 10
129.3530828239094
 20
26.87853398140234
  0
LWPOLYLINE
  5
18D
330
188
100
AcDbEntity
  8
レイヤー 1
 62
     4
420
    65535
370
    25
100
AcDbPolyline
 90
        1
 70
     0
 43
0.0
 10
129.3530828239094
 20
30.62900999982473
  0
ENDBLK
  5
18B
330
188
100
AcDbEntity
  8
0
100
AcDbBlockEnd
  0
BLOCK
  5
190
330
18E
100
AcDbEntity
  8
0
100
AcDbBlockBegin
  2
Block_37
 70
     0
 10
0.0
 20
0.0
 30
0.0
  3
Block_37
  1

  0
LWPOLYLINE
  5
192
330
18E
100
AcDbEntity
  8
レイヤー 1
 62
     4
420
    65535
370
    25
100
AcDbPolyline
 90
        1
 70
     0
 43
0.0
 10
136.8540648646828
 20
25.37833757324784
  0
LWPOLYLINE
  5
193
330
18E
100
AcDbEntity
  8
レイヤー 1
 62
     4
420
    65535
370
    25
100
AcDbPolyline
 90
        1
 70
     0
 43
0.0
 10
136.8540648646828
 20
32.12920640797988
  0
ENDBLK
  5
191
330
18E
100
AcDbEntity
  8
0
100
AcDbBlockEnd
  0
BLOCK
  5
196
330
194
100
AcDbEntity
  8
0
100
AcDbBlockBegin
  2
Block_38
 70
     0
 10
0.0
 20
0.0
 30
0.0
  3
Block_38
  1

  0
LWPOLYLINE
  5
198
330
194
100
AcDbEntity
  8
レイヤー 1
 62
     4
420
    65535
370
    25
100
AcDbPolyline
 90
        1
 70
     0
 43
0.0
 10
136.8540558635043
 20
32.12919440640851
  0
LWPOLYLINE
  5
199
330
194
100
AcDbEntity
  8
レイヤー 1
 62
     4
420
    65535
370
    25
100
AcDbPolyline
 90
        1
 70
     0
 43
0.0
 10
129.3530738227308
 20
30.628997998254
  0
ENDBLK
  5
197
330
194
100
AcDbEntity
  8
0
100
AcDbBlockEnd
  0
BLOCK
  5
19C
330
19A
100
AcDbEntity
  8
0
100
AcDbBlockBegin
  2
Block_39
 70
     0
 10
0.0
 20
0.0
 30
0.0
  3
Block_39
  1

  0
LWPOLYLINE
  5
19E
330
19A
100
AcDbEntity
  8
レイヤー 1
 62
     4
420
    65535
370
    25
100
AcDbPolyline
 90
        1
 70
     0
 43
0.0
 10
136.8540588638971
 20
25.3783175706289
  0
LWPOLYLINE
  5
19F
330
19A
100
AcDbEntity
  8
レイヤー 1
 62
     4
420
    65535
370
    25
100
AcDbPolyline
 90
        1
 70
     0
 43
0.0
 10
129.3530768231236
 20
26.87851397878341
  0
ENDBLK
  5
19D
330
19A
100
AcDbEntity
  8
0
100
AcDbBlockEnd
  0
BLOCK
  5
1C6
330
1C4
100
AcDbEntity
  8
0
100
AcDbBlockBegin
  2
Block_40
 70
     0
 10
0.0
 20
0.0
 30
0.0
  3
Block_40
  1

  0
LINE
  5
1C8
330
1C4
100
AcDbEntity
  8
レイヤー 1
 62
   143
420
  6730444
370
    25
100
AcDbLine
 10
277.9953583124687
 20
95.72565255818622
 30
0.0
 11
164.9805622314821
 21
95.72565255818622
 31
0.0
  0
LINE
  5
1C9
330
1C4
100
AcDbEntity
  8
レイヤー 1
 62
   143
420
  6730444
370
    25
100
AcDbLine
 10
277.9953583124687
 20
159.8208510058546
 30
0.0
 11
277.9953583124687
 21
94.22545615003107
 31
0.0
  0
LINE
  5
1CA
330
1C4
100
AcDbEntity
  8
レイヤー 1
 62
   143
420
  6730444
370
    25
100
AcDbLine
 10
164.9805622314821
 20
140.7558549855554
 30
0.0
 11
164.9805622314821
 21
94.22545615003107
 31
0.0
  0
LINE
  5
1CB
330
1C4
100
AcDbEntity
  8
レイヤー 1
 62
   143
420
  6730444
370
     0
100
AcDbLine
 10
275.2249956120769
 20
96.46796847339322
 30
0.0
 11
277.9953583124687
 21
95.72565255818622
 31
0.0
  0
LINE
  5
1CC
330
1C4
100
AcDbEntity
  8
レイヤー 1
 62
   143
420
  6730444
370
     0
100
AcDbLine
 10
277.9953583124687
 20
95.72565255818622
 30
0.0
 11
275.2249956120769
 21
94.98333664297858
 31
0.0
  0
LINE
  5
1CD
330
1C4
100
AcDbEntity
  8
レイヤー 1
 62
   143
420
  6730444
370
     0
100
AcDbLine
 10
277.9953583124687
 20
95.72565255818622
 30
0.0
 11
275.2249956120769
 21
95.72565255818622
 31
0.0
  0
LINE
  5
1CE
330
1C4
100
AcDbEntity
  8
レイヤー 1
 62
   143
420
  6730444
370
     0
100
AcDbLine
 10
167.7509249318745
 20
94.98333664297858
 30
0.0
 11
164.9805622314821
 21
95.72565255818622
 31
0.0
  0
LINE
  5
1CF
330
1C4
100
AcDbEntity
  8
レイヤー 1
 62
   143
420
  6730444
370
     0
100
AcDbLine
 10
164.9805622314821
 20
95.72565255818622
 30
0.0
 11
167.7509249318745
 21
96.46796847339322
 31
0.0
  0
LINE
  5
1D0
330
1C4
100
AcDbEntity
  8
レイヤー 1
 62
   143
420
  6730444
370
     0
100
AcDbLine
 10
164.9805622314821
 20
95.72565255818622
 30
0.0
 11
167.7509249318745
 21
95.72565255818622
 31
0.0
  0
MTEXT
  5
1D1
330
1C4
100
AcDbEntity
  8
レイヤー 1
100
AcDbMText
 10
213.4139759801751
 20
96.22571561315062
 30
0.0
 40
0.2
 41
0.0
 46
0.0
 71
     7
 72
     1
  1
\C143;\c13415014;\FKozGoPr6N-Regular|b0|i0|c128;\H2.500327;\W1.250000;(626.0)
 73
     1
 44
1.0
  0
ENDBLK
  5
1C7
330
1C4
100
AcDbEntity
  8
0
100
AcDbBlockEnd
  0
BLOCK
  5
1D4
330
1D2
100
AcDbEntity
  8
0
100
AcDbBlockBegin
  2
Block_41
 70
     0
 10
0.0
 20
0.0
 30
0.0
  3
Block_41
  1

  0
LINE
  5
1D6
330
1D2
100
AcDbEntity
  8
レイヤー 1
 62
   143
420
  6730444
370
    25
100
AcDbLine
 10
277.9953583124687
 20
106.6201958895252
 30
0.0
 11
202.9855379047345
 21
106.6201958895252
 31
0.0
  0
LINE
  5
1D7
330
1D2
100
AcDbEntity
  8
レイヤー 1
 62
   143
420
  6730444
370
    25
100
AcDbLine
 10
277.9953583124687
 20
159.8208490055927
 30
0.0
 11
277.9953583124687
 21
105.1199994813707
 31
0.0
  0
LINE
  5
1D8
330
1D2
100
AcDbEntity
  8
レイヤー 1
 62
   143
420
  6730444
370
    25
100
AcDbLine
 10
202.9855379047345
 20
140.7558559856863
 30
0.0
 11
202.9855379047345
 21
105.1199994813707
 31
0.0
  0
LINE
  5
1D9
330
1D2
100
AcDbEntity
  8
レイヤー 1
 62
   143
420
  6730444
370
     0
100
AcDbLine
 10
275.2249956120769
 20
107.3625118047329
 30
0.0
 11
277.9953583124687
 21
106.6201958895252
 31
0.0
  0
LINE
  5
1DA
330
1D2
100
AcDbEntity
  8
レイヤー 1
 62
   143
420
  6730444
370
     0
100
AcDbLine
 10
277.9953583124687
 20
106.6201958895252
 30
0.0
 11
275.2249956120769
 21
105.8778799743176
 31
0.0
  0
LINE
  5
1DB
330
1D2
100
AcDbEntity
  8
レイヤー 1
 62
   143
420
  6730444
370
     0
100
AcDbLine
 10
277.9953583124687
 20
106.6201958895252
 30
0.0
 11
275.2249956120769
 21
106.6201958895252
 31
0.0
  0
LINE
  5
1DC
330
1D2
100
AcDbEntity
  8
レイヤー 1
 62
   143
420
  6730444
370
     0
100
AcDbLine
 10
205.755900605127
 20
105.8778799743176
 30
0.0
 11
202.9855379047345
 21
106.6201958895252
 31
0.0
  0
LINE
  5
1DD
330
1D2
100
AcDbEntity
  8
レイヤー 1
 62
   143
420
  6730444
370
     0
100
AcDbLine
 10
202.9855379047345
 20
106.6201958895252
 30
0.0
 11
205.755900605127
 21
107.3625118047329
 31
0.0
  0
LINE
  5
1DE
330
1D2
100
AcDbEntity
  8
レイヤー 1
 62
   143
420
  6730444
370
     0
100
AcDbLine
 10
202.9855379047345
 20
106.6201958895252
 30
0.0
 11
205.755900605127
 21
106.6201958895252
 31
0.0
  0
MTEXT
  5
1DF
330
1D2
100
AcDbEntity
  8
レイヤー 1
100
AcDbMText
 10
232.3227055286706
 20
107.1202594913134
 30
0.0
 40
0.2
 41
0.0
 46
0.0
 71
     7
 72
     1
  1
\C143;\c13415014;\FKozGoPr6N-Regular|b0|i0|c128;\H2.500327;\W1.400000;(400.0)
 73
     1
 44
1.0
  0
ENDBLK
  5
1D5
330
1D2
100
AcDbEntity
  8
0
100
AcDbBlockEnd
  0
BLOCK
  5
1E2
330
1E0
100
AcDbEntity
  8
0
100
AcDbBlockBegin
  2
Block_42
 70
     0
 10
0.0
 20
0.0
 30
0.0
  3
Block_42
  1

  0
LINE
  5
1E4
330
1E0
100
AcDbEntity
  8
レイヤー 1
 62
   143
420
  6730444
370
    25
100
AcDbLine
 10
190.9839666394968
 20
186.1958900688831
 30
0.0
 11
214.9871091699719
 21
186.1958900688831
 31
0.0
  0
LINE
  5
1E5
330
1E0
100
AcDbEntity
  8
レイヤー 1
 62
   143
420
  6730444
370
    25
100
AcDbLine
 10
190.9839666394968
 20
147.2567140886068
 30
0.0
 11
190.9839666394968
 21
187.6960864770376
 31
0.0
  0
LINE
  5
1E6
330
1E0
100
AcDbEntity
  8
レイヤー 1
 62
   143
420
  6730444
370
    25
100
AcDbLine
 10
214.9871091699719
 20
147.2567140886068
 30
0.0
 11
214.9871091699719
 21
187.6960864770376
 31
0.0
  0
LINE
  5
1E7
330
1E0
100
AcDbEntity
  8
レイヤー 1
 62
   143
420
  6730444
370
     0
100
AcDbLine
 10
193.754329339889
 20
185.4535741536758
 30
0.0
 11
190.9839666394968
 21
186.1958900688831
 31
0.0
  0
LINE
  5
1E8
330
1E0
100
AcDbEntity
  8
レイヤー 1
 62
   143
420
  6730444
370
     0
100
AcDbLine
 10
190.9839666394968
 20
186.1958900688831
 30
0.0
 11
193.754329339889
 21
186.9382059840905
 31
0.0
  0
LINE
  5
1E9
330
1E0
100
AcDbEntity
  8
レイヤー 1
 62
   143
420
  6730444
370
     0
100
AcDbLine
 10
190.9839666394968
 20
186.1958900688831
 30
0.0
 11
193.754329339889
 21
186.1958900688831
 31
0.0
  0
LINE
  5
1EA
330
1E0
100
AcDbEntity
  8
レイヤー 1
 62
   143
420
  6730444
370
     0
100
AcDbLine
 10
212.2167464695793
 20
186.9382059840905
 30
0.0
 11
214.9871091699719
 21
186.1958900688831
 31
0.0
  0
LINE
  5
1EB
330
1E0
100
AcDbEntity
  8
レイヤー 1
 62
   143
420
  6730444
370
     0
100
AcDbLine
 10
214.9871091699719
 20
186.1958900688831
 30
0.0
 11
212.2167464695793
 21
185.4535741536758
 31
0.0
  0
LINE
  5
1EC
330
1E0
100
AcDbEntity
  8
レイヤー 1
 62
   143
420
  6730444
370
     0
100
AcDbLine
 10
214.9871091699719
 20
186.1958900688831
 30
0.0
 11
212.2167464695793
 21
186.1958900688831
 31
0.0
  0
MTEXT
  5
1ED
330
1E0
100
AcDbEntity
  8
レイヤー 1
100
AcDbMText
 10
193.4426282611011
 20
186.6959470494089
 30
0.0
 40
0.2
 41
0.0
 46
0.0
 71
     7
 72
     1
  1
\C143;\c13415014;\FKozGoPr6N-Regular|b0|i0|c128;\H2.500327;\W1.000000;六角対辺43.0
 73
     1
 44
1.0
  0
ENDBLK
  5
1E3
330
1E0
100
AcDbEntity
  8
0
100
AcDbBlockEnd
  0
BLOCK
  5
1F0
330
1EE
100
AcDbEntity
  8
0
100
AcDbBlockBegin
  2
Block_43
 70
     0
 10
0.0
 20
0.0
 30
0.0
  3
Block_43
  1

  0
LINE
  5
1F2
330
1EE
100
AcDbEntity
  8
レイヤー 1
 62
   143
420
  6730444
370
    25
100
AcDbLine
 10
152.9790059682087
 20
186.1958900688831
 30
0.0
 11
176.9821484986836
 21
186.1958900688831
 31
0.0
  0
LINE
  5
1F3
330
1EE
100
AcDbEntity
  8
レイヤー 1
 62
   143
420
  6730444
370
    25
100
AcDbLine
 10
130.499652934734
 20
186.1958900688831
 30
0.0
 11
152.9790059682087
 21
186.1958900688831
 31
0.0
  0
LINE
  5
1F4
330
1EE
100
AcDbEntity
  8
レイヤー 1
 62
   143
420
  6730444
370
    25
100
AcDbLine
 10
152.9790059682087
 20
187.511971372389
 30
0.0
 11
152.9790059682087
 21
187.6960864770376
 31
0.0
  0
LINE
  5
1F5
330
1EE
100
AcDbEntity
  8
レイヤー 1
 62
   143
420
  6730444
370
    25
100
AcDbLine
 10
176.9821484986836
 20
187.511971372389
 30
0.0
 11
176.9821484986836
 21
187.6960864770376
 31
0.0
  0
LINE
  5
1F6
330
1EE
100
AcDbEntity
  8
レイヤー 1
 62
   143
420
  6730444
370
    25
100
AcDbLine
 10
152.9790059682087
 20
186.1958900688831
 30
0.0
 11
146.6281745070205
 21
186.1958900688831
 31
0.0
  0
LINE
  5
1F7
330
1EE
100
AcDbEntity
  8
レイヤー 1
 62
   143
420
  6730444
370
    25
100
AcDbLine
 10
176.9821484986836
 20
186.1958900688831
 30
0.0
 11
183.3329799598722
 21
186.1958900688831
 31
0.0
  0
LINE
  5
1F8
330
1EE
100
AcDbEntity
  8
レイヤー 1
 62
   143
420
  6730444
370
     0
100
AcDbLine
 10
150.2086432678162
 20
186.9382059840905
 30
0.0
 11
152.9790059682087
 21
186.1958900688831
 31
0.0
  0
LINE
  5
1F9
330
1EE
100
AcDbEntity
  8
レイヤー 1
 62
   143
420
  6730444
370
     0
100
AcDbLine
 10
152.9790059682087
 20
186.1958900688831
 30
0.0
 11
150.2086432678162
 21
185.4535741536758
 31
0.0
  0
LINE
  5
1FA
330
1EE
100
AcDbEntity
  8
レイヤー 1
 62
   143
420
  6730444
370
     0
100
AcDbLine
 10
152.9790059682087
 20
186.1958900688831
 30
0.0
 11
150.2086432678162
 21
186.1958900688831
 31
0.0
  0
LINE
  5
1FB
330
1EE
100
AcDbEntity
  8
レイヤー 1
 62
   143
420
  6730444
370
     0
100
AcDbLine
 10
179.7525111990761
 20
185.4535741536758
 30
0.0
 11
176.9821484986836
 21
186.1958900688831
 31
0.0
  0
LINE
  5
1FC
330
1EE
100
AcDbEntity
  8
レイヤー 1
 62
   143
420
  6730444
370
     0
100
AcDbLine
 10
176.9821484986836
 20
186.1958900688831
 30
0.0
 11
179.7525111990761
 21
186.9382059840905
 31
0.0
  0
LINE
  5
1FD
330
1EE
100
AcDbEntity
  8
レイヤー 1
 62
   143
420
  6730444
370
     0
100
AcDbLine
 10
176.9821484986836
 20
186.1958900688831
 30
0.0
 11
179.7525111990761
 21
186.1958900688831
 31
0.0
  0
MTEXT
  5
1FE
330
1EE
100
AcDbEntity
  8
レイヤー 1
100
AcDbMText
 10
130.9580486394067
 20
186.6959470494089
 30
0.0
 40
0.2
 41
0.0
 46
0.0
 71
     7
 72
     1
  1
\C143;\c13415014;\FKozGoPr6N-Regular|b0|i0|c128;\H2.500327;\W1.000000;六角対辺43.0
 73
     1
 44
1.0
  0
ENDBLK
  5
1F1
330
1EE
100
AcDbEntity
  8
0
100
AcDbBlockEnd
  0
BLOCK
  5
20F
330
20D
100
AcDbEntity
  8
0
100
AcDbBlockBegin
  2
Block_44
 70
     0
 10
0.0
 20
0.0
 30
0.0
  3
Block_44
  1

  0
LINE
  5
211
330
20D
100
AcDbEntity
  8
レイヤー 1
 62
   143
420
  6730444
370
    25
100
AcDbLine
 10
153.7790957172605
 20
214.6020060438055
 30
0.0
 11
176.1820287457037
 21
214.6020060438055
 31
0.0
  0
LINE
  5
212
330
20D
100
AcDbEntity
  8
レイヤー 1
 62
   143
420
  6730444
370
    25
100
AcDbLine
 10
131.4065636689626
 20
214.6020060438055
 30
0.0
 11
153.7790957172605
 21
214.6020060438055
 31
0.0
  0
LINE
  5
213
330
20D
100
AcDbEntity
  8
レイヤー 1
 62
   143
420
  6730444
370
    25
100
AcDbLine
 10
153.7790957172605
 20
216.0657076740044
 30
0.0
 11
153.7790957172605
 21
216.1022024519604
 31
0.0
  0
LINE
  5
214
330
20D
100
AcDbEntity
  8
レイヤー 1
 62
   143
420
  6730444
370
    25
100
AcDbLine
 10
176.1820287457037
 20
216.0657076740044
 30
0.0
 11
176.1820287457037
 21
216.1022024519604
 31
0.0
  0
LINE
  5
215
330
20D
100
AcDbEntity
  8
レイヤー 1
 62
   143
420
  6730444
370
    25
100
AcDbLine
 10
153.7790957172605
 20
214.6020060438055
 30
0.0
 11
147.4282642560723
 21
214.6020060438055
 31
0.0
  0
LINE
  5
216
330
20D
100
AcDbEntity
  8
レイヤー 1
 62
   143
420
  6730444
370
    25
100
AcDbLine
 10
176.1820287457037
 20
214.6020060438055
 30
0.0
 11
182.5328602068919
 21
214.6020060438055
 31
0.0
  0
LINE
  5
217
330
20D
100
AcDbEntity
  8
レイヤー 1
 62
   143
420
  6730444
370
     0
100
AcDbLine
 10
151.008733016868
 20
215.3443219590128
 30
0.0
 11
153.7790957172605
 21
214.6020060438055
 31
0.0
  0
LINE
  5
218
330
20D
100
AcDbEntity
  8
レイヤー 1
 62
   143
420
  6730444
370
     0
100
AcDbLine
 10
153.7790957172605
 20
214.6020060438055
 30
0.0
 11
151.008733016868
 21
213.8596901285982
 31
0.0
  0
LINE
  5
219
330
20D
100
AcDbEntity
  8
レイヤー 1
 62
   143
420
  6730444
370
     0
100
AcDbLine
 10
153.7790957172605
 20
214.6020060438055
 30
0.0
 11
151.008733016868
 21
214.6020060438055
 31
0.0
  0
LINE
  5
21A
330
20D
100
AcDbEntity
  8
レイヤー 1
 62
   143
420
  6730444
370
     0
100
AcDbLine
 10
178.9523914460962
 20
213.8596901285982
 30
0.0
 11
176.1820287457037
 21
214.6020060438055
 31
0.0
  0
LINE
  5
21B
330
20D
100
AcDbEntity
  8
レイヤー 1
 62
   143
420
  6730444
370
     0
100
AcDbLine
 10
176.1820287457037
 20
214.6020060438055
 30
0.0
 11
178.9523914460962
 21
215.3443219590128
 31
0.0
  0
LINE
  5
21C
330
20D
100
AcDbEntity
  8
レイヤー 1
 62
   143
420
  6730444
370
     0
100
AcDbLine
 10
176.1820287457037
 20
214.6020060438055
 30
0.0
 11
178.9523914460962
 21
214.6020060438055
 31
0.0
  0
MTEXT
  5
21D
330
20D
100
AcDbEntity
  8
レイヤー 1
100
AcDbMText
 10
131.8253729596652
 20
215.1020727679476
 30
0.0
 40
0.2
 41
0.0
 46
0.0
 71
     7
 72
     1
  1
\C143;\c13415014;\FKozGoPr6N-Regular|b0|i0|c128;\H2.500327;\W1.050000;六角対辺44.0
 73
     1
 44
1.0
  0
ENDBLK
  5
210
330
20D
100
AcDbEntity
  8
0
100
AcDbBlockEnd
  0
BLOCK
  5
226
330
224
100
AcDbEntity
  8
0
100
AcDbBlockBegin
  2
Block_45
 70
     0
 10
0.0
 20
0.0
 30
0.0
  3
Block_45
  1

  0
LINE
  5
228
330
224
100
AcDbEntity
  8
レイヤー 1
 62
   143
420
  6730444
370
    25
100
AcDbLine
 10
126.5090734815787
 20
123.253563557084
 30
0.0
 11
126.5090734815787
 21
212.5152408411098
 31
0.0
  0
LINE
  5
229
330
224
100
AcDbEntity
  8
レイヤー 1
 62
   143
420
  6730444
370
    25
100
AcDbLine
 10
182.4828546600844
 20
123.253563557084
 30
0.0
 11
125.0088770734242
 21
123.253563557084
 31
0.0
  0
LINE
  5
22A
330
224
100
AcDbEntity
  8
レイヤー 1
 62
   143
420
  6730444
370
    25
100
AcDbLine
 10
152.5472184378825
 20
212.5152408411098
 30
0.0
 11
125.0088770734242
 21
212.5152408411098
 31
0.0
  0
LINE
  5
22B
330
224
100
AcDbEntity
  8
レイヤー 1
 62
   143
420
  6730444
370
     0
100
AcDbLine
 10
127.2513893967864
 20
126.0239262574765
 30
0.0
 11
126.5090734815787
 21
123.253563557084
 31
0.0
  0
LINE
  5
22C
330
224
100
AcDbEntity
  8
レイヤー 1
 62
   143
420
  6730444
370
     0
100
AcDbLine
 10
126.5090734815787
 20
123.253563557084
 30
0.0
 11
125.7667575663717
 21
126.0239262574765
 31
0.0
  0
LINE
  5
22D
330
224
100
AcDbEntity
  8
レイヤー 1
 62
   143
420
  6730444
370
     0
100
AcDbLine
 10
126.5090734815787
 20
123.253563557084
 30
0.0
 11
126.5090734815787
 21
126.0239262574765
 31
0.0
  0
LINE
  5
22E
330
224
100
AcDbEntity
  8
レイヤー 1
 62
   143
420
  6730444
370
     0
100
AcDbLine
 10
125.7667575663717
 20
209.7448781407176
 30
0.0
 11
126.5090734815787
 21
212.5152408411098
 31
0.0
  0
LINE
  5
22F
330
224
100
AcDbEntity
  8
レイヤー 1
 62
   143
420
  6730444
370
     0
100
AcDbLine
 10
126.5090734815787
 20
212.5152408411098
 30
0.0
 11
127.2513893967864
 21
209.7448781407176
 31
0.0
  0
LINE
  5
230
330
224
100
AcDbEntity
  8
レイヤー 1
 62
   143
420
  6730444
370
     0
100
AcDbLine
 10
126.5090734815787
 20
212.5152408411098
 30
0.0
 11
126.5090734815787
 21
209.7448781407176
 31
0.0
  0
MTEXT
  5
231
330
224
100
AcDbEntity
  8
レイヤー 1
100
AcDbMText
 10
126.0090182519179
 20
152.1199136989492
 30
0.0
 40
0.2
 41
0.0
 46
0.0
 71
     7
 72
     1
  1
\C143;\c13415014;\FKozGoPr6N-Regular|b0|i0|c128;\H2.500327;\W1.300000;(180.0～217.0)
 11
0.0000000000000001
 21
1.0
 31
0.0
 73
     1
 44
1.0
  0
ENDBLK
  5
227
330
224
100
AcDbEntity
  8
0
100
AcDbBlockEnd
  0
BLOCK
  5
234
330
232
100
AcDbEntity
  8
0
100
AcDbBlockBegin
  2
Block_46
 70
     0
 10
0.0
 20
0.0
 30
0.0
  3
Block_46
  1

  0
LINE
  5
236
330
232
100
AcDbEntity
  8
レイヤー 1
 62
   143
420
  6730444
370
     0
100
AcDbLine
 10
176.9656300170506
 20
218.9499411693268
 30
0.0
 11
174.4817911478312
 21
217.5158955349592
 31
0.0
  0
LINE
  5
237
330
232
100
AcDbEntity
  8
レイヤー 1
 62
   143
420
  6730444
370
     0
100
AcDbLine
 10
174.4817911478312
 20
217.5158955349592
 30
0.0
 11
175.9158367821991
 21
219.9997344041783
 31
0.0
  0
LINE
  5
238
330
232
100
AcDbEntity
  8
レイヤー 1
 62
   143
420
  6730444
370
     0
100
AcDbLine
 10
174.4817911478312
 20
217.5158955349592
 30
0.0
 11
176.4407333996243
 21
219.4748377867527
 31
0.0
  0
LWPOLYLINE
  5
239
330
232
100
AcDbEntity
  8
レイヤー 1
 62
   143
420
  6730444
370
    25
100
AcDbPolyline
 90
        3
 70
     0
 43
0.0
 10
176.4407333996243
 20
219.4748377867527
 10
181.4506295194894
 20
224.4847339066175
 10
197.3161716620815
 20
224.4847339066175
  0
ENDBLK
  5
235
330
232
100
AcDbEntity
  8
0
100
AcDbBlockEnd
  0
BLOCK
  5
240
330
23E
100
AcDbEntity
  8
0
100
AcDbBlockBegin
  2
Block_47
 70
     0
 10
0.0
 20
0.0
 30
0.0
  3
Block_47
  1

  0
LINE
  5
242
330
23E
100
AcDbEntity
  8
レイヤー 1
 62
   143
420
  6730444
370
    25
100
AcDbLine
 10
184.6766708780734
 20
123.253563557084
 30
0.0
 11
184.6766708780734
 21
169.2595867404948
 31
0.0
  0
LINE
  5
243
330
23E
100
AcDbEntity
  8
レイヤー 1
 62
   143
420
  6730444
370
    25
100
AcDbLine
 10
185.4832464762628
 20
123.253563557084
 30
0.0
 11
186.1768672862279
 21
123.253563557084
 31
0.0
  0
LINE
  5
244
330
23E
100
AcDbEntity
  8
レイヤー 1
 62
   143
420
  6730444
370
    25
100
AcDbLine
 10
220.4878283330749
 20
169.2595867404948
 30
0.0
 11
183.1764744699185
 21
169.2595867404948
 31
0.0
  0
LINE
  5
245
330
23E
100
AcDbEntity
  8
レイヤー 1
 62
   143
420
  6730444
370
     0
100
AcDbLine
 10
185.4189867932804
 20
126.0239262574765
 30
0.0
 11
184.6766708780734
 21
123.253563557084
 31
0.0
  0
LINE
  5
246
330
23E
100
AcDbEntity
  8
レイヤー 1
 62
   143
420
  6730444
370
     0
100
AcDbLine
 10
184.6766708780734
 20
123.253563557084
 30
0.0
 11
183.9343549628661
 21
126.0239262574765
 31
0.0
  0
LINE
  5
247
330
23E
100
AcDbEntity
  8
レイヤー 1
 62
   143
420
  6730444
370
     0
100
AcDbLine
 10
184.6766708780734
 20
123.253563557084
 30
0.0
 11
184.6766708780734
 21
126.0239262574765
 31
0.0
  0
LINE
  5
248
330
23E
100
AcDbEntity
  8
レイヤー 1
 62
   143
420
  6730444
370
     0
100
AcDbLine
 10
183.9343549628661
 20
166.4892240401023
 30
0.0
 11
184.6766708780734
 21
169.2595867404948
 31
0.0
  0
LINE
  5
249
330
23E
100
AcDbEntity
  8
レイヤー 1
 62
   143
420
  6730444
370
     0
100
AcDbLine
 10
184.6766708780734
 20
169.2595867404948
 30
0.0
 11
185.4189867932804
 21
166.4892240401023
 31
0.0
  0
LINE
  5
24A
330
23E
100
AcDbEntity
  8
レイヤー 1
 62
   143
420
  6730444
370
     0
100
AcDbLine
 10
184.6766708780734
 20
169.2595867404948
 30
0.0
 11
184.6766708780734
 21
166.4892240401023
 31
0.0
  0
MTEXT
  5
24B
330
23E
100
AcDbEntity
  8
レイヤー 1
100
AcDbMText
 10
184.1766025506626
 20
139.224232278562
 30
0.0
 40
0.2
 41
0.0
 46
0.0
 71
     7
 72
     1
  1
\C143;\c13415014;\FKozGoPr6N-Regular|b0|i0|c128;\H2.500327;\W1.350000;(92.0)
 11
0.0000000000000001
 21
1.0
 31
0.0
 73
     1
 44
1.0
  0
ENDBLK
  5
241
330
23E
100
AcDbEntity
  8
0
100
AcDbBlockEnd
  0
BLOCK
  5
287
330
285
100
AcDbEntity
  8
0
100
AcDbBlockBegin
  2
Block_48
 70
     0
 10
0.0
 20
0.0
 30
0.0
  3
Block_48
  1

  0
LINE
  5
289
330
285
100
AcDbEntity
  8
レイヤー 1
 62
   143
420
  6730444
370
    25
100
AcDbLine
 10
202.9855379047345
 20
106.6201958895252
 30
0.0
 11
164.9805622314821
 21
106.6201958895252
 31
0.0
  0
LINE
  5
28A
330
285
100
AcDbEntity
  8
レイヤー 1
 62
   143
420
  6730444
370
    25
100
AcDbLine
 10
202.9855379047345
 20
140.7558529852935
 30
0.0
 11
202.9855379047345
 21
105.1199994813707
 31
0.0
  0
LINE
  5
28B
330
285
100
AcDbEntity
  8
レイヤー 1
 62
   143
420
  6730444
370
    25
100
AcDbLine
 10
164.9805622314821
 20
141.0058887203786
 30
0.0
 11
164.9805622314821
 21
105.1199994813707
 31
0.0
  0
LINE
  5
28C
330
285
100
AcDbEntity
  8
レイヤー 1
 62
   143
420
  6730444
370
     0
100
AcDbLine
 10
200.2151752043423
 20
107.3625118047329
 30
0.0
 11
202.9855379047345
 21
106.6201958895252
 31
0.0
  0
LINE
  5
28D
330
285
100
AcDbEntity
  8
レイヤー 1
 62
   143
420
  6730444
370
     0
100
AcDbLine
 10
202.9855379047345
 20
106.6201958895252
 30
0.0
 11
200.2151752043423
 21
105.8778799743176
 31
0.0
  0
LINE
  5
28E
330
285
100
AcDbEntity
  8
レイヤー 1
 62
   143
420
  6730444
370
     0
100
AcDbLine
 10
202.9855379047345
 20
106.6201958895252
 30
0.0
 11
200.2151752043423
 21
106.6201958895252
 31
0.0
  0
LINE
  5
28F
330
285
100
AcDbEntity
  8
レイヤー 1
 62
   143
420
  6730444
370
     0
100
AcDbLine
 10
167.7509249318745
 20
105.8778799743176
 30
0.0
 11
164.9805622314821
 21
106.6201958895252
 31
0.0
  0
LINE
  5
290
330
285
100
AcDbEntity
  8
レイヤー 1
 62
   143
420
  6730444
370
     0
100
AcDbLine
 10
164.9805622314821
 20
106.6201958895252
 30
0.0
 11
167.7509249318745
 21
107.3625118047329
 31
0.0
  0
LINE
  5
291
330
285
100
AcDbEntity
  8
レイヤー 1
 62
   143
420
  6730444
370
     0
100
AcDbLine
 10
164.9805622314821
 20
106.6201958895252
 30
0.0
 11
167.7509249318745
 21
106.6201958895252
 31
0.0
  0
MTEXT
  5
292
330
285
100
AcDbEntity
  8
レイヤー 1
100
AcDbMText
 10
179.5553837645187
 20
107.1202594913134
 30
0.0
 40
0.2
 41
0.0
 46
0.0
 71
     7
 72
     1
  1
\C143;\c13415014;\FKozGoPr6N-Regular|b0|i0|c128;\H2.500327;\W1.250000;76.0
 73
     1
 44
1.0
  0
ENDBLK
  5
288
330
285
100
AcDbEntity
  8
0
100
AcDbBlockEnd
  0
BLOCK
  5
296
330
294
100
AcDbEntity
  8
0
100
AcDbBlockBegin
  2
Block_49
 70
     0
 10
0.0
 20
0.0
 30
0.0
  3
Block_49
  1

  0
LINE
  5
298
330
294
100
AcDbEntity
  8
レイヤー 1
 62
   143
420
  6730444
370
    25
100
AcDbLine
 10
288.8272974475651
 20
177.1981280672417
 30
0.0
 11
288.8272974475651
 21
161.3210454137476
 31
0.0
  0
LINE
  5
299
330
294
100
AcDbEntity
  8
レイヤー 1
 62
   143
420
  6730444
370
    25
100
AcDbLine
 10
279.4955547206239
 20
177.1981280672417
 30
0.0
 11
290.3274938557196
 21
177.1981280672417
 31
0.0
  0
LINE
  5
29A
330
294
100
AcDbEntity
  8
レイヤー 1
 62
   143
420
  6730444
370
    25
100
AcDbLine
 10
279.4955547206239
 20
161.3210454137476
 30
0.0
 11
290.3274938557196
 21
161.3210454137476
 31
0.0
  0
LINE
  5
29B
330
294
100
AcDbEntity
  8
レイヤー 1
 62
   143
420
  6730444
370
    25
100
AcDbLine
 10
288.8272974475651
 20
177.1981280672417
 30
0.0
 11
288.8272974475651
 21
183.54895952843
 31
0.0
  0
LINE
  5
29C
330
294
100
AcDbEntity
  8
レイヤー 1
 62
   143
420
  6730444
370
    25
100
AcDbLine
 10
288.8272974475651
 20
161.3210454137476
 30
0.0
 11
288.8272974475651
 21
154.9702149526903
 31
0.0
  0
LINE
  5
29D
330
294
100
AcDbEntity
  8
レイヤー 1
 62
   143
420
  6730444
370
     0
100
AcDbLine
 10
289.5696133627727
 20
179.9684907676342
 30
0.0
 11
288.8272974475651
 21
177.1981280672417
 31
0.0
  0
LINE
  5
29E
330
294
100
AcDbEntity
  8
レイヤー 1
 62
   143
420
  6730444
370
     0
100
AcDbLine
 10
288.8272974475651
 20
177.1981280672417
 30
0.0
 11
288.0849815323574
 21
179.9684907676342
 31
0.0
  0
LINE
  5
29F
330
294
100
AcDbEntity
  8
レイヤー 1
 62
   143
420
  6730444
370
     0
100
AcDbLine
 10
288.8272974475651
 20
177.1981280672417
 30
0.0
 11
288.8272974475651
 21
179.9684907676342
 31
0.0
  0
LINE
  5
2A0
330
294
100
AcDbEntity
  8
レイヤー 1
 62
   143
420
  6730444
370
     0
100
AcDbLine
 10
288.0849815323574
 20
158.5506827133551
 30
0.0
 11
288.8272974475651
 21
161.3210454137476
 31
0.0
  0
LINE
  5
2A1
330
294
100
AcDbEntity
  8
レイヤー 1
 62
   143
420
  6730444
370
     0
100
AcDbLine
 10
288.8272974475651
 20
161.3210454137476
 30
0.0
 11
289.5696133627727
 21
158.5506827133551
 31
0.0
  0
LINE
  5
2A2
330
294
100
AcDbEntity
  8
レイヤー 1
 62
   143
420
  6730444
370
     0
100
AcDbLine
 10
288.8272974475651
 20
161.3210454137476
 30
0.0
 11
288.8272974475651
 21
158.5506827133551
 31
0.0
  0
MTEXT
  5
2A3
330
294
100
AcDbEntity
  8
レイヤー 1
100
AcDbMText
 10
288.3272327973843
 20
162.5502847900916
 30
0.0
 40
0.2
 41
0.0
 46
0.0
 71
     7
 72
     1
  1
\C143;\c13415014;\FKozGoPr6N-Regular|b0|i0|c128;\H2.500327;\W1.150000;∅31.75
 11
0.0000000000000001
 21
1.0
 31
0.0
 73
     1
 44
1.0
  0
ENDBLK
  5
297
330
294
100
AcDbEntity
  8
0
100
AcDbBlockEnd
  0
BLOCK
  5
2AA
330
2A8
100
AcDbEntity
  8
0
100
AcDbBlockBegin
  2
Block_50
 70
     0
 10
0.0
 20
0.0
 30
0.0
  3
Block_50
  1

  0
LINE
  5
2AC
330
2A8
100
AcDbEntity
  8
レイヤー 1
 62
   143
420
  6730444
370
    25
100
AcDbLine
 10
296.3282794883383
 20
185.6367288625882
 30
0.0
 11
296.3282794883383
 21
152.8824376174844
 31
0.0
  0
LINE
  5
2AD
330
2A8
100
AcDbEntity
  8
レイヤー 1
 62
   143
420
  6730444
370
    25
100
AcDbLine
 10
271.994573679981
 20
185.6367288625882
 30
0.0
 11
297.8284758964934
 21
185.6367288625882
 31
0.0
  0
LINE
  5
2AE
330
2A8
100
AcDbEntity
  8
レイヤー 1
 62
   143
420
  6730444
370
    25
100
AcDbLine
 10
271.994573679981
 20
152.8824376174844
 30
0.0
 11
297.8284758964934
 21
152.8824376174844
 31
0.0
  0
LINE
  5
2AF
330
2A8
100
AcDbEntity
  8
レイヤー 1
 62
   143
420
  6730444
370
     0
100
AcDbLine
 10
295.5859635731312
 20
182.8663661621957
 30
0.0
 11
296.3282794883383
 21
185.6367288625882
 31
0.0
  0
LINE
  5
2B0
330
2A8
100
AcDbEntity
  8
レイヤー 1
 62
   143
420
  6730444
370
     0
100
AcDbLine
 10
296.3282794883383
 20
185.6367288625882
 30
0.0
 11
297.0705954035459
 21
182.8663661621957
 31
0.0
  0
LINE
  5
2B1
330
2A8
100
AcDbEntity
  8
レイヤー 1
 62
   143
420
  6730444
370
     0
100
AcDbLine
 10
296.3282794883383
 20
185.6367288625882
 30
0.0
 11
296.3282794883383
 21
182.8663661621957
 31
0.0
  0
LINE
  5
2B2
330
2A8
100
AcDbEntity
  8
レイヤー 1
 62
   143
420
  6730444
370
     0
100
AcDbLine
 10
297.0705954035459
 20
155.6528003178769
 30
0.0
 11
296.3282794883383
 21
152.8824376174844
 31
0.0
  0
LINE
  5
2B3
330
2A8
100
AcDbEntity
  8
レイヤー 1
 62
   143
420
  6730444
370
     0
100
AcDbLine
 10
296.3282794883383
 20
152.8824376174844
 30
0.0
 11
295.5859635731312
 21
155.6528003178769
 31
0.0
  0
LINE
  5
2B4
330
2A8
100
AcDbEntity
  8
レイヤー 1
 62
   143
420
  6730444
370
     0
100
AcDbLine
 10
296.3282794883383
 20
152.8824376174844
 30
0.0
 11
296.3282794883383
 21
155.6528003178769
 31
0.0
  0
MTEXT
  5
2B5
330
2A8
100
AcDbEntity
  8
レイヤー 1
100
AcDbMText
 10
295.8282122826103
 20
162.341856513234
 30
0.0
 40
0.2
 41
0.0
 46
0.0
 71
     7
 72
     1
  1
\C143;\c13415014;\FKozGoPr6N-Regular|b0|i0|c128;\H2.500327;\W0.850000;∅６６．０
 11
0.0000000000000001
 21
1.0
 31
0.0
 73
     1
 44
1.0
  0
ENDBLK
  5
2AB
330
2A8
100
AcDbEntity
  8
0
100
AcDbBlockEnd
  0
ENDSEC
  0
SECTION
  2
ENTITIES
  0
INSERT
  5
7A
330
70
100
AcDbEntity
  8
レイヤー 1
100
AcDbBlockReference
  2
Block_0
 10
0.0
 20
0.0
 30
0.0
  0
MTEXT
  5
2B6
330
70
100
AcDbEntity
  8
レイヤー 1
100
AcDbMText
 10
117.7494018260314
 20
12.6214518197613
 30
0.0
 40
0.2
 41
0.0
 46
0.0
 71
     7
 72
     1
  1
\C142;\c13084952;\FHGGothicE|b0|i0|c128;\H3.496733;\W1.000000;MARDAK INTERNATIONAL inc.
 73
     1
 44
1.0
  0
ENDSEC
  0
SECTION
  2
OBJECTS
  0
DICTIONARY
  5
C
330
0
100
AcDbDictionary
281
     1
  3
ACAD_COLOR
350
63
  3
ACAD_DETAILVIEWSTYLE
350
6A
  3
ACAD_GROUP
350
D
  3
ACAD_LAYOUT
350
62
  3
ACAD_MATERIAL
350
10
  3
ACAD_MLEADERSTYLE
350
66
  3
ACAD_MLINESTYLE
350
5F
  3
ACAD_PLOTSETTINGS
350
61
  3
ACAD_PLOTSTYLENAME
350
E
  3
ACAD_SCALELIST
350
42
  3
ACAD_SECTIONVIEWSTYLE
350
68
  3
ACAD_TABLESTYLE
350
64
  3
ACAD_VISUALSTYLE
350
29
  3
ACDB_RECOMPOSE_DATA
350
2BF
  3
AcDbVariableDictionary
350
2B7
  0
DICTIONARY
  5
63
102
{ACAD_REACTORS
330
C
102
}
330
C
100
AcDbDictionary
281
     1
  0
DICTIONARY
  5
6A
102
{ACAD_REACTORS
330
C
102
}
330
C
100
AcDbDictionary
281
     1
  3
Imperial24
350
6B
  0
DICTIONARY
  5
D
102
{ACAD_REACTORS
330
C
102
}
330
C
100
AcDbDictionary
281
     1
  0
DICTIONARY
  5
62
102
{ACAD_REACTORS
330
C
102
}
330
C
100
AcDbDictionary
281
     1
  3
Layout1
350
6F
  3
Layout2
350
77
  3
Model
350
73
  0
DICTIONARY
  5
10
102
{ACAD_REACTORS
330
C
102
}
330
C
100
AcDbDictionary
281
     1
  3
ByBlock
350
19
  3
ByLayer
350
11
  3
Global
350
21
  0
DICTIONARY
  5
66
102
{ACAD_REACTORS
330
C
102
}
330
C
100
AcDbDictionary
281
     1
  3
Standard
350
67
  0
DICTIONARY
  5
5F
102
{ACAD_REACTORS
330
C
102
}
330
C
100
AcDbDictionary
281
     1
  3
Standard
350
60
  0
DICTIONARY
  5
61
102
{ACAD_REACTORS
330
C
102
}
330
C
100
AcDbDictionary
281
     1
  0
ACDBDICTIONARYWDFLT
  5
E
102
{ACAD_REACTORS
330
C
102
}
330
C
100
AcDbDictionary
281
     1
  3
Normal
350
F
100
AcDbDictionaryWithDefault
340
F
  0
DICTIONARY
  5
42
102
{ACAD_REACTORS
330
C
102
}
330
C
100
AcDbDictionary
281
     1
  3
A0
350
43
  3
A1
350
44
  3
A2
350
45
  3
A3
350
46
  3
A4
350
47
  3
A5
350
48
  3
A6
350
49
  3
A7
350
4A
  3
A8
350
4B
  3
A9
350
4C
  3
B0
350
4D
  3
B1
350
4E
  3
B2
350
4F
  3
B3
350
50
  3
B4
350
51
  3
B5
350
52
  3
B6
350
53
  0
DICTIONARY
  5
68
102
{ACAD_REACTORS
330
C
102
}
330
C
100
AcDbDictionary
281
     1
  3
Imperial24
350
69
  0
DICTIONARY
  5
64
102
{ACAD_REACTORS
330
C
102
}
330
C
100
AcDbDictionary
281
     1
  3
Standard
350
65
  0
DICTIONARY
  5
29
102
{ACAD_REACTORS
330
C
102
}
330
C
100
AcDbDictionary
281
     1
  3
2dWireframe
350
2F
  3
Basic
350
2E
  3
Brighten
350
35
  3
ColorChange
350
39
  3
Conceptual
350
32
  3
Dim
350
34
  3
EdgeColorOff
350
41
  3
Facepattern
350
38
  3
Flat
350
2A
  3
FlatWithEdges
350
2B
  3
Gouraud
350
2C
  3
GouraudWithEdges
350
2D
  3
Hidden
350
31
  3
JitterOff
350
3F
  3
Linepattern
350
37
  3
OverhangOff
350
40
  3
Realistic
350
33
  3
Shaded
350
3E
  3
Shaded with edges
350
3D
  3
Shades of Gray
350
3A
  3
Sketchy
350
3B
  3
Thicken
350
36
  3
Wireframe
350
30
  3
X-Ray
350
3C
  0
XRECORD
  5
2BF
102
{ACAD_REACTORS
330
C
102
}
330
C
100
AcDbXrecord
280
     1
 90
        1
330
65
  0
DICTIONARY
  5
2B7
102
{ACAD_REACTORS
330
C
102
}
330
C
100
AcDbDictionary
281
     1
  3
CANNOSCALE
350
2BC
  3
CMLEADERSTYLE
350
2B9
  3
CTABLESTYLE
350
2B8
  3
CVIEWDETAILSTYLE
350
2BA
  3
CVIEWSECTIONSTYLE
350
2BB
  0
ACDBDETAILVIEWSTYLE
  5
6B
102
{ACAD_REACTORS
330
6A
102
}
330
6A
100
AcDbModelDocViewStyle
 70
     0
  3
Imperial24
290
     1
300
Imperial24
 90
        0
100
AcDbDetailViewStyle
 70
     0
 71
     0
 90
        3
 71
     1
340
55
 62
   256
 40
0.24
340
0
 62
   256
 40
0.24
300

 40
0.36
280
     3
 71
     2
340
5D
 90
       25
 62
   256
 71
     3
340
55
 62
   256
 40
0.24
 90
        1
 40
0.75
 90
        1
300
%<\AcVar ViewType \f "%tc1">% %<\AcVar ViewDetailId>%\PSCALE %<\AcVar ViewScale \f "%sn">%
 71
     4
340
5D
 90
       25
 62
   256
340
5D
 90
       25
 62
   256
280
     0
  0
LAYOUT
  5
6F
102
{ACAD_REACTORS
330
62
102
}
330
62
100
AcDbPlotSettings
  1

  2

  4

  6

 40
0.0
 41
0.0
 42
0.0
 43
0.0
 44
0.0
 45
0.0
 46
0.0
 47
0.0
 48
0.0
 49
0.0
140
0.0
141
0.0
142
1.0
143
1.0
 70
   688
 72
     0
 73
     0
 74
     5
  7

 75
    16
147
1.0
 76
     0
 77
     2
 78
   300
148
0.0
149
0.0
100
AcDbLayout
  1
Layout1
 70
     1
 71
     1
 10
0.0
 20
0.0
 11
12.0
 21
9.0
 12
0.0
 22
0.0
 32
0.0
 14
0.0
 24
0.0
 34
0.0
 15
0.0
 25
0.0
 35
0.0
146
0.0
 13
0.0
 23
0.0
 33
0.0
 16
1.0
 26
0.0
 36
0.0
 17
0.0
 27
1.0
 37
0.0
 76
     0
330
6C
  0
LAYOUT
  5
77
102
{ACAD_REACTORS
330
62
102
}
330
62
100
AcDbPlotSettings
  1

  2

  4

  6

 40
0.0
 41
0.0
 42
0.0
 43
0.0
 44
0.0
 45
0.0
 46
0.0
 47
0.0
 48
0.0
 49
0.0
140
0.0
141
0.0
142
1.0
143
1.0
 70
   688
 72
     0
 73
     0
 74
     5
  7

 75
    16
147
1.0
 76
     0
 77
     2
 78
   300
148
0.0
149
0.0
100
AcDbLayout
  1
Layout2
 70
     1
 71
     2
 10
0.0
 20
0.0
 11
12.0
 21
9.0
 12
0.0
 22
0.0
 32
0.0
 14
0.0
 24
0.0
 34
0.0
 15
0.0
 25
0.0
 35
0.0
146
0.0
 13
0.0
 23
0.0
 33
0.0
 16
1.0
 26
0.0
 36
0.0
 17
0.0
 27
1.0
 37
0.0
 76
     0
330
74
  0
LAYOUT
  5
73
102
{ACAD_REACTORS
330
62
102
}
330
62
100
AcDbPlotSettings
  1

  2

  4

  6

 40
0.0
 41
0.0
 42
0.0
 43
0.0
 44
0.0
 45
0.0
 46
0.0
 47
0.0
 48
0.0
 49
0.0
140
0.0
141
0.0
142
1.0
143
1.0
 70
  1712
 72
     0
 73
     0
 74
     0
  7

 75
     0
147
1.0
 76
     0
 77
     2
 78
   300
148
0.0
149
0.0
100
AcDbLayout
  1
Model
 70
     1
 71
     0
 10
0.0
 20
0.0
 11
12.0
 21
9.0
 12
0.0
 22
0.0
 32
0.0
 14
0.0
 24
0.0
 34
0.0
 15
0.0
 25
0.0
 35
0.0
146
0.0
 13
0.0
 23
0.0
 33
0.0
 16
1.0
 26
0.0
 36
0.0
 17
0.0
 27
1.0
 37
0.0
 76
     0
330
70
  0
MATERIAL
  5
19
102
{ACAD_XDICTIONARY
360
1A
102
}
102
{ACAD_REACTORS
330
10
102
}
330
10
100
AcDbMaterial
  1
ByBlock
 72
     0
 43
0.0208333333333333
 43
0.0
 43
0.0
 43
0.0
 43
0.0
 43
0.0208333333333333
 43
0.0
 43
0.0
 43
0.0
 43
0.0
 43
1.0
 43
0.0
 43
0.0
 43
0.0
 43
0.0
 43
1.0
 77
     0
 47
0.0208333333333333
 47
0.0
 47
0.0
 47
0.0
 47
0.0
 47
0.0208333333333333
 47
0.0
 47
0.0
 47
0.0
 47
0.0
 47
1.0
 47
0.0
 47
0.0
 47
0.0
 47
0.0
 47
1.0
171
     0
 49
0.0208333333333333
 49
0.0
 49
0.0
 49
0.0
 49
0.0
 49
0.0208333333333333
 49
0.0
 49
0.0
 49
0.0
 49
0.0
 49
1.0
 49
0.0
 49
0.0
 49
0.0
 49
0.0
 49
1.0
175
     0
142
0.0208333333333333
142
0.0
142
0.0
142
0.0
142
0.0
142
0.0208333333333333
142
0.0
142
0.0
142
0.0
142
0.0
142
1.0
142
0.0
142
0.0
142
0.0
142
0.0
142
1.0
179
     0
144
0.0208333333333333
144
0.0
144
0.0
144
0.0
144
0.0
144
0.0208333333333333
144
0.0
144
0.0
144
0.0
144
0.0
144
1.0
144
0.0
144
0.0
144
0.0
144
0.0
144
1.0
147
0.0208333333333333
147
0.0
147
0.0
147
0.0
147
0.0
147
0.0208333333333333
147
0.0
147
0.0
147
0.0
147
0.0
147
1.0
147
0.0
147
0.0
147
0.0
147
0.0
147
1.0
  0
MATERIAL
  5
11
102
{ACAD_XDICTIONARY
360
12
102
}
102
{ACAD_REACTORS
330
10
102
}
330
10
100
AcDbMaterial
  1
ByLayer
 72
     0
 43
0.0208333333333333
 43
0.0
 43
0.0
 43
0.0
 43
0.0
 43
0.0208333333333333
 43
0.0
 43
0.0
 43
0.0
 43
0.0
 43
1.0
 43
0.0
 43
0.0
 43
0.0
 43
0.0
 43
1.0
 77
     0
 47
0.0208333333333333
 47
0.0
 47
0.0
 47
0.0
 47
0.0
 47
0.0208333333333333
 47
0.0
 47
0.0
 47
0.0
 47
0.0
 47
1.0
 47
0.0
 47
0.0
 47
0.0
 47
0.0
 47
1.0
171
     0
 49
0.0208333333333333
 49
0.0
 49
0.0
 49
0.0
 49
0.0
 49
0.0208333333333333
 49
0.0
 49
0.0
 49
0.0
 49
0.0
 49
1.0
 49
0.0
 49
0.0
 49
0.0
 49
0.0
 49
1.0
175
     0
142
0.0208333333333333
142
0.0
142
0.0
142
0.0
142
0.0
142
0.0208333333333333
142
0.0
142
0.0
142
0.0
142
0.0
142
1.0
142
0.0
142
0.0
142
0.0
142
0.0
142
1.0
179
     0
144
0.0208333333333333
144
0.0
144
0.0
144
0.0
144
0.0
144
0.0208333333333333
144
0.0
144
0.0
144
0.0
144
0.0
144
1.0
144
0.0
144
0.0
144
0.0
144
0.0
144
1.0
147
0.0208333333333333
147
0.0
147
0.0
147
0.0
147
0.0
147
0.0208333333333333
147
0.0
147
0.0
147
0.0
147
0.0
147
1.0
147
0.0
147
0.0
147
0.0
147
0.0
147
1.0
  0
MATERIAL
  5
21
102
{ACAD_XDICTIONARY
360
22
102
}
102
{ACAD_REACTORS
330
10
102
}
330
10
100
AcDbMaterial
  1
Global
 72
     0
 43
0.0208333333333333
 43
0.0
 43
0.0
 43
0.0
 43
0.0
 43
0.0208333333333333
 43
0.0
 43
0.0
 43
0.0
 43
0.0
 43
1.0
 43
0.0
 43
0.0
 43
0.0
 43
0.0
 43
1.0
 77
     0
 47
0.0208333333333333
 47
0.0
 47
0.0
 47
0.0
 47
0.0
 47
0.0208333333333333
 47
0.0
 47
0.0
 47
0.0
 47
0.0
 47
1.0
 47
0.0
 47
0.0
 47
0.0
 47
0.0
 47
1.0
171
     0
 49
0.0208333333333333
 49
0.0
 49
0.0
 49
0.0
 49
0.0
 49
0.0208333333333333
 49
0.0
 49
0.0
 49
0.0
 49
0.0
 49
1.0
 49
0.0
 49
0.0
 49
0.0
 49
0.0
 49
1.0
175
     0
142
0.0208333333333333
142
0.0
142
0.0
142
0.0
142
0.0
142
0.0208333333333333
142
0.0
142
0.0
142
0.0
142
0.0
142
1.0
142
0.0
142
0.0
142
0.0
142
0.0
142
1.0
179
     0
144
0.0208333333333333
144
0.0
144
0.0
144
0.0
144
0.0
144
0.0208333333333333
144
0.0
144
0.0
144
0.0
144
0.0
144
1.0
144
0.0
144
0.0
144
0.0
144
0.0
144
1.0
147
0.0208333333333333
147
0.0
147
0.0
147
0.0
147
0.0
147
0.0208333333333333
147
0.0
147
0.0
147
0.0
147
0.0
147
1.0
147
0.0
147
0.0
147
0.0
147
0.0
147
1.0
  0
MLEADERSTYLE
  5
67
102
{ACAD_REACTORS
330
66
102
}
330
66
100
AcDbMLeaderStyle
179
     2
170
     2
171
     1
172
     0
 90
        2
 40
0.0
 41
0.0
173
     1
 91
-1056964608
340
5B
 92
       -2
290
     1
 42
0.09
291
     1
 43
0.36
  3
Standard
 44
0.18
300

342
55
174
     1
178
     6
175
     1
176
     0
 93
-1056964608
 45
0.18
292
     0
297
     0
 46
0.18
 94
-1056964608
 47
1.0
 49
1.0
140
1.0
293
     1
141
0.0
294
     1
177
     0
142
1.0
295
     1
296
     0
143
0.125
271
     0
272
     9
273
     9
298
     1
  0
MLINESTYLE
  5
60
102
{ACAD_REACTORS
330
5F
102
}
330
5F
100
AcDbMlineStyle
  2
STANDARD
 70
     0
  3

 62
   256
 51
90.0
 52
90.0
 71
     2
 49
0.5
 62
   256
  6
BYLAYER
 49
-0.5
 62
   256
  6
BYLAYER
  0
ACDBPLACEHOLDER
  5
F
102
{ACAD_REACTORS
330
E
102
}
330
E
  0
SCALE
  5
43
102
{ACAD_REACTORS
330
42
102
}
330
42
100
AcDbScale
 70
     0
300
1:1
140
1.0
141
1.0
290
     1
  0
SCALE
  5
44
102
{ACAD_REACTORS
330
42
102
}
330
42
100
AcDbScale
 70
     0
300
1/128" = 1'-0"
140
0.0078125
141
12.0
290
     0
  0
SCALE
  5
45
102
{ACAD_REACTORS
330
42
102
}
330
42
100
AcDbScale
 70
     0
300
1/64" = 1'-0"
140
0.015625
141
12.0
290
     0
  0
SCALE
  5
46
102
{ACAD_REACTORS
330
42
102
}
330
42
100
AcDbScale
 70
     0
300
1/32" = 1'-0"
140
0.03125
141
12.0
290
     0
  0
SCALE
  5
47
102
{ACAD_REACTORS
330
42
102
}
330
42
100
AcDbScale
 70
     0
300
1/16" = 1'-0"
140
0.0625
141
12.0
290
     0
  0
SCALE
  5
48
102
{ACAD_REACTORS
330
42
102
}
330
42
100
AcDbScale
 70
     0
300
3/32" = 1'-0"
140
0.09375
141
12.0
290
     0
  0
SCALE
  5
49
102
{ACAD_REACTORS
330
42
102
}
330
42
100
AcDbScale
 70
     0
300
1/8" = 1'-0"
140
0.125
141
12.0
290
     0
  0
SCALE
  5
4A
102
{ACAD_REACTORS
330
42
102
}
330
42
100
AcDbScale
 70
     0
300
3/16" = 1'-0"
140
0.1875
141
12.0
290
     0
  0
SCALE
  5
4B
102
{ACAD_REACTORS
330
42
102
}
330
42
100
AcDbScale
 70
     0
300
1/4" = 1'-0"
140
0.25
141
12.0
290
     0
  0
SCALE
  5
4C
102
{ACAD_REACTORS
330
42
102
}
330
42
100
AcDbScale
 70
     0
300
3/8" = 1'-0"
140
0.375
141
12.0
290
     0
  0
SCALE
  5
4D
102
{ACAD_REACTORS
330
42
102
}
330
42
100
AcDbScale
 70
     0
300
1/2" = 1'-0"
140
0.5
141
12.0
290
     0
  0
SCALE
  5
4E
102
{ACAD_REACTORS
330
42
102
}
330
42
100
AcDbScale
 70
     0
300
3/4" = 1'-0"
140
0.75
141
12.0
290
     0
  0
SCALE
  5
4F
102
{ACAD_REACTORS
330
42
102
}
330
42
100
AcDbScale
 70
     0
300
1" = 1'-0"
140
1.0
141
12.0
290
     0
  0
SCALE
  5
50
102
{ACAD_REACTORS
330
42
102
}
330
42
100
AcDbScale
 70
     0
300
1-1/2" = 1'-0"
140
1.5
141
12.0
290
     0
  0
SCALE
  5
51
102
{ACAD_REACTORS
330
42
102
}
330
42
100
AcDbScale
 70
     0
300
3" = 1'-0"
140
3.0
141
12.0
290
     0
  0
SCALE
  5
52
102
{ACAD_REACTORS
330
42
102
}
330
42
100
AcDbScale
 70
     0
300
6" = 1'-0"
140
6.0
141
12.0
290
     0
  0
SCALE
  5
53
102
{ACAD_REACTORS
330
42
102
}
330
42
100
AcDbScale
 70
     0
300
1'-0" = 1'-0"
140
12.0
141
12.0
290
     0
  0
ACDBSECTIONVIEWSTYLE
  5
69
102
{ACAD_REACTORS
330
68
102
}
330
68
100
AcDbModelDocViewStyle
 70
     0
  3
Imperial24
290
     1
300
Imperial24
 90
        0
100
AcDbSectionViewStyle
 70
     0
 71
     0
 90
       78
 71
     1
340
55
 62
   256
 40
0.24
340
0
340
0
 62
   256
 40
0.24
300
I, O, Q, S, X, Z
 40
0.48
 90
        3
 40
0.18
 90
        1
 71
     2
340
5D
 90
       25
 62
   256
340
5D
 90
       50
 62
   256
 40
0.24
 40
0.0
 40
0.24
 71
     3
340
55
 62
   256
 40
0.24
 90
        1
 40
0.75
 90
        1
300
%<\AcVar ViewType \f "%tc1">% %<\AcVar ViewSectionStartId>%-%<\AcVar ViewSectionEndId>%\PSCALE %<\AcVar ViewScale \f "%sn">%
 71
     4
 62
   256
 62
   257
300
ANSI31
 40
1.0
 90
        0
290
     0
290
     0
 90
        6
 40
0.0
 40
1.570796326794896
 40
0.2617993877991494
 40
1.308996938995747
 40
-0.2617993877991494
 40
1.832595714594046
  0
TABLESTYLE
  5
65
102
{ACAD_XDICTIONARY
360
2BD
102
}
102
{ACAD_REACTORS
330
64
102
}
330
64
100
AcDbTableStyle
280
     0
  3
Standard
 70
     0
 71
     0
 40
0.06
 41
0.06
280
     0
281
     0
  7
Standard
140
0.18
170
     2
 62
     0
 63
     7
283
     0
 90
      512
 91
        0
  1

274
    -2
284
     1
 64
     0
275
    -2
285
     1
 65
     0
276
    -2
286
     1
 66
     0
277
    -2
287
     1
 67
     0
278
    -2
288
     1
 68
     0
279
    -2
289
     1
 69
     0
  7
Standard
140
0.25
170
     5
 62
     0
 63
     7
283
     0
 90
      512
 91
        0
  1

274
    -2
284
     1
 64
     0
275
    -2
285
     1
 65
     0
276
    -2
286
     1
 66
     0
277
    -2
287
     1
 67
     0
278
    -2
288
     1
 68
     0
279
    -2
289
     1
 69
     0
  7
Standard
140
0.18
170
     5
 62
     0
 63
     7
283
     0
 90
      512
 91
        0
  1

274
    -2
284
     1
 64
     0
275
    -2
285
     1
 65
     0
276
    -2
286
     1
 66
     0
277
    -2
287
     1
 67
     0
278
    -2
288
     1
 68
     0
279
    -2
289
     1
 69
     0
  0
VISUALSTYLE
  5
2F
102
{ACAD_REACTORS
330
29
102
}
330
29
100
AcDbVisualStyle
  2
2dWireframe
 70
     4
177
     3
291
     0
 70
    58
 90
        0
176
     1
 90
        2
176
     1
 90
        0
176
     1
 90
        0
176
     1
 40
0.6
176
     1
 40
30.0
176
     1
 62
     7
420
 16777215
176
     1
 90
        1
176
     1
 90
        4
176
     1
 62
     7
176
     1
 62
   257
176
     1
 90
        1
176
     1
 90
        1
176
     1
 40
1.0
176
     1
 90
        0
176
     1
 62
   257
176
     1
 40
1.0
176
     1
 90
        1
176
     1
 90
        6
176
     1
 90
        2
176
     1
 62
     7
176
     1
 90
        5
176
     1
 90
        0
176
     1
 90
        0
176
     1
290
     0
176
     1
 90
        1
176
     1
 40
0.0
176
     1
 90
        0
176
     1
290
     1
176
     1
290
     1
176
     1
290
     0
176
     1
290
     0
176
     1
290
     0
176
     1
290
     0
176
     1
290
     0
176
     1
290
     0
176
     1
290
     0
176
     1
 90
       50
176
     1
 40
0.0
176
     1
 40
1.0
176
     1
 90
        0
176
     1
 62
    18
420
        0
176
     1
 90
       50
176
     1
 90
        3
176
     1
 62
     5
420
      255
176
     1
290
     0
176
     1
 90
       50
176
     1
 90
       50
176
     1
 90
       50
176
     1
290
     0
176
     1
 90
       50
176
     1
 62
   256
176
     0
 40
1.0
176
     0
 90
        2
176
     1
  1
strokes_ogs.tif
176
     1
290
     0
176
     1
 40
1.0
176
     1
 40
1.0
176
     1
  0
VISUALSTYLE
  5
2E
102
{ACAD_REACTORS
330
29
102
}
330
29
100
AcDbVisualStyle
  2
Basic
 70
     7
177
     3
291
     1
 70
    58
 90
        1
176
     1
 90
        0
176
     1
 90
        1
176
     1
 90
        0
176
     1
 40
0.6
176
     1
 40
30.0
176
     1
 62
     7
420
 16777215
176
     1
 90
        0
176
     1
 90
        4
176
     1
 62
     7
176
     1
 62
   257
176
     1
 90
        1
176
     1
 90
        1
176
     1
 40
1.0
176
     1
 90
        8
176
     1
 62
     7
176
     1
 40
1.0
176
     1
 90
        1
176
     1
 90
        6
176
     1
 90
        2
176
     1
 62
     7
176
     1
 90
        5
176
     1
 90
        0
176
     1
 90
        0
176
     1
290
     0
176
     1
 90
        1
176
     1
 40
0.0
176
     1
 90
        0
176
     1
290
     0
176
     1
290
     1
176
     1
290
     1
176
     1
290
     0
176
     1
290
     0
176
     1
290
     0
176
     1
290
     0
176
     1
290
     0
176
     1
290
     0
176
     1
 90
       50
176
     1
 40
0.0
176
     1
 40
1.0
176
     1
 90
        0
176
     1
 62
    18
420
        0
176
     1
 90
       50
176
     1
 90
        3
176
     1
 62
     5
420
      255
176
     1
290
     0
176
     1
 90
       50
176
     1
 90
       50
176
     1
 90
       50
176
     1
290
     0
176
     1
 90
       50
176
     1
 62
   256
176
     0
 40
1.0
176
     0
 90
        2
176
     1
  1
strokes_ogs.tif
176
     1
290
     0
176
     1
 40
1.0
176
     1
 40
1.0
176
     1
  0
VISUALSTYLE
  5
35
102
{ACAD_REACTORS
330
29
102
}
330
29
100
AcDbVisualStyle
  2
Brighten
 70
    12
177
     3
291
     1
 70
    58
 90
        2
176
     1
 90
        2
176
     1
 90
        0
176
     1
 90
        0
176
     1
 40
0.6
176
     1
 40
30.0
176
     1
 62
     7
420
 16777215
176
     1
 90
        1
176
     1
 90
        4
176
     1
 62
     7
176
     1
 62
   257
176
     1
 90
        1
176
     1
 90
        1
176
     1
 40
1.0
176
     1
 90
        8
176
     1
 62
     7
176
     1
 40
1.0
176
     1
 90
        1
176
     1
 90
        6
176
     1
 90
        2
176
     1
 62
     7
176
     1
 90
        5
176
     1
 90
        0
176
     1
 90
        0
176
     1
290
     0
176
     1
 90
        1
176
     1
 40
50.0
176
     1
 90
        0
176
     1
290
     0
176
     1
290
     1
176
     1
290
     1
176
     1
290
     0
176
     1
290
     0
176
     1
290
     0
176
     1
290
     0
176
     1
290
     0
176
     1
290
     0
176
     1
 90
       50
176
     1
 40
0.0
176
     1
 40
1.0
176
     1
 90
        0
176
     1
 62
    18
420
        0
176
     1
 90
       50
176
     1
 90
        3
176
     1
 62
     5
420
      255
176
     1
290
     0
176
     1
 90
       50
176
     1
 90
       50
176
     1
 90
       50
176
     1
290
     0
176
     1
 90
       50
176
     1
 62
   256
176
     0
 40
1.0
176
     0
 90
        2
176
     1
  1
strokes_ogs.tif
176
     1
290
     0
176
     1
 40
1.0
176
     1
 40
1.0
176
     1
  0
VISUALSTYLE
  5
39
102
{ACAD_REACTORS
330
29
102
}
330
29
100
AcDbVisualStyle
  2
ColorChange
 70
    16
177
     3
291
     1
 70
    58
 90
        2
176
     1
 90
        2
176
     1
 90
        3
176
     1
 90
        0
176
     1
 40
0.6
176
     1
 40
30.0
176
     1
 62
     8
420
  8421504
176
     1
 90
        1
176
     1
 90
        4
176
     1
 62
     7
176
     1
 62
   257
176
     1
 90
        1
176
     1
 90
        1
176
     1
 40
1.0
176
     1
 90
        8
176
     1
 62
     8
420
  8421504
176
     1
 40
1.0
176
     1
 90
        1
176
     1
 90
        6
176
     1
 90
        2
176
     1
 62
     7
176
     1
 90
        5
176
     1
 90
        0
176
     1
 90
        0
176
     1
290
     0
176
     1
 90
        1
176
     1
 40
0.0
176
     1
 90
        0
176
     1
290
     0
176
     1
290
     1
176
     1
290
     1
176
     1
290
     0
176
     1
290
     0
176
     1
290
     0
176
     1
290
     0
176
     1
290
     0
176
     1
290
     0
176
     1
 90
       50
176
     1
 40
0.0
176
     1
 40
1.0
176
     1
 90
        0
176
     1
 62
    18
420
        0
176
     1
 90
       50
176
     1
 90
        3
176
     1
 62
     5
420
      255
176
     1
290
     0
176
     1
 90
       50
176
     1
 90
       50
176
     1
 90
       50
176
     1
290
     0
176
     1
 90
       50
176
     1
 62
   256
176
     0
 40
1.0
176
     0
 90
        2
176
     1
  1
strokes_ogs.tif
176
     1
290
     0
176
     1
 40
1.0
176
     1
 40
1.0
176
     1
  0
VISUALSTYLE
  5
32
102
{ACAD_REACTORS
330
29
102
}
330
29
100
AcDbVisualStyle
  2
Conceptual
 70
     9
177
     3
291
     0
 70
    58
 90
        3
176
     1
 90
        2
176
     1
 90
        0
176
     1
 90
        0
176
     1
 40
0.6
176
     1
 40
30.0
176
     1
 62
     7
420
 16777215
176
     1
 90
        2
176
     1
 90
        2
176
     1
 62
     7
176
     1
 62
   257
176
     1
 90
        1
176
     1
 90
        1
176
     1
 40
179.0
176
     1
 90
        8
176
     1
 62
     7
176
     1
 40
1.0
176
     1
 90
        1
176
     1
 90
        6
176
     1
 90
        2
176
     1
 62
     7
176
     1
 90
        3
176
     1
 90
        0
176
     1
 90
        0
176
     1
290
     0
176
     1
 90
        1
176
     1
 40
0.0
176
     1
 90
        0
176
     1
290
     0
176
     1
290
     1
176
     1
290
     1
176
     1
290
     0
176
     1
290
     0
176
     1
290
     0
176
     1
290
     0
176
     1
290
     0
176
     1
290
     0
176
     1
 90
       50
176
     1
 40
0.0
176
     1
 40
1.0
176
     1
 90
        0
176
     1
 62
    18
420
        0
176
     1
 90
       50
176
     1
 90
        3
176
     1
 62
     5
420
      255
176
     1
290
     0
176
     1
 90
       50
176
     1
 90
       50
176
     1
 90
       50
176
     1
290
     0
176
     1
 90
       50
176
     1
 62
   256
176
     0
 40
1.0
176
     0
 90
        2
176
     1
  1
strokes_ogs.tif
176
     1
290
     0
176
     1
 40
1.0
176
     1
 40
1.0
176
     1
  0
VISUALSTYLE
  5
34
102
{ACAD_REACTORS
330
29
102
}
330
29
100
AcDbVisualStyle
  2
Dim
 70
    11
177
     3
291
     1
 70
    58
 90
        2
176
     1
 90
        2
176
     1
 90
        0
176
     1
 90
        0
176
     1
 40
0.6
176
     1
 40
30.0
176
     1
 62
     7
420
 16777215
176
     1
 90
        1
176
     1
 90
        4
176
     1
 62
     7
176
     1
 62
   257
176
     1
 90
        1
176
     1
 90
        1
176
     1
 40
1.0
176
     1
 90
        8
176
     1
 62
     7
176
     1
 40
1.0
176
     1
 90
        1
176
     1
 90
        6
176
     1
 90
        2
176
     1
 62
     7
176
     1
 90
        5
176
     1
 90
        0
176
     1
 90
        0
176
     1
290
     0
176
     1
 90
        1
176
     1
 40
-50.0
176
     1
 90
        0
176
     1
290
     0
176
     1
290
     1
176
     1
290
     1
176
     1
290
     0
176
     1
290
     0
176
     1
290
     0
176
     1
290
     0
176
     1
290
     0
176
     1
290
     0
176
     1
 90
       50
176
     1
 40
0.0
176
     1
 40
1.0
176
     1
 90
        0
176
     1
 62
    18
420
        0
176
     1
 90
       50
176
     1
 90
        3
176
     1
 62
     5
420
      255
176
     1
290
     0
176
     1
 90
       50
176
     1
 90
       50
176
     1
 90
       50
176
     1
290
     0
176
     1
 90
       50
176
     1
 62
   256
176
     0
 40
1.0
176
     0
 90
        2
176
     1
  1
strokes_ogs.tif
176
     1
290
     0
176
     1
 40
1.0
176
     1
 40
1.0
176
     1
  0
VISUALSTYLE
  5
41
102
{ACAD_REACTORS
330
29
102
}
330
29
100
AcDbVisualStyle
  2
EdgeColorOff
 70
    22
177
     3
291
     1
 70
    58
 90
        2
176
     0
 90
        2
176
     0
 90
        0
176
     0
 90
        0
176
     0
 40
0.6
176
     0
 40
30.0
176
     0
 62
     7
420
 16777215
176
     0
 90
        1
176
     0
 90
        4
176
     0
 62
     7
176
     0
 62
   257
176
     0
 90
        1
176
     0
 90
        1
176
     0
 40
1.0
176
     0
 90
        8
176
     2
 62
     7
176
     0
 40
1.0
176
     0
 90
        1
176
     0
 90
        6
176
     0
 90
        2
176
     0
 62
     7
176
     0
 90
        5
176
     0
 90
        0
176
     0
 90
        0
176
     0
290
     0
176
     0
 90
        1
176
     0
 40
0.0
176
     0
 90
        0
176
     0
290
     0
176
     0
290
     1
176
     0
290
     1
176
     0
290
     0
176
     0
290
     0
176
     0
290
     0
176
     0
290
     0
176
     0
290
     0
176
     0
290
     0
176
     0
 90
       50
176
     0
 40
0.0
176
     0
 40
1.0
176
     0
 90
        0
176
     0
 62
    18
420
        0
176
     0
 90
       50
176
     0
 90
        3
176
     0
 62
     5
420
      255
176
     0
290
     0
176
     0
 90
       50
176
     0
 90
       50
176
     0
 90
       50
176
     0
290
     0
176
     0
 90
       50
176
     0
 62
   256
176
     0
 40
1.0
176
     0
 90
        2
176
     0
  1
strokes_ogs.tif
176
     0
290
     0
176
     0
 40
1.0
176
     0
 40
1.0
176
     0
  0
VISUALSTYLE
  5
38
102
{ACAD_REACTORS
330
29
102
}
330
29
100
AcDbVisualStyle
  2
Facepattern
 70
    15
177
     3
291
     1
 70
    58
 90
        2
176
     1
 90
        2
176
     1
 90
        0
176
     1
 90
        0
176
     1
 40
0.6
176
     1
 40
30.0
176
     1
 62
     7
420
 16777215
176
     1
 90
        1
176
     1
 90
        4
176
     1
 62
     7
176
     1
 62
   257
176
     1
 90
        1
176
     1
 90
        1
176
     1
 40
1.0
176
     1
 90
        8
176
     1
 62
     7
176
     1
 40
1.0
176
     1
 90
        1
176
     1
 90
        6
176
     1
 90
        2
176
     1
 62
     7
176
     1
 90
        5
176
     1
 90
        0
176
     1
 90
        0
176
     1
290
     0
176
     1
 90
        1
176
     1
 40
0.0
176
     1
 90
        0
176
     1
290
     0
176
     1
290
     1
176
     1
290
     1
176
     1
290
     0
176
     1
290
     0
176
     1
290
     0
176
     1
290
     0
176
     1
290
     0
176
     1
290
     0
176
     1
 90
       50
176
     1
 40
0.0
176
     1
 40
1.0
176
     1
 90
        0
176
     1
 62
    18
420
        0
176
     1
 90
       50
176
     1
 90
        3
176
     1
 62
     5
420
      255
176
     1
290
     0
176
     1
 90
       50
176
     1
 90
       50
176
     1
 90
       50
176
     1
290
     0
176
     1
 90
       50
176
     1
 62
   256
176
     0
 40
1.0
176
     0
 90
        2
176
     1
  1
strokes_ogs.tif
176
     1
290
     0
176
     1
 40
1.0
176
     1
 40
1.0
176
     1
  0
VISUALSTYLE
  5
2A
102
{ACAD_REACTORS
330
29
102
}
330
29
100
AcDbVisualStyle
  2
Flat
 70
     0
177
     3
291
     1
 70
    58
 90
        2
176
     1
 90
        1
176
     1
 90
        1
176
     1
 90
        2
176
     1
 40
0.6
176
     1
 40
30.0
176
     1
 62
     7
420
 16777215
176
     1
 90
        0
176
     1
 90
        0
176
     1
 62
     7
176
     1
 62
   257
176
     1
 90
        1
176
     1
 90
        1
176
     1
 40
1.0
176
     1
 90
        8
176
     1
 62
     7
176
     1
 40
1.0
176
     1
 90
        1
176
     1
 90
        6
176
     1
 90
        2
176
     1
 62
     7
176
     1
 90
        5
176
     1
 90
        0
176
     1
 90
        0
176
     1
290
     0
176
     1
 90
       13
176
     1
 40
0.0
176
     1
 90
        0
176
     1
290
     0
176
     1
290
     1
176
     1
290
     1
176
     1
290
     0
176
     1
290
     0
176
     1
290
     0
176
     1
290
     0
176
     1
290
     0
176
     1
290
     0
176
     1
 90
       50
176
     1
 40
0.0
176
     1
 40
1.0
176
     1
 90
        0
176
     1
 62
    18
420
        0
176
     1
 90
       50
176
     1
 90
        3
176
     1
 62
     5
420
      255
176
     1
290
     0
176
     1
 90
       50
176
     1
 90
       50
176
     1
 90
       50
176
     1
290
     0
176
     1
 90
       50
176
     1
 62
   256
176
     0
 40
1.0
176
     0
 90
        2
176
     1
  1
strokes_ogs.tif
176
     1
290
     0
176
     1
 40
1.0
176
     1
 40
1.0
176
     1
  0
VISUALSTYLE
  5
2B
102
{ACAD_REACTORS
330
29
102
}
330
29
100
AcDbVisualStyle
  2
FlatWithEdges
 70
     1
177
     3
291
     1
 70
    58
 90
        2
176
     1
 90
        1
176
     1
 90
        1
176
     1
 90
        2
176
     1
 40
0.6
176
     1
 40
30.0
176
     1
 62
     7
420
 16777215
176
     1
 90
        1
176
     1
 90
        0
176
     1
 62
     7
176
     1
 62
   257
176
     1
 90
        1
176
     1
 90
        1
176
     1
 40
1.0
176
     1
 90
        0
176
     1
 62
   257
176
     1
 40
1.0
176
     1
 90
        1
176
     1
 90
        6
176
     1
 90
        2
176
     1
 62
     7
176
     1
 90
        5
176
     1
 90
        0
176
     1
 90
        0
176
     1
290
     0
176
     1
 90
       13
176
     1
 40
0.0
176
     1
 90
        0
176
     1
290
     0
176
     1
290
     1
176
     1
290
     1
176
     1
290
     0
176
     1
290
     0
176
     1
290
     0
176
     1
290
     0
176
     1
290
     0
176
     1
290
     0
176
     1
 90
       50
176
     1
 40
0.0
176
     1
 40
1.0
176
     1
 90
        0
176
     1
 62
    18
420
        0
176
     1
 90
       50
176
     1
 90
        3
176
     1
 62
     5
420
      255
176
     1
290
     0
176
     1
 90
       50
176
     1
 90
       50
176
     1
 90
       50
176
     1
290
     0
176
     1
 90
       50
176
     1
 62
   256
176
     0
 40
1.0
176
     0
 90
        2
176
     1
  1
strokes_ogs.tif
176
     1
290
     0
176
     1
 40
1.0
176
     1
 40
1.0
176
     1
  0
VISUALSTYLE
  5
2C
102
{ACAD_REACTORS
330
29
102
}
330
29
100
AcDbVisualStyle
  2
Gouraud
 70
     2
177
     3
291
     1
 70
    58
 90
        2
176
     1
 90
        2
176
     1
 90
        1
176
     1
 90
        2
176
     1
 40
0.6
176
     1
 40
30.0
176
     1
 62
     7
420
 16777215
176
     1
 90
        0
176
     1
 90
        0
176
     1
 62
     7
176
     1
 62
   257
176
     1
 90
        1
176
     1
 90
        1
176
     1
 40
1.0
176
     1
 90
        0
176
     1
 62
     7
176
     1
 40
1.0
176
     1
 90
        1
176
     1
 90
        6
176
     1
 90
        2
176
     1
 62
     7
176
     1
 90
        5
176
     1
 90
        0
176
     1
 90
        0
176
     1
290
     0
176
     1
 90
       13
176
     1
 40
0.0
176
     1
 90
        0
176
     1
290
     0
176
     1
290
     1
176
     1
290
     1
176
     1
290
     0
176
     1
290
     0
176
     1
290
     0
176
     1
290
     0
176
     1
290
     0
176
     1
290
     0
176
     1
 90
       50
176
     1
 40
0.0
176
     1
 40
1.0
176
     1
 90
        0
176
     1
 62
    18
420
        0
176
     1
 90
       50
176
     1
 90
        3
176
     1
 62
     5
420
      255
176
     1
290
     0
176
     1
 90
       50
176
     1
 90
       50
176
     1
 90
       50
176
     1
290
     0
176
     1
 90
       50
176
     1
 62
   256
176
     0
 40
1.0
176
     0
 90
        2
176
     1
  1
strokes_ogs.tif
176
     1
290
     0
176
     1
 40
1.0
176
     1
 40
1.0
176
     1
  0
VISUALSTYLE
  5
2D
102
{ACAD_REACTORS
330
29
102
}
330
29
100
AcDbVisualStyle
  2
GouraudWithEdges
 70
     3
177
     3
291
     1
 70
    58
 90
        2
176
     1
 90
        2
176
     1
 90
        1
176
     1
 90
        2
176
     1
 40
0.6
176
     1
 40
30.0
176
     1
 62
     7
420
 16777215
176
     1
 90
        1
176
     1
 90
        0
176
     1
 62
     7
176
     1
 62
   257
176
     1
 90
        1
176
     1
 90
        1
176
     1
 40
1.0
176
     1
 90
        0
176
     1
 62
   257
176
     1
 40
1.0
176
     1
 90
        1
176
     1
 90
        6
176
     1
 90
        2
176
     1
 62
     7
176
     1
 90
        5
176
     1
 90
        0
176
     1
 90
        0
176
     1
290
     0
176
     1
 90
       13
176
     1
 40
0.0
176
     1
 90
        0
176
     1
290
     0
176
     1
290
     1
176
     1
290
     1
176
     1
290
     0
176
     1
290
     0
176
     1
290
     0
176
     1
290
     0
176
     1
290
     0
176
     1
290
     0
176
     1
 90
       50
176
     1
 40
0.0
176
     1
 40
1.0
176
     1
 90
        0
176
     1
 62
    18
420
        0
176
     1
 90
       50
176
     1
 90
        3
176
     1
 62
     5
420
      255
176
     1
290
     0
176
     1
 90
       50
176
     1
 90
       50
176
     1
 90
       50
176
     1
290
     0
176
     1
 90
       50
176
     1
 62
   256
176
     0
 40
1.0
176
     0
 90
        2
176
     1
  1
strokes_ogs.tif
176
     1
290
     0
176
     1
 40
1.0
176
     1
 40
1.0
176
     1
  0
VISUALSTYLE
  5
31
102
{ACAD_REACTORS
330
29
102
}
330
29
100
AcDbVisualStyle
  2
Hidden
 70
     6
177
     3
291
     0
 70
    58
 90
        1
176
     1
 90
        2
176
     1
 90
        2
176
     1
 90
        0
176
     1
 40
0.6
176
     1
 40
30.0
176
     1
 62
     7
420
 16777215
176
     1
 90
        2
176
     1
 90
        2
176
     1
 62
     7
176
     1
 62
   257
176
     1
 90
        2
176
     1
 90
        1
176
     1
 40
40.0
176
     1
 90
        0
176
     1
 62
   257
176
     1
 40
1.0
176
     1
 90
        1
176
     1
 90
        6
176
     1
 90
        2
176
     1
 62
     7
176
     1
 90
        3
176
     1
 90
        0
176
     1
 90
        0
176
     1
290
     0
176
     1
 90
        1
176
     1
 40
0.0
176
     1
 90
        0
176
     1
290
     0
176
     1
290
     1
176
     1
290
     1
176
     1
290
     0
176
     1
290
     0
176
     1
290
     0
176
     1
290
     0
176
     1
290
     0
176
     1
290
     0
176
     1
 90
       50
176
     1
 40
0.0
176
     1
 40
1.0
176
     1
 90
        0
176
     1
 62
    18
420
        0
176
     1
 90
       50
176
     1
 90
        3
176
     1
 62
     5
420
      255
176
     1
290
     0
176
     1
 90
       50
176
     1
 90
       50
176
     1
 90
       50
176
     1
290
     0
176
     1
 90
       50
176
     1
 62
   256
176
     0
 40
1.0
176
     0
 90
        2
176
     1
  1
strokes_ogs.tif
176
     1
290
     0
176
     1
 40
1.0
176
     1
 40
1.0
176
     1
  0
VISUALSTYLE
  5
3F
102
{ACAD_REACTORS
330
29
102
}
330
29
100
AcDbVisualStyle
  2
JitterOff
 70
    20
177
     3
291
     1
 70
    58
 90
        2
176
     0
 90
        2
176
     0
 90
        0
176
     0
 90
        0
176
     0
 40
0.6
176
     0
 40
30.0
176
     0
 62
     7
420
 16777215
176
     0
 90
        1
176
     0
 90
        4
176
     0
 62
     7
176
     0
 62
   257
176
     0
 90
        1
176
     0
 90
        1
176
     0
 40
1.0
176
     0
 90
       10
176
     2
 62
     7
176
     0
 40
1.0
176
     0
 90
        1
176
     0
 90
        6
176
     0
 90
        2
176
     0
 62
     7
176
     0
 90
        5
176
     0
 90
        0
176
     0
 90
        0
176
     0
290
     0
176
     0
 90
        1
176
     0
 40
0.0
176
     0
 90
        0
176
     0
290
     0
176
     0
290
     1
176
     0
290
     1
176
     0
290
     0
176
     0
290
     0
176
     0
290
     0
176
     0
290
     0
176
     0
290
     0
176
     0
290
     0
176
     0
 90
       50
176
     0
 40
0.0
176
     0
 40
1.0
176
     0
 90
        0
176
     0
 62
    18
420
        0
176
     0
 90
       50
176
     0
 90
        3
176
     0
 62
     5
420
      255
176
     0
290
     0
176
     0
 90
       50
176
     0
 90
       50
176
     0
 90
       50
176
     0
290
     0
176
     0
 90
       50
176
     0
 62
   256
176
     0
 40
1.0
176
     0
 90
        2
176
     0
  1
strokes_ogs.tif
176
     0
290
     0
176
     0
 40
1.0
176
     0
 40
1.0
176
     0
  0
VISUALSTYLE
  5
37
102
{ACAD_REACTORS
330
29
102
}
330
29
100
AcDbVisualStyle
  2
Linepattern
 70
    14
177
     3
291
     1
 70
    58
 90
        2
176
     1
 90
        2
176
     1
 90
        0
176
     1
 90
        0
176
     1
 40
0.6
176
     1
 40
30.0
176
     1
 62
     7
420
 16777215
176
     1
 90
        1
176
     1
 90
        4
176
     1
 62
     7
176
     1
 62
   257
176
     1
 90
        7
176
     1
 90
        7
176
     1
 40
1.0
176
     1
 90
        8
176
     1
 62
     7
176
     1
 40
1.0
176
     1
 90
        1
176
     1
 90
        6
176
     1
 90
        2
176
     1
 62
     7
176
     1
 90
        5
176
     1
 90
        0
176
     1
 90
        0
176
     1
290
     0
176
     1
 90
        1
176
     1
 40
0.0
176
     1
 90
        0
176
     1
290
     0
176
     1
290
     1
176
     1
290
     1
176
     1
290
     0
176
     1
290
     0
176
     1
290
     0
176
     1
290
     0
176
     1
290
     0
176
     1
290
     0
176
     1
 90
       50
176
     1
 40
0.0
176
     1
 40
1.0
176
     1
 90
        0
176
     1
 62
    18
420
        0
176
     1
 90
       50
176
     1
 90
        3
176
     1
 62
     5
420
      255
176
     1
290
     0
176
     1
 90
       50
176
     1
 90
       50
176
     1
 90
       50
176
     1
290
     0
176
     1
 90
       50
176
     1
 62
   256
176
     0
 40
1.0
176
     0
 90
        2
176
     1
  1
strokes_ogs.tif
176
     1
290
     0
176
     1
 40
1.0
176
     1
 40
1.0
176
     1
  0
VISUALSTYLE
  5
40
102
{ACAD_REACTORS
330
29
102
}
330
29
100
AcDbVisualStyle
  2
OverhangOff
 70
    21
177
     3
291
     1
 70
    58
 90
        2
176
     0
 90
        2
176
     0
 90
        0
176
     0
 90
        0
176
     0
 40
0.6
176
     0
 40
30.0
176
     0
 62
     7
420
 16777215
176
     0
 90
        1
176
     0
 90
        4
176
     0
 62
     7
176
     0
 62
   257
176
     0
 90
        1
176
     0
 90
        1
176
     0
 40
1.0
176
     0
 90
        9
176
     2
 62
     7
176
     0
 40
1.0
176
     0
 90
        1
176
     0
 90
        6
176
     0
 90
        2
176
     0
 62
     7
176
     0
 90
        5
176
     0
 90
        0
176
     0
 90
        0
176
     0
290
     0
176
     0
 90
        1
176
     0
 40
0.0
176
     0
 90
        0
176
     0
290
     0
176
     0
290
     1
176
     0
290
     1
176
     0
290
     0
176
     0
290
     0
176
     0
290
     0
176
     0
290
     0
176
     0
290
     0
176
     0
290
     0
176
     0
 90
       50
176
     0
 40
0.0
176
     0
 40
1.0
176
     0
 90
        0
176
     0
 62
    18
420
        0
176
     0
 90
       50
176
     0
 90
        3
176
     0
 62
     5
420
      255
176
     0
290
     0
176
     0
 90
       50
176
     0
 90
       50
176
     0
 90
       50
176
     0
290
     0
176
     0
 90
       50
176
     0
 62
   256
176
     0
 40
1.0
176
     0
 90
        2
176
     0
  1
strokes_ogs.tif
176
     0
290
     0
176
     0
 40
1.0
176
     0
 40
1.0
176
     0
  0
VISUALSTYLE
  5
33
102
{ACAD_REACTORS
330
29
102
}
330
29
100
AcDbVisualStyle
  2
Realistic
 70
     8
177
     3
291
     0
 70
    58
 90
        2
176
     1
 90
        3
176
     1
 90
        0
176
     1
 90
        2
176
     1
 40
0.6
176
     1
 40
30.0
176
     1
 62
     7
420
 16777215
176
     1
 90
        0
176
     1
 90
        0
176
     1
 62
     7
176
     1
 62
   257
176
     1
 90
        1
176
     1
 90
        1
176
     1
 40
1.0
176
     1
 90
        8
176
     1
 62
   257
176
     1
 40
1.0
176
     1
 90
        1
176
     1
 90
        6
176
     1
 90
        2
176
     1
 62
     7
176
     1
 90
        3
176
     1
 90
        0
176
     1
 90
        0
176
     1
290
     0
176
     1
 90
       13
176
     1
 40
0.0
176
     1
 90
        0
176
     1
290
     0
176
     1
290
     1
176
     1
290
     1
176
     1
290
     0
176
     1
290
     0
176
     1
290
     0
176
     1
290
     0
176
     1
290
     0
176
     1
290
     0
176
     1
 90
       50
176
     1
 40
0.0
176
     1
 40
1.0
176
     1
 90
        0
176
     1
 62
    18
420
        0
176
     1
 90
       50
176
     1
 90
        3
176
     1
 62
     5
420
      255
176
     1
290
     0
176
     1
 90
       50
176
     1
 90
       50
176
     1
 90
       50
176
     1
290
     0
176
     1
 90
       50
176
     1
 62
   256
176
     0
 40
1.0
176
     0
 90
        2
176
     1
  1
strokes_ogs.tif
176
     1
290
     0
176
     1
 40
1.0
176
     1
 40
1.0
176
     1
  0
VISUALSTYLE
  5
3E
102
{ACAD_REACTORS
330
29
102
}
330
29
100
AcDbVisualStyle
  2
Shaded
 70
    27
177
     3
291
     0
 70
    58
 90
        2
176
     1
 90
        2
176
     1
 90
        1
176
     1
 90
        2
176
     1
 40
0.6
176
     1
 40
30.0
176
     1
 62
     7
420
 16777215
176
     1
 90
        0
176
     1
 90
        4
176
     1
 62
     7
176
     1
 62
   257
176
     1
 90
        1
176
     1
 90
        1
176
     1
 40
1.0
176
     1
 90
        8
176
     1
 62
   257
176
     1
 40
1.0
176
     1
 90
        1
176
     1
 90
        6
176
     1
 90
        2
176
     1
 62
     8
420
  7895160
176
     1
 90
        3
176
     1
 90
        0
176
     1
 90
        0
176
     1
290
     0
176
     1
 90
        5
176
     1
 40
0.0
176
     1
 90
        0
176
     1
290
     0
176
     1
290
     1
176
     1
290
     1
176
     1
290
     0
176
     1
290
     0
176
     1
290
     0
176
     1
290
     0
176
     1
290
     0
176
     1
290
     0
176
     1
 90
       50
176
     1
 40
0.0
176
     1
 40
1.0
176
     1
 90
        0
176
     1
 62
    18
420
        0
176
     1
 90
       50
176
     1
 90
        3
176
     1
 62
     5
420
      255
176
     1
290
     0
176
     1
 90
       50
176
     1
 90
       50
176
     1
 90
       50
176
     1
290
     0
176
     1
 90
       50
176
     1
 62
   256
176
     0
 40
1.0
176
     0
 90
        2
176
     1
  1
strokes_ogs.tif
176
     1
290
     0
176
     1
 40
1.0
176
     1
 40
1.0
176
     1
  0
VISUALSTYLE
  5
3D
102
{ACAD_REACTORS
330
29
102
}
330
29
100
AcDbVisualStyle
  2
Shaded with edges
 70
    26
177
     3
291
     0
 70
    58
 90
        2
176
     1
 90
        2
176
     1
 90
        1
176
     1
 90
        2
176
     1
 40
0.6
176
     1
 40
30.0
176
     1
 62
     7
420
 16777215
176
     1
 90
        1
176
     1
 90
        2
176
     1
 62
     7
176
     1
 62
   257
176
     1
 90
        2
176
     1
 90
        1
176
     1
 40
1.0
176
     1
 90
        8
176
     1
 62
   257
176
     1
 40
1.0
176
     1
 90
        1
176
     1
 90
        6
176
     1
 90
        2
176
     1
 62
     7
176
     1
 90
        3
176
     1
 90
        0
176
     1
 90
        0
176
     1
290
     0
176
     1
 90
        5
176
     1
 40
0.0
176
     1
 90
        0
176
     1
290
     0
176
     1
290
     1
176
     1
290
     1
176
     1
290
     0
176
     1
290
     0
176
     1
290
     0
176
     1
290
     0
176
     1
290
     0
176
     1
290
     0
176
     1
 90
       50
176
     1
 40
0.0
176
     1
 40
1.0
176
     1
 90
        0
176
     1
 62
    18
420
        0
176
     1
 90
       50
176
     1
 90
        3
176
     1
 62
     5
420
      255
176
     1
290
     0
176
     1
 90
       50
176
     1
 90
       50
176
     1
 90
       50
176
     1
290
     0
176
     1
 90
       50
176
     1
 62
   256
176
     0
 40
1.0
176
     0
 90
        2
176
     1
  1
strokes_ogs.tif
176
     1
290
     0
176
     1
 40
1.0
176
     1
 40
1.0
176
     1
  0
VISUALSTYLE
  5
3A
102
{ACAD_REACTORS
330
29
102
}
330
29
100
AcDbVisualStyle
  2
Shades of Gray
 70
    23
177
     3
291
     0
 70
    58
 90
        2
176
     1
 90
        2
176
     1
 90
        3
176
     1
 90
        0
176
     1
 40
0.6
176
     1
 40
30.0
176
     1
 62
     7
420
 16777215
176
     1
 90
        2
176
     1
 90
        2
176
     1
 62
     7
176
     1
 62
     7
176
     1
 90
        1
176
     1
 90
        1
176
     1
 40
40.0
176
     1
 90
        8
176
     1
 62
     7
176
     1
 40
1.0
176
     1
 90
        1
176
     1
 90
        6
176
     1
 90
        2
176
     1
 62
     7
176
     1
 90
        3
176
     1
 90
        0
176
     1
 90
        0
176
     1
290
     0
176
     1
 90
        1
176
     1
 40
0.0
176
     1
 90
        0
176
     1
290
     0
176
     1
290
     1
176
     1
290
     1
176
     1
290
     0
176
     1
290
     0
176
     1
290
     0
176
     1
290
     0
176
     1
290
     0
176
     1
290
     0
176
     1
 90
       50
176
     1
 40
0.0
176
     1
 40
1.0
176
     1
 90
        0
176
     1
 62
    18
420
        0
176
     1
 90
       50
176
     1
 90
        3
176
     1
 62
     5
420
      255
176
     1
290
     0
176
     1
 90
       50
176
     1
 90
       50
176
     1
 90
       50
176
     1
290
     0
176
     1
 90
       50
176
     1
 62
   256
176
     0
 40
1.0
176
     0
 90
        2
176
     1
  1
strokes_ogs.tif
176
     1
290
     0
176
     1
 40
1.0
176
     1
 40
1.0
176
     1
  0
VISUALSTYLE
  5
3B
102
{ACAD_REACTORS
330
29
102
}
330
29
100
AcDbVisualStyle
  2
Sketchy
 70
    24
177
     3
291
     0
 70
    58
 90
        1
176
     1
 90
        2
176
     1
 90
        2
176
     1
 90
        0
176
     1
 40
0.6
176
     1
 40
30.0
176
     1
 62
     7
420
 16777215
176
     1
 90
        2
176
     1
 90
        2
176
     1
 62
     7
176
     1
 62
     7
176
     1
 90
        1
176
     1
 90
        1
176
     1
 40
40.0
176
     1
 90
       11
176
     1
 62
     7
176
     1
 40
1.0
176
     1
 90
        1
176
     1
 90
        6
176
     1
 90
        2
176
     1
 62
     7
176
     1
 90
        6
176
     1
 90
        0
176
     1
 90
        0
176
     1
290
     0
176
     1
 90
        1
176
     1
 40
0.0
176
     1
 90
        0
176
     1
290
     0
176
     1
290
     1
176
     1
290
     1
176
     1
290
     0
176
     1
290
     0
176
     1
290
     0
176
     1
290
     0
176
     1
290
     0
176
     1
290
     0
176
     1
 90
       50
176
     1
 40
0.0
176
     1
 40
1.0
176
     1
 90
        0
176
     1
 62
    18
420
        0
176
     1
 90
       50
176
     1
 90
        3
176
     1
 62
     5
420
      255
176
     1
290
     0
176
     1
 90
       50
176
     1
 90
       50
176
     1
 90
       50
176
     1
290
     0
176
     1
 90
       50
176
     1
 62
   256
176
     0
 40
1.0
176
     0
 90
        2
176
     1
  1
strokes_ogs.tif
176
     1
290
     0
176
     1
 40
1.0
176
     1
 40
1.0
176
     1
  0
VISUALSTYLE
  5
36
102
{ACAD_REACTORS
330
29
102
}
330
29
100
AcDbVisualStyle
  2
Thicken
 70
    13
177
     3
291
     1
 70
    58
 90
        2
176
     1
 90
        2
176
     1
 90
        0
176
     1
 90
        0
176
     1
 40
0.6
176
     1
 40
30.0
176
     1
 62
     7
420
 16777215
176
     1
 90
        1
176
     1
 90
        4
176
     1
 62
     7
176
     1
 62
   257
176
     1
 90
        1
176
     1
 90
        1
176
     1
 40
1.0
176
     1
 90
       12
176
     1
 62
     7
176
     1
 40
1.0
176
     1
 90
        1
176
     1
 90
        6
176
     1
 90
        2
176
     1
 62
     7
176
     1
 90
        5
176
     1
 90
        0
176
     1
 90
        0
176
     1
290
     0
176
     1
 90
        1
176
     1
 40
0.0
176
     1
 90
        0
176
     1
290
     0
176
     1
290
     1
176
     1
290
     1
176
     1
290
     0
176
     1
290
     0
176
     1
290
     0
176
     1
290
     0
176
     1
290
     0
176
     1
290
     0
176
     1
 90
       50
176
     1
 40
0.0
176
     1
 40
1.0
176
     1
 90
        0
176
     1
 62
    18
420
        0
176
     1
 90
       50
176
     1
 90
        3
176
     1
 62
     5
420
      255
176
     1
290
     0
176
     1
 90
       50
176
     1
 90
       50
176
     1
 90
       50
176
     1
290
     0
176
     1
 90
       50
176
     1
 62
   256
176
     0
 40
1.0
176
     0
 90
        2
176
     1
  1
strokes_ogs.tif
176
     1
290
     0
176
     1
 40
1.0
176
     1
 40
1.0
176
     1
  0
VISUALSTYLE
  5
30
102
{ACAD_REACTORS
330
29
102
}
330
29
100
AcDbVisualStyle
  2
Wireframe
 70
     5
177
     3
291
     0
 70
    58
 90
        0
176
     1
 90
        2
176
     1
 90
        0
176
     1
 90
        0
176
     1
 40
0.6
176
     1
 40
30.0
176
     1
 62
     7
420
 16777215
176
     1
 90
        1
176
     1
 90
        4
176
     1
 62
     7
176
     1
 62
   257
176
     1
 90
        1
176
     1
 90
        1
176
     1
 40
1.0
176
     1
 90
        0
176
     1
 62
   257
176
     1
 40
1.0
176
     1
 90
        1
176
     1
 90
        6
176
     1
 90
        2
176
     1
 62
     7
176
     1
 90
        3
176
     1
 90
        0
176
     1
 90
        0
176
     1
290
     0
176
     1
 90
        1
176
     1
 40
0.0
176
     1
 90
        0
176
     1
290
     0
176
     1
290
     1
176
     1
290
     1
176
     1
290
     0
176
     1
290
     0
176
     1
290
     0
176
     1
290
     0
176
     1
290
     0
176
     1
290
     0
176
     1
 90
       50
176
     1
 40
0.0
176
     1
 40
1.0
176
     1
 90
        0
176
     1
 62
    18
420
        0
176
     1
 90
       50
176
     1
 90
        3
176
     1
 62
     5
420
      255
176
     1
290
     0
176
     1
 90
       50
176
     1
 90
       50
176
     1
 90
       50
176
     1
290
     0
176
     1
 90
       50
176
     1
 62
   256
176
     0
 40
1.0
176
     0
 90
        2
176
     1
  1
strokes_ogs.tif
176
     1
290
     0
176
     1
 40
1.0
176
     1
 40
1.0
176
     1
  0
VISUALSTYLE
  5
3C
102
{ACAD_REACTORS
330
29
102
}
330
29
100
AcDbVisualStyle
  2
X-Ray
 70
    25
177
     3
291
     0
 70
    58
 90
        2
176
     1
 90
        2
176
     1
 90
        1
176
     1
 90
        1
176
     1
 40
0.5
176
     1
 40
30.0
176
     1
 62
     7
420
 16777215
176
     1
 90
        1
176
     1
 90
        0
176
     1
 62
     7
176
     1
 62
   257
176
     1
 90
        1
176
     1
 90
        1
176
     1
 40
1.0
176
     1
 90
        8
176
     1
 62
     7
176
     1
 40
1.0
176
     1
 90
        1
176
     1
 90
        6
176
     1
 90
        2
176
     1
 62
     7
176
     1
 90
        3
176
     1
 90
        0
176
     1
 90
        0
176
     1
290
     0
176
     1
 90
       13
176
     1
 40
0.0
176
     1
 90
        0
176
     1
290
     0
176
     1
290
     1
176
     1
290
     1
176
     1
290
     0
176
     1
290
     0
176
     1
290
     0
176
     1
290
     0
176
     1
290
     0
176
     1
290
     0
176
     1
 90
       50
176
     1
 40
0.0
176
     1
 40
1.0
176
     1
 90
        0
176
     1
 62
    18
420
        0
176
     1
 90
       50
176
     1
 90
        3
176
     1
 62
     5
420
      255
176
     1
290
     0
176
     1
 90
       50
176
     1
 90
       50
176
     1
 90
       50
176
     1
290
     0
176
     1
 90
       50
176
     1
 62
   256
176
     0
 40
1.0
176
     0
 90
        2
176
     1
  1
strokes_ogs.tif
176
     1
290
     0
176
     1
 40
1.0
176
     1
 40
1.0
176
     1
  0
DICTIONARYVAR
  5
2BC
102
{ACAD_REACTORS
330
2B7
102
}
330
2B7
100
DictionaryVariables
280
     0
  1
1:1
  0
DICTIONARYVAR
  5
2B9
102
{ACAD_REACTORS
330
2B7
102
}
330
2B7
100
DictionaryVariables
280
     0
  1
STANDARD
  0
DICTIONARYVAR
  5
2B8
102
{ACAD_REACTORS
330
2B7
102
}
330
2B7
100
DictionaryVariables
280
     0
  1
STANDARD
  0
DICTIONARYVAR
  5
2BA
102
{ACAD_REACTORS
330
2B7
102
}
330
2B7
100
DictionaryVariables
280
     0
  1
Imperial24
  0
DICTIONARYVAR
  5
2BB
102
{ACAD_REACTORS
330
2B7
102
}
330
2B7
100
DictionaryVariables
280
     0
  1
Imperial24
  0
DICTIONARY
  5
1A
330
19
100
AcDbDictionary
280
     1
281
     1
  3
BUMPTILE
360
1C
  3
DIFFUSETILE
360
1B
  3
OPACITYTILE
360
1F
  3
REFLECTIONTILE
360
1E
  3
REFRACTIONTILE
360
20
  3
SPECULARTILE
360
1D
  0
DICTIONARY
  5
12
330
11
100
AcDbDictionary
280
     1
281
     1
  3
BUMPTILE
360
14
  3
DIFFUSETILE
360
13
  3
OPACITYTILE
360
17
  3
REFLECTIONTILE
360
16
  3
REFRACTIONTILE
360
18
  3
SPECULARTILE
360
15
  0
DICTIONARY
  5
22
330
21
100
AcDbDictionary
280
     1
281
     1
  3
BUMPTILE
360
24
  3
DIFFUSETILE
360
23
  3
OPACITYTILE
360
27
  3
REFLECTIONTILE
360
26
  3
REFRACTIONTILE
360
28
  3
SPECULARTILE
360
25
  0
DICTIONARY
  5
2BD
330
65
100
AcDbDictionary
280
     1
281
     1
  3
ACAD_ROUNDTRIP_2008_TABLESTYLE_CELLSTYLEMAP
360
2BE
  0
XRECORD
  5
1C
102
{ACAD_REACTORS
330
1A
102
}
330
1A
100
AcDbXrecord
280
     1
270
     1
271
     1
  0
XRECORD
  5
1B
102
{ACAD_REACTORS
330
1A
102
}
330
1A
100
AcDbXrecord
280
     1
270
     1
271
     1
  0
XRECORD
  5
1F
102
{ACAD_REACTORS
330
1A
102
}
330
1A
100
AcDbXrecord
280
     1
270
     1
271
     1
  0
XRECORD
  5
1E
102
{ACAD_REACTORS
330
1A
102
}
330
1A
100
AcDbXrecord
280
     1
270
     1
271
     1
  0
XRECORD
  5
20
102
{ACAD_REACTORS
330
1A
102
}
330
1A
100
AcDbXrecord
280
     1
270
     1
271
     1
  0
XRECORD
  5
1D
102
{ACAD_REACTORS
330
1A
102
}
330
1A
100
AcDbXrecord
280
     1
270
     1
271
     1
  0
XRECORD
  5
14
102
{ACAD_REACTORS
330
12
102
}
330
12
100
AcDbXrecord
280
     1
270
     1
271
     1
  0
XRECORD
  5
13
102
{ACAD_REACTORS
330
12
102
}
330
12
100
AcDbXrecord
280
     1
270
     1
271
     1
  0
XRECORD
  5
17
102
{ACAD_REACTORS
330
12
102
}
330
12
100
AcDbXrecord
280
     1
270
     1
271
     1
  0
XRECORD
  5
16
102
{ACAD_REACTORS
330
12
102
}
330
12
100
AcDbXrecord
280
     1
270
     1
271
     1
  0
XRECORD
  5
18
102
{ACAD_REACTORS
330
12
102
}
330
12
100
AcDbXrecord
280
     1
270
     1
271
     1
  0
XRECORD
  5
15
102
{ACAD_REACTORS
330
12
102
}
330
12
100
AcDbXrecord
280
     1
270
     1
271
     1
  0
XRECORD
  5
24
102
{ACAD_REACTORS
330
22
102
}
330
22
100
AcDbXrecord
280
     1
270
     1
271
     1
  0
XRECORD
  5
23
102
{ACAD_REACTORS
330
22
102
}
330
22
100
AcDbXrecord
280
     1
270
     1
271
     1
  0
XRECORD
  5
27
102
{ACAD_REACTORS
330
22
102
}
330
22
100
AcDbXrecord
280
     1
270
     1
271
     1
  0
XRECORD
  5
26
102
{ACAD_REACTORS
330
22
102
}
330
22
100
AcDbXrecord
280
     1
270
     1
271
     1
  0
XRECORD
  5
28
102
{ACAD_REACTORS
330
22
102
}
330
22
100
AcDbXrecord
280
     1
270
     1
271
     1
  0
XRECORD
  5
25
102
{ACAD_REACTORS
330
22
102
}
330
22
100
AcDbXrecord
280
     1
270
     1
271
     1
  0
CELLSTYLEMAP
  5
2BE
102
{ACAD_REACTORS
330
2BD
102
}
330
2BD
100
AcDbCellStyleMap
 90
        3
300
CELLSTYLE
  1
TABLEFORMAT_BEGIN
 90
        5
170
     1
 91
        0
 92
    32768
 62
   257
 93
        1
300
CONTENTFORMAT
  1
CONTENTFORMAT_BEGIN
 90
        0
 91
        0
 92
      512
 93
        0
300

 40
0.0
140
1.0
 94
        5
 62
     0
340
55
144
0.25
309
CONTENTFORMAT_END
171
     0
 94
        0
309
TABLEFORMAT_END
  1
CELLSTYLE_BEGIN
 90
        1
 91
        1
300
_TITLE
309
CELLSTYLE_END
300
CELLSTYLE
  1
TABLEFORMAT_BEGIN
 90
        5
170
     1
 91
        0
 92
        0
 62
   257
 93
        1
300
CONTENTFORMAT
  1
CONTENTFORMAT_BEGIN
 90
        0
 91
        0
 92
      512
 93
        0
300

 40
0.0
140
1.0
 94
        5
 62
     0
340
55
144
0.18
309
CONTENTFORMAT_END
171
     0
 94
        0
309
TABLEFORMAT_END
  1
CELLSTYLE_BEGIN
 90
        2
 91
        1
300
_HEADER
309
CELLSTYLE_END
300
CELLSTYLE
  1
TABLEFORMAT_BEGIN
 90
        5
170
     1
 91
        0
 92
        0
 62
   257
 93
        1
300
CONTENTFORMAT
  1
CONTENTFORMAT_BEGIN
 90
        0
 91
        0
 92
      512
 93
        0
300

 40
0.0
140
1.0
 94
        2
 62
     0
340
55
144
0.18
309
CONTENTFORMAT_END
171
     0
 94
        0
309
TABLEFORMAT_END
  1
CELLSTYLE_BEGIN
 90
        3
 91
        2
300
_DATA
309
CELLSTYLE_END
  0
ENDSEC
  0
EOF
