  0
SECTION
  2
HEADER
  9
$ACADVER
  1
AC1009
  9
$INSBASE
 10
0
 20
0
 30
0
  9
$EXTMIN
 10
0
 20
0
  9
$EXTMAX
 10
2100
 20
1485
  9
$LIMMIN
 10
0
 20
0
  9
$LIMMAX
 10
2100
 20
1485
  9
$LTSCALE
 40
5
  0
ENDSEC
  0
SECTION
  2
TABLES
  0
TABLE
  2
LTYPE
 70
     9
  0
LTYPE
  2
CONTINUOUS
 70
    64
  3
実線
 72
    65
 73
     0
 40
0.0
  0
LTYPE
  2
DASHED1
 70
    64
  3
--  --  --  --  --  --  --  --  
 72
    65
 73
     2
 40
2.5
 49
1.25
 49
-1.25
  0
LTYPE
  2
DASHED2
 70
    64
  3
----    ----    ----    ----    
 72
    65
 73
     2
 40
5.0
 49
2.5
 49
-2.5
  0
LTYPE
  2
DASHED3
 70
    64
  3
------  ------  ------  ------  
 72
    65
 73
     2
 40
5.0
 49
3.75
 49
-1.25
  0
LTYPE
  2
CENTER1
 70
    64
  3
----- - ----- - ----- - ----- - 
 72
    65
 73
     4
 40
10.0
 49
6.25
 49
-1.25
 49
1.25
 49
-1.25
  0
LTYPE
  2
CENTER2
 70
    64
  3
----------  --  ----------  --  
 72
    65
 73
     4
 40
20.0
 49
12.5
 49
-2.5
 49
2.5
 49
-2.5
  0
LTYPE
  2
PHANTOM1
 70
    64
  3
--- - - --- - - --- - - --- - - 
 72
    65
 73
     6
 40
10.0
 49
3.25
 49
-1.25
 49
1.25
 49
-1.25
 49
1.25
 49
-1.25
  0
LTYPE
  2
PHANTOM2
 70
    64
  3
--------  -  -  --------  -  -  
 72
    65
 73
     6
 40
20.0
 49
10.0
 49
-2.5
 49
1.25
 49
-2.5
 49
1.25
 49
-2.5
  0
LTYPE
  2
DOT
 70
    64
  3
-   -   -   -   -   -   -   -   
 72
    65
 73
     2
 40
2.5
 49
0.625
 49
-1.875
  0
LTYPE
  2
DUMMY
 70
    64
  3
ダミー
 72
    65
 73
     0
 40
0.0
  0
LTYPE
  2
RAND1
 70
    64
  3
ランダム線1
 72
    65
 73
     4
 40
10.0
 49
1.0
 49
-2.0
 49
3.0
 49
-4.0
  0
LTYPE
  2
RAND2
 70
    64
  3
ランダム線2
 72
    65
 73
     4
 40
14.0
 49
2.0
 49
-3.0
 49
4.0
 49
-5.0
  0
LTYPE
  2
RAND3
 70
    64
  3
ランダム線3
 72
    65
 73
     4
 40
18.0
 49
3.0
 49
-4.0
 49
5.0
 49
-6.0
  0
LTYPE
  2
RAND4
 70
    64
  3
ランダム線4
 72
    65
 73
     4
 40
22.0
 49
4.0
 49
-5.0
 49
6.0
 49
-7.0
  0
LTYPE
  2
RAND5
 70
    64
  3
ランダム線5
 72
    65
 73
     4
 40
26.0
 49
5.0
 49
-6.0
 49
7.0
 49
-8.0
  0
LTYPE
  2
LONG1
 70
    64
  3
----------  --  ----------  --  
 72
    65
 73
     4
 40
40.0
 49
32.5
 49
-2.5
 49
2.5
 49
-2.5
  0
LTYPE
  2
LONG2
 70
    64
  3
--------  -  -  --------  -  -  
 72
    65
 73
     6
 40
40.0
 49
30.0
 49
-2.5
 49
1.25
 49
-2.5
 49
1.25
 49
-2.5
  0
LTYPE
  2
LONG3
 70
    64
  3
+++++++++++++++..+++++++++++++++
 72
    65
 73
     2
 40
40.0
 49
37.5
 49
-2.5
  0
LTYPE
  2
LONG4
 70
    64
  3
+++++++++++++++..+++++++++++++++
 72
    65
 73
     2
 40
80.0
 49
75.0
 49
-5.0
  0
LTYPE
  2
LONG5
 70
    64
  3
----------  --  ----------  --  
 72
    65
 73
     4
 40
60.0
 49
37.5
 49
-7.5
 49
7.5
 49
-7.5
  0
LTYPE
  2
dashed
 70
   64
  3
-------   -------------   ------
 72
   65
 73
    2
 40
7.5
 49
6
 49
-1.5
  0
LTYPE
  2
dashed_spaced
 70
   64
  3
----        --------        ----
 72
   65
 73
    2
 40
12
 49
6
 49
-6
  0
LTYPE
  2
long_dashed_dotted
 70
   64
  3
------------- --- --------------
 72
   65
 73
    4
 40
15.25
 49
12
 49
-1.5
 49
0.25
 49
-1.5
  0
LTYPE
  2
long_dashed_double-dotted
 70
   64
  3
----------- --- --- ------------
 72
   65
 73
    6
 40
17
 49
12
 49
-1.5
 49
0.25
 49
-1.5
 49
0.25
 49
-1.5
  0
LTYPE
  2
long_dashed_triplicate-dotted
 70
   64
  3
--------- --- --- --- ----------
 72
   65
 73
    8
 40
18.75
 49
12
 49
-1.5
 49
0.25
 49
-1.5
 49
0.25
 49
-1.5
 49
0.25
 49
-1.5
  0
LTYPE
  2
dotted
 70
   64
  3
   -       -       -       -    
 72
   65
 73
    2
 40
1.75
 49
0.25
 49
-1.5
  0
LTYPE
  2
chain
 70
   64
  3
-------------- -- --------------
 72
   65
 73
    4
 40
18.5
 49
12
 49
-1.5
 49
3.5
 49
-1.5
  0
LTYPE
  2
chain_double_dash
 70
   64
  3
------------ -- -- -------------
 72
   65
 73
    6
 40
23.5
 49
12
 49
-1.5
 49
3.5
 49
-1.5
 49
3.5
 49
-1.5
  0
LTYPE
  2
dashed_dotted
 70
   64
  3
-----------     -     ----------
 72
   65
 73
    4
 40
9.25
 49
6
 49
-1.5
 49
0.25
 49
-1.5
  0
LTYPE
  2
double-dashed_dotted
 70
   64
  3
------   -----------   -   -----
 72
   65
 73
    6
 40
16.75
 49
6
 49
-1.5
 49
6
 49
-1.5
 49
0.25
 49
-1.5
  0
LTYPE
  2
dashed_double-dotted
 70
   64
  3
---------    -    -    ---------
 72
   65
 73
    6
 40
11
 49
6
 49
-1.5
 49
0.25
 49
-1.5
 49
0.25
 49
-1.5
  0
LTYPE
  2
double-dashed_double-dotted
 70
   64
  3
-----   ---------   -   -   ----
 72
   65
 73
    8
 40
18.5
 49
6
 49
-1.5
 49
6
 49
-1.5
 49
0.25
 49
-1.5
 49
0.25
 49
-1.5
  0
LTYPE
  2
dashed_triplicate-dotted
 70
   64
  3
-------    -    -    -    ------
 72
   65
 73
    8
 40
12.75
 49
6
 49
-1.5
 49
0.25
 49
-1.5
 49
0.25
 49
-1.5
 49
0.25
 49
-1.5
  0
LTYPE
  2
double-dashed_triplicate-dotted
 70
   64
  3
-----  ---------  -  -  -  -----
 72
   65
 73
   10
 40
20.25
 49
6
 49
-1.5
 49
6
 49
-1.5
 49
0.25
 49
-1.5
 49
0.25
 49
-1.5
 49
0.25
 49
-1.5
  0
LTYPE
  2
undefined
 70
   64
  3
--------------------------------
 72
   65
 73
    0
 40
0
  0
LTYPE
  2
_
 70
   64
  3
                                
 72
   65
 73
    0
 40
0
  0
LTYPE
  2
__18
 70
   64
  3
                                
 72
   65
 73
    0
 40
0
  0
LTYPE
  2
__19
 70
   64
  3
                                
 72
   65
 73
    0
 40
0
  0
LTYPE
  2
__20
 70
   64
  3
                                
 72
   65
 73
    0
 40
0
  0
LTYPE
  2
__21
 70
   64
  3
                                
 72
   65
 73
    0
 40
0
  0
LTYPE
  2
__22
 70
   64
  3
                                
 72
   65
 73
    0
 40
0
  0
LTYPE
  2
__23
 70
   64
  3
                                
 72
   65
 73
    0
 40
0
  0
LTYPE
  2
__24
 70
   64
  3
                                
 72
   65
 73
    0
 40
0
  0
LTYPE
  2
__25
 70
   64
  3
                                
 72
   65
 73
    0
 40
0
  0
LTYPE
  2
__26
 70
   64
  3
                                
 72
   65
 73
    0
 40
0
  0
LTYPE
  2
__27
 70
   64
  3
                                
 72
   65
 73
    0
 40
0
  0
LTYPE
  2
__28
 70
   64
  3
                                
 72
   65
 73
    0
 40
0
  0
LTYPE
  2
__29
 70
   64
  3
                                
 72
   65
 73
    0
 40
0
  0
LTYPE
  2
__30
 70
   64
  3
                                
 72
   65
 73
    0
 40
0
  0
LTYPE
  2
__31
 70
   64
  3
                                
 72
   65
 73
    0
 40
0
  0
LTYPE
  2
__32
 70
   64
  3
                                
 72
   65
 73
    0
 40
0
  0
ENDTAB
  0
TABLE
  2
STYLE
  5
3
100
AcDbSymbolTable
 70
     1
  0
STYLE
  5
10
100
AcDbSymbolTableRecord
100
AcDbTextStyleTableRecord
  2
STANDARD
 70
     0
 40
0.0
 41
1.0
 50
0.0
 71
     0
 42
0.2
  3
txt
  4
bigfont.shx
  0
STYLE
  5
26
100
AcDbSymbolTableRecord
100
AcDbTextStyleTableRecord
  2
TATEGAKI
 70
    68
 40
0.0
 41
1.0
 50
0.0
 71
     0
 42
1.0
  3
txt
  4
bigfont.shx
  0
ENDTAB
  0
TABLE
  2
LAYER
 70
   12
  0
LAYER
  2
_0-0_
 70
   64
 62
    7
  6
CONTINUOUS
  0
LAYER
  2
_0-1_マウンティングディスク
 70
   64
 62
    7
  6
CONTINUOUS
  0
LAYER
  2
_0-2_目皿
 70
   64
 62
    7
  6
CONTINUOUS
  0
LAYER
  2
_0-3_スポンジパッキン
 70
   64
 62
    7
  6
CONTINUOUS
  0
LAYER
  2
_0-4_三角パッキン
 70
   64
 62
    7
  6
CONTINUOUS
  0
LAYER
  2
_0-5_スリップパッキン
 70
   64
 62
    7
  6
CONTINUOUS
  0
LAYER
  2
_0-7_洗面ボウル
 70
   64
 62
    7
  6
CONTINUOUS
  0
LAYER
  2
_0-8_天板
 70
   64
 62
    7
  6
CONTINUOUS
  0
LAYER
  2
_0-9_バックプレ__ト
 70
   64
 62
    7
  6
CONTINUOUS
  0
LAYER
  2
_0-a_ナット
 70
   64
 62
    7
  6
CONTINUOUS
  0
LAYER
  2
_0-b_化粧キャップラウンド
 70
   64
 62
    7
  6
CONTINUOUS
  0
LAYER
  2
ADD_LINE
 70
   64
 62
    7
  6
CONTINUOUS
  0
ENDTAB
  0
ENDSEC
  0
SECTION
  2
BLOCKS
  0
ENDSEC
  0
SECTION
  2
ENTITIES
  0
TEXT
  8
_0-0_
 62
    7
 10
695.11430347179555
 20
458.22815453750934
 40
17.5
 41
1
 50
0
  1
品　番：SC-ADW-S070／SC-ADW-P070／SC-ADW-B070
  0
LINE
  8
_0-0_
  6
CONTINUOUS
 62
    7
 10
666.33649231803872
 20
439.51557813630955
 11
1433.6635076819611
 21
439.51557813630955
  0
TEXT
  8
_0-0_
 62
    7
 10
763.34524249259459
 20
230.83197330385928
 40
15
 41
1
 50
0
  1
・排水トラップ
  0
TEXT
  8
_0-0_
 62
    7
 10
763.3452424925947
 20
330.83197330385928
 40
15
 41
1
 50
0
  1
・Mimi シリーズ　排水栓（排水目皿）（70㎜）
  0
TEXT
  8
_0-0_
 62
    7
 10
763.34524249259459
 20
355.83197330385928
 40
15
 41
1
 50
0
  1
・Оリング×2（乳白・黒 各1）
  0
TEXT
  8
_0-0_
 62
    7
 10
763.34524249259459
 20
380.83197330385928
 40
15
 41
1
 50
0
  1
・SUS304 Mimi マウンティングディスク
  0
TEXT
  8
_0-0_
 62
    7
 10
764.9909226434861
 20
405.07867789672889
 40
15
 41
1
 50
0
  1
【セット内容】
  0
TEXT
  8
_0-0_
 62
    7
 10
1239.7075061101975
 20
445.55202280950254
 40
15
 41
1
 50
0
  1
※天板厚　15～25㎜対応
  0
TEXT
  8
_0-0_
 62
    7
 10
763.34524249259459
 20
205.83197330385928
 40
15
 41
1
 50
0
  1
・化粧キャップラウンド（クロム）
  0
TEXT
  8
_0-0_
 62
    7
 10
763.3452424925947
 20
180.83197330385928
 40
15
 41
1
 50
0
  1
・排水トラップ（SトラップまたはPトラップまたはボトルラップ）
  0
TEXT
  8
_0-0_
 62
    7
 10
695.11430347179555
 20
483.58892906806772
 40
17.5
 41
1
 50
0
  1
商品名：Mimi210シリーズ Sトラップ／Pトラップ／ボトルラップ コンプリートセット70mm
  0
TEXT
  8
_0-0_
 62
    7
 10
763.3452424925947
 20
305.83197330385928
 40
15
 41
1
 50
0
  1
・排水パッキン（スポンジパッキン・三角パッキン・スリップパッキン）
  0
TEXT
  8
_0-0_
 62
    7
 10
763.3452424925947
 20
280.83197330385928
 40
15
 41
1
 50
0
  1
・排水目皿用ナット×2
  0
TEXT
  8
_0-0_
 62
    7
 10
763.34524249259459
 20
255.83197330385922
 40
15
 41
1
 50
0
  1
・ボウル固定板（バックプレート）
  0
LINE
  8
_0-0_
  6
CONTINUOUS
 62
    4
 10
1011.4530391686787
 20
1003.9789153402396
 11
818.99006663455315
 21
949.69860603869301
  0
TEXT
  8
_0-0_
 62
    4
 10
731.54973832683958
 20
943.24713062784576
 40
12.5
 41
1
 50
0
  1
Оリング（黒）
  0
LINE
  8
_0-0_
  6
CONTINUOUS
 62
    4
 10
1038.283324782322
 20
969.87330052101754
 11
929.93464454472723
 21
869.38564341406674
  0
LINE
  8
_0-0_
  6
CONTINUOUS
 62
    4
 10
1013.222087492291
 20
977.2053339631534
 11
911.40177322022566
 21
912.37103128564172
  0
LINE
  8
_0-0_
  6
CONTINUOUS
 62
    4
 10
1040.9125511999163
 20
994.39345441931152
 11
929.93464454472723
 21
869.38564341406674
  0
TEXT
  8
_0-0_
 62
    4
 10
1262.8028154270916
 20
903.08999357474408
 40
12.5
 41
1
 50
0
  1
Оリング（乳白）
  0
LINE
  8
_0-0_
  6
CONTINUOUS
 62
    4
 10
1075.5922025365703
 20
1012.1345789228348
 11
1259.9245952721316
 21
913.65732380718554
  0
TEXT
  8
_0-0_
 62
    4
 10
1282.3784153729322
 20
872.64818533734216
 40
12.5
 41
1
 50
0
  1
三角パッキン
  0
LINE
  8
_0-0_
  6
CONTINUOUS
 62
    4
 10
1057.430755221887
 20
1003.9426219041295
 11
1279.8859777826262
 21
880.3277347944014
  0
TEXT
  8
_0-0_
 62
    4
 10
1234.9562728930941
 20
850.88754114327355
 40
12.5
 41
1
 50
0
  1
スリップパッキン
  0
LINE
  8
_0-0_
  6
CONTINUOUS
 62
    4
 10
1051.6891813279478
 20
1000.1618580978013
 11
1232.1934858156023
 21
857.98191697815366
  0
LINE
  8
_0-0_
  6
DASHED2
 62
    4
 10
1058.7532467532469
 20
862.23343151443054
 11
1060.0519480519471
 21
862.62025921226404
  0
LINE
  8
_0-0_
  6
DASHED2
 62
    4
 10
1057.2467532467533
 20
862.23343151443054
 11
1058.0000000000006
 21
862.16902839693966
  0
LINE
  8
_0-0_
  6
DASHED2
 62
    4
 10
1058.0000000000006
 20
862.16902839693966
 11
1058.7532467532469
 21
862.23343151443054
  0
LINE
  8
_0-0_
  6
DASHED2
 62
    4
 10
1038.6493506493513
 20
871.0370597228516
 11
1039.9480519480528
 21
871.71779758161528
  0
LINE
  8
_0-0_
  6
DASHED2
 62
    4
 10
1039.9480519480528
 20
871.71779758161528
 11
1041.246753246753
 21
872.10462527944878
  0
LINE
  8
_0-0_
  6
DASHED2
 62
    4
 10
1041.246753246753
 20
872.10462527944878
 11
1041.9999999999993
 21
872.16902839693966
  0
LINE
  8
_0-0_
  6
DASHED2
 62
    4
 10
1041.9999999999993
 20
872.16902839693966
 11
1042.7532467532466
 21
872.10462527944878
  0
LINE
  8
_0-0_
  6
DASHED2
 62
    4
 10
1042.7532467532466
 20
872.10462527944878
 11
1044.0519480519481
 21
871.71779758161528
  0
LINE
  8
_0-0_
  6
DASHED2
 62
    4
 10
1044.0519480519481
 20
871.71779758161528
 11
1045.3506493506495
 21
871.0370597228516
  0
LINE
  8
_0-0_
  6
DASHED2
 62
    4
 10
1045.3506493506495
 20
871.0370597228516
 11
1046.6493506493509
 21
870.12658422737808
  0
LINE
  8
_0-0_
  6
DASHED2
 62
    4
 10
1046.6493506493509
 20
870.12658422737808
 11
1047.9480519480523
 21
869.05054361941552
  0
LINE
  8
_0-0_
  6
DASHED2
 62
    4
 10
1047.9480519480523
 20
869.05054361941552
 11
1049.2467532467537
 21
867.87311042318435
  0
LINE
  8
_0-0_
  6
DASHED2
 62
    4
 10
1049.2467532467537
 20
867.87311042318435
 11
1050.7532467532462
 21
866.46494637069508
  0
LINE
  8
_0-0_
  6
DASHED2
 62
    4
 10
1050.7532467532462
 20
866.46494637069508
 11
1052.0519480519476
 21
865.28751317446392
  0
LINE
  8
_0-0_
  6
DASHED2
 62
    4
 10
1052.0519480519476
 20
865.28751317446392
 11
1053.350649350649
 21
864.21147256650124
  0
LINE
  8
_0-0_
  6
DASHED2
 62
    4
 10
1053.350649350649
 20
864.21147256650124
 11
1054.6493506493504
 21
863.30099707102795
  0
LINE
  8
_0-0_
  6
DASHED2
 62
    4
 10
1054.6493506493504
 20
863.30099707102795
 11
1055.9480519480518
 21
862.62025921226404
  0
LINE
  8
_0-0_
  6
DASHED2
 62
    4
 10
1055.9480519480518
 20
862.62025921226404
 11
1057.2467532467533
 21
862.23343151443054
  0
LINE
  8
_0-0_
  6
DASHED2
 62
    4
 10
1037.5
 20
870.23128890935709
 11
1038.6493506493513
 21
871.0370597228516
  0
LINE
  8
_0-0_
  6
DASHED2
 62
    4
 10
1060.0519480519471
 20
862.62025921226404
 11
1061.3506493506486
 21
863.30099707102795
  0
LINE
  8
_0-0_
  6
DASHED2
 62
    4
 10
1061.3506493506486
 20
863.30099707102795
 11
1062.5
 21
864.10676788452246
  0
LINE
  8
_0-0_
  6
CONTINUOUS
 62
    4
 10
1453.8169932835442
 20
1003.0695272814718
 11
1453.8169932835442
 21
978.06952728147189
  0
LINE
  8
_0-0_
  6
CONTINUOUS
 62
    7
 10
1453.8169932835442
 20
1003.0695272814718
 11
1451.8758504452753
 21
1010.3139709786399
  0
LINE
  8
_0-0_
  6
CONTINUOUS
 62
    7
 10
1453.8169932835442
 20
1003.0695272814718
 11
1455.7581361218128
 21
1010.3139709786399
  0
LINE
  8
_0-0_
  6
CONTINUOUS
 62
    7
 10
1453.8169932835442
 20
978.06952728147189
 11
1455.7581361218128
 21
970.82508358430402
  0
LINE
  8
_0-0_
  6
CONTINUOUS
 62
    7
 10
1453.8169932835442
 20
978.06952728147189
 11
1451.8758504452753
 21
970.82508358430402
  0
LINE
  8
_0-0_
  6
CONTINUOUS
 62
    4
 10
1453.8169932835442
 20
1003.0695272814718
 11
1426.6365445579358
 21
1003.0695272814718
  0
LINE
  8
_0-0_
  6
CONTINUOUS
 62
    4
 10
1453.8169932835442
 20
978.06952728147189
 11
1426.6365445579358
 21
978.06952728147189
  0
TEXT
  8
_0-0_
 62
    7
 10
1451.3169932835442
 20
982.44452728147189
 40
15
 41
1
 50
90
  1
25
  0
TEXT
  8
_0-0_
 62
    7
 10
1221.8249568023954
 20
955.53973208624961
 40
17.5
 41
1
 50
0
  1
天板開口寸法：53～55
  0
LINE
  8
_0-0_
  6
DASHED2
 62
    4
 10
1037.5
 20
954.42638714571921
 11
1037.5
 21
870.23128890935709
  0
LINE
  8
_0-0_
  6
DASHED2
 62
    4
 10
1062.5
 20
954.42638714571921
 11
1062.5
 21
864.10676788452246
  0
LINE
  8
_0-0_
  6
CONTINUOUS
 62
    4
 10
1056.1328263530378
 20
1037.8020805787123
 11
1137.1263350808806
 21
1132.7079342698561
  0
TEXT
  8
_0-0_
 62
    4
 10
1140.5156912876395
 20
1132.0808143554195
 40
12.5
 41
1
 50
0
  1
化粧キャップラウンド
  0
TEXT
  8
_0-0_
 62
    4
 10
1259.3979344990614
 20
1052.701335173559
 40
12.5
 41
1
 50
0
  1
スポンジパッキン
  0
LINE
  8
_0-0_
  6
CONTINUOUS
 62
    4
 10
1096.9708104779558
 20
1005.0200925411777
 11
1261.6568212073893
 21
1040.7636235677407
  0
TEXT
  8
_0-0_
 62
    4
 10
1261.178156061376
 20
1035.1716635547084
 40
12.5
 41
1
 50
0
  1
マウンティングディスク
  0
LINE
  8
_0-0_
  6
CENTER1
 62
    4
 10
1050
 20
1161.0480738037572
 11
1050
 21
829.25375318568649
  0
LINE
  8
_0-0_
  6
CONTINUOUS
 62
    4
 10
1054.1705771262638
 20
875.4591007653255
 11
1220.6127900841142
 21
831.92806045327233
  0
LINE
  8
_0-8_天板
  6
CONTINUOUS
 62
    3
 10
1017.5
 20
1003.0695272814718
 11
694.2127721609421
 21
1003.0695272814718
  0
LINE
  8
_0-8_天板
  6
CONTINUOUS
 62
    4
 10
694.2127721609421
 20
1003.0695272814718
 11
694.93501731898732
 21
1002.0102740347186
  0
LINE
  8
_0-8_天板
  6
CONTINUOUS
 62
    4
 10
694.93501731898732
 20
1002.0102740347186
 11
696.14282463859069
 21
1000.1839753334201
  0
LINE
  8
_0-8_天板
  6
CONTINUOUS
 62
    4
 10
696.14282463859069
 20
1000.1839753334201
 11
697.24662375572791
 21
998.35767663212118
  0
LINE
  8
_0-8_天板
  6
CONTINUOUS
 62
    4
 10
697.24662375572791
 20
998.35767663212118
 11
698.18058669415449
 21
996.5313779308226
  0
LINE
  8
_0-8_天板
  6
CONTINUOUS
 62
    4
 10
698.18058669415449
 20
996.5313779308226
 11
698.87888547762599
 21
994.70507922952401
  0
LINE
  8
_0-8_天板
  6
CONTINUOUS
 62
    4
 10
698.87888547762599
 20
994.70507922952401
 11
699.27569212989624
 21
992.8787805282252
  0
LINE
  8
_0-8_天板
  6
CONTINUOUS
 62
    4
 10
699.27569212989624
 20
992.8787805282252
 11
699.34175664800136
 21
991.81952728147189
  0
LINE
  8
_0-8_天板
  6
CONTINUOUS
 62
    4
 10
699.34175664800136
 20
991.81952728147189
 11
699.27569212989624
 21
990.76027403471869
  0
LINE
  8
_0-8_天板
  6
CONTINUOUS
 62
    4
 10
699.27569212989624
 20
990.76027403471869
 11
698.87888547762599
 21
988.9339753334201
  0
LINE
  8
_0-8_天板
  6
CONTINUOUS
 62
    4
 10
698.87888547762599
 20
988.9339753334201
 11
698.18058669415449
 21
987.10767663212118
  0
LINE
  8
_0-8_天板
  6
CONTINUOUS
 62
    4
 10
698.18058669415449
 20
987.10767663212118
 11
697.24662375572791
 21
985.2813779308226
  0
LINE
  8
_0-8_天板
  6
CONTINUOUS
 62
    4
 10
697.24662375572791
 20
985.2813779308226
 11
696.14282463859069
 21
983.45507922952401
  0
LINE
  8
_0-8_天板
  6
CONTINUOUS
 62
    4
 10
696.14282463859069
 20
983.45507922952401
 11
694.93501731898732
 21
981.6287805282252
  0
LINE
  8
_0-8_天板
  6
CONTINUOUS
 62
    4
 10
694.93501731898732
 20
981.6287805282252
 11
693.49052700289689
 21
979.51027403471869
  0
LINE
  8
_0-8_天板
  6
CONTINUOUS
 62
    4
 10
693.49052700289689
 20
979.51027403471869
 11
692.53770122854325
 21
978.06952728147189
  0
LINE
  8
_0-8_天板
  6
CONTINUOUS
 62
    3
 10
1017.5
 20
978.06952728147189
 11
692.53770122854325
 21
978.06952728147189
  0
LINE
  8
_0-8_天板
  6
CONTINUOUS
 62
    3
 10
1017.5
 20
1003.0695272814718
 11
1017.5
 21
978.06952728147189
  0
LINE
  8
_0-8_天板
  6
CONTINUOUS
 62
    3
 10
1405.7872278390584
 20
1003.0695272814718
 11
1082.5
 21
1003.0695272814718
  0
LINE
  8
_0-8_天板
  6
CONTINUOUS
 62
    3
 10
1082.5
 20
1003.0695272814718
 11
1082.5
 21
978.06952728147189
  0
LINE
  8
_0-8_天板
  6
CONTINUOUS
 62
    3
 10
1407.4622987714574
 20
978.06952728147189
 11
1082.5
 21
978.06952728147189
  0
LINE
  8
_0-8_天板
  6
CONTINUOUS
 62
    4
 10
1406.5094729971031
 20
979.51027403471869
 11
1407.4622987714574
 21
978.06952728147189
  0
LINE
  8
_0-8_天板
  6
CONTINUOUS
 62
    4
 10
1405.0649826810126
 20
981.6287805282252
 11
1406.5094729971031
 21
979.51027403471869
  0
LINE
  8
_0-8_天板
  6
CONTINUOUS
 62
    4
 10
1403.8571753614098
 20
983.45507922952401
 11
1405.0649826810126
 21
981.6287805282252
  0
LINE
  8
_0-8_天板
  6
CONTINUOUS
 62
    4
 10
1402.7533762442715
 20
985.2813779308226
 11
1403.8571753614098
 21
983.45507922952401
  0
LINE
  8
_0-8_天板
  6
CONTINUOUS
 62
    4
 10
1401.8194133058455
 20
987.10767663212118
 11
1402.7533762442715
 21
985.2813779308226
  0
LINE
  8
_0-8_天板
  6
CONTINUOUS
 62
    4
 10
1401.121114522374
 20
988.9339753334201
 11
1401.8194133058455
 21
987.10767663212118
  0
LINE
  8
_0-8_天板
  6
CONTINUOUS
 62
    4
 10
1400.7243078701037
 20
990.76027403471869
 11
1401.121114522374
 21
988.9339753334201
  0
LINE
  8
_0-8_天板
  6
CONTINUOUS
 62
    4
 10
1400.6582433519986
 20
991.81952728147189
 11
1400.7243078701037
 21
990.76027403471869
  0
LINE
  8
_0-8_天板
  6
CONTINUOUS
 62
    4
 10
1400.7243078701037
 20
992.8787805282252
 11
1400.6582433519986
 21
991.81952728147189
  0
LINE
  8
_0-8_天板
  6
CONTINUOUS
 62
    4
 10
1401.121114522374
 20
994.70507922952401
 11
1400.7243078701037
 21
992.8787805282252
  0
LINE
  8
_0-8_天板
  6
CONTINUOUS
 62
    4
 10
1401.8194133058455
 20
996.5313779308226
 11
1401.121114522374
 21
994.70507922952401
  0
LINE
  8
_0-8_天板
  6
CONTINUOUS
 62
    4
 10
1402.7533762442715
 20
998.35767663212118
 11
1401.8194133058455
 21
996.5313779308226
  0
LINE
  8
_0-8_天板
  6
CONTINUOUS
 62
    4
 10
1403.8571753614098
 20
1000.1839753334201
 11
1402.7533762442715
 21
998.35767663212118
  0
LINE
  8
_0-8_天板
  6
CONTINUOUS
 62
    4
 10
1405.0649826810126
 20
1002.0102740347186
 11
1403.8571753614098
 21
1000.1839753334201
  0
LINE
  8
_0-8_天板
  6
CONTINUOUS
 62
    4
 10
1405.7872278390584
 20
1003.0695272814718
 11
1405.0649826810126
 21
1002.0102740347186
  0
LINE
  8
_0-8_天板
  6
CONTINUOUS
 62
    4
 10
698.06298018211691
 20
986.87770538662675
 11
714.25480207696296
 21
1003.0695272814718
  0
LINE
  8
_0-8_天板
  6
CONTINUOUS
 62
    4
 10
696.55128820247853
 20
999.50814903072171
 11
700.11266645322962
 21
1003.069527281473
  0
LINE
  8
_0-8_天板
  6
CONTINUOUS
 62
    4
 10
703.39693770069516
 20
978.06952728147189
 11
728.39693770069402
 21
1003.0695272814707
  0
LINE
  8
_0-8_天板
  6
CONTINUOUS
 62
    4
 10
788.24975144307768
 20
978.06952728147189
 11
813.24975144307813
 21
1003.0695272814728
  0
LINE
  8
_0-8_天板
  6
CONTINUOUS
 62
    4
 10
774.10761581934389
 20
978.06952728147189
 11
799.1076158193448
 21
1003.069527281473
  0
LINE
  8
_0-8_天板
  6
CONTINUOUS
 62
    4
 10
759.96548019561998
 20
978.06952728147189
 11
784.96548019561828
 21
1003.0695272814705
  0
LINE
  8
_0-8_天板
  6
CONTINUOUS
 62
    4
 10
745.82334457188608
 20
978.06952728147189
 11
770.82334457188608
 21
1003.0695272814716
  0
LINE
  8
_0-8_天板
  6
CONTINUOUS
 62
    4
 10
731.68120894815331
 20
978.06952728147189
 11
756.68120894815388
 21
1003.069527281473
  0
LINE
  8
_0-8_天板
  6
CONTINUOUS
 62
    4
 10
717.53907332441917
 20
978.06952728147189
 11
742.53907332442054
 21
1003.0695272814737
  0
LINE
  8
_0-8_天板
  6
CONTINUOUS
 62
    4
 10
1082.5000000000011
 20
989.47706336377359
 11
1096.0924639176971
 21
1003.069527281471
  0
LINE
  8
_0-8_天板
  6
CONTINUOUS
 62
    4
 10
915.52897205665863
 20
978.06952728147189
 11
940.52897205665772
 21
1003.0695272814714
  0
LINE
  8
_0-8_天板
  6
CONTINUOUS
 62
    4
 10
901.38683643292608
 20
978.06952728147189
 11
926.38683643292665
 21
1003.0695272814728
  0
LINE
  8
_0-8_天板
  6
CONTINUOUS
 62
    4
 10
887.24470080919195
 20
978.06952728147189
 11
912.24470080919218
 21
1003.0695272814718
  0
LINE
  8
_0-8_天板
  6
CONTINUOUS
 62
    4
 10
873.10256518546884
 20
978.06952728147189
 11
898.1025651854668
 21
1003.0695272814705
  0
LINE
  8
_0-8_天板
  6
CONTINUOUS
 62
    4
 10
858.96042956173459
 20
978.06952728147189
 11
883.96042956173459
 21
1003.0695272814716
  0
LINE
  8
_0-8_天板
  6
CONTINUOUS
 62
    4
 10
844.81829393800148
 20
978.06952728147189
 11
869.81829393800239
 21
1003.0695272814728
  0
LINE
  8
_0-8_天板
  6
CONTINUOUS
 62
    4
 10
830.67615831426883
 20
978.06952728147189
 11
855.67615831426905
 21
1003.0695272814725
  0
LINE
  8
_0-8_天板
  6
CONTINUOUS
 62
    4
 10
816.53402269054436
 20
978.06952728147189
 11
841.53402269054254
 21
1003.0695272814705
  0
LINE
  8
_0-8_天板
  6
CONTINUOUS
 62
    4
 10
802.39188706681045
 20
978.06952728147189
 11
827.39188706681034
 21
1003.0695272814716
  0
LINE
  8
_0-8_天板
  6
CONTINUOUS
 62
    4
 10
1085.2345995414318
 20
978.06952728147189
 11
1110.2345995414304
 21
1003.0695272814703
  0
LINE
  8
_0-8_天板
  6
CONTINUOUS
 62
    4
 10
1099.3767351651556
 20
978.06952728147189
 11
1124.376735165157
 21
1003.0695272814728
  0
LINE
  8
_0-8_天板
  6
CONTINUOUS
 62
    4
 10
1113.5188707888892
 20
978.06952728147189
 11
1138.5188707888892
 21
1003.0695272814716
  0
LINE
  8
_0-8_天板
  6
CONTINUOUS
 62
    4
 10
1127.6610064126227
 20
978.06952728147189
 11
1152.6610064126214
 21
1003.0695272814707
  0
LINE
  8
_0-8_天板
  6
CONTINUOUS
 62
    4
 10
1141.8031420363561
 20
978.06952728147189
 11
1166.8031420363547
 21
1003.0695272814696
  0
LINE
  8
_0-8_天板
  6
CONTINUOUS
 62
    4
 10
1155.9452776600805
 20
978.06952728147189
 11
1180.9452776600812
 21
1003.0695272814733
  0
LINE
  8
_0-8_天板
  6
CONTINUOUS
 62
    4
 10
1170.0874132838139
 20
978.06952728147189
 11
1195.0874132838146
 21
1003.0695272814718
  0
LINE
  8
_0-8_天板
  6
CONTINUOUS
 62
    4
 10
1184.2295489075472
 20
978.06952728147189
 11
1209.2295489075479
 21
1003.0695272814718
  0
LINE
  8
_0-8_天板
  6
CONTINUOUS
 62
    4
 10
1198.3716845312756
 20
978.06952728147189
 11
1223.3716845312767
 21
1003.0695272814733
  0
LINE
  8
_0-8_天板
  6
CONTINUOUS
 62
    4
 10
1212.5138201550043
 20
978.06952728147189
 11
1237.5138201550043
 21
1003.0695272814716
  0
LINE
  8
_0-8_天板
  6
CONTINUOUS
 62
    4
 10
1226.6559557787377
 20
978.06952728147189
 11
1251.6559557787377
 21
1003.0695272814718
  0
LINE
  8
_0-8_天板
  6
CONTINUOUS
 62
    4
 10
1240.7980914024715
 20
978.06952728147189
 11
1265.7980914024699
 21
1003.0695272814707
  0
LINE
  8
_0-8_天板
  6
CONTINUOUS
 62
    4
 10
1254.9402270261955
 20
978.06952728147189
 11
1279.9402270261975
 21
1003.0695272814739
  0
LINE
  8
_0-8_天板
  6
CONTINUOUS
 62
    4
 10
1269.0823626499288
 20
978.06952728147189
 11
1294.0823626499297
 21
1003.0695272814728
  0
LINE
  8
_0-8_天板
  6
CONTINUOUS
 62
    4
 10
1283.2244982736622
 20
978.06952728147189
 11
1308.2244982736619
 21
1003.0695272814716
  0
LINE
  8
_0-8_天板
  6
CONTINUOUS
 62
    4
 10
1297.3666338973955
 20
978.06952728147189
 11
1322.3666338973964
 21
1003.0695272814722
  0
LINE
  8
_0-8_天板
  6
CONTINUOUS
 62
    4
 10
1311.5087695211195
 20
978.06952728147189
 11
1336.5087695211195
 21
1003.0695272814716
  0
LINE
  8
_0-8_天板
  6
CONTINUOUS
 62
    4
 10
1325.6509051448538
 20
978.06952728147189
 11
1350.6509051448517
 21
1003.0695272814705
  0
LINE
  8
_0-8_天板
  6
CONTINUOUS
 62
    4
 10
1339.793040768586
 20
978.06952728147189
 11
1364.7930407685851
 21
1003.0695272814714
  0
LINE
  8
_0-8_天板
  6
CONTINUOUS
 62
    4
 10
1353.9351763923204
 20
978.06952728147189
 11
1378.9351763923184
 21
1003.0695272814703
  0
LINE
  8
_0-8_天板
  6
CONTINUOUS
 62
    4
 10
1368.0773120160438
 20
978.06952728147189
 11
1393.0773120160449
 21
1003.0695272814737
  0
LINE
  8
_0-8_天板
  6
CONTINUOUS
 62
    4
 10
1382.2194476397769
 20
978.06952728147189
 11
1403.1288656277308
 21
998.97894526942559
  0
LINE
  8
_0-8_天板
  6
CONTINUOUS
 62
    4
 10
1396.3615832635109
 20
978.06952728147189
 11
1403.0623007193855
 21
984.7702447373465
  0
LINE
  8
_0-8_天板
  6
CONTINUOUS
 62
    4
 10
929.67110768038401
 20
978.06952728147189
 11
954.67110768038423
 21
1003.0695272814725
  0
LINE
  8
_0-8_天板
  6
CONTINUOUS
 62
    4
 10
943.81324330411621
 20
978.06952728147189
 11
968.8132433041153
 21
1003.069527281471
  0
LINE
  8
_0-8_天板
  6
CONTINUOUS
 62
    4
 10
957.95537892784977
 20
978.06952728147189
 11
982.95537892785091
 21
1003.0695272814725
  0
LINE
  8
_0-8_天板
  6
CONTINUOUS
 62
    4
 10
972.09751455158311
 20
978.06952728147189
 11
997.09751455158198
 21
1003.0695272814714
  0
LINE
  8
_0-8_天板
  6
CONTINUOUS
 62
    4
 10
1000.3817857990409
 20
978.06952728147189
 11
1017.5000000000011
 21
995.18774148243232
  0
LINE
  8
_0-8_天板
  6
CONTINUOUS
 62
    4
 10
986.23965017530758
 20
978.06952728147189
 11
1011.2396501753084
 21
1003.0695272814718
  0
LINE
  8
_0-8_天板
  6
CONTINUOUS
 62
    4
 10
1014.5239214227742
 20
978.06952728147189
 11
1017.4999999999988
 21
981.04560585869671
  0
LINE
  8
_0-9_バックプレ__ト
  6
CONTINUOUS
 62
    7
 10
1010
 20
975.06952728147211
 11
1089.9999999999997
 21
975.06952728147211
  0
LINE
  8
_0-9_バックプレ__ト
  6
CONTINUOUS
 62
    7
 10
1089.9999999999997
 20
978.06952728147189
 11
1089.9999999999997
 21
975.06952728147211
  0
LINE
  8
_0-9_バックプレ__ト
  6
CONTINUOUS
 62
    7
 10
1010
 20
978.06952728147189
 11
1089.9999999999997
 21
978.06952728147189
  0
LINE
  8
_0-9_バックプレ__ト
  6
CONTINUOUS
 62
    7
 10
1010
 20
978.06952728147189
 11
1010
 21
975.06952728147211
  0
LINE
  8
_0-9_バックプレ__ト
  6
DASHED1
 62
    4
 10
1033.5
 20
978.06952728147189
 11
1033.5
 21
975.06952728147211
  0
LINE
  8
_0-9_バックプレ__ト
  6
DASHED1
 62
    4
 10
1066.5
 20
978.06952728147189
 11
1066.5
 21
975.06952728147211
  0
LINE
  8
_0-a_ナット
  6
CONTINUOUS
 62
    7
 10
1025.4999999999997
 20
997.34386655173148
 11
1074.5
 21
997.34386655173148
  0
LINE
  8
_0-a_ナット
  6
CONTINUOUS
 62
    7
 10
1074.5
 20
999.84386655173148
 11
1074.5
 21
997.34386655173148
  0
LINE
  8
_0-a_ナット
  6
CONTINUOUS
 62
    7
 10
1025.4999999999997
 20
999.84386655173148
 11
1074.5
 21
999.84386655173148
  0
LINE
  8
_0-a_ナット
  6
CONTINUOUS
 62
    7
 10
1025.4999999999997
 20
999.84386655173148
 11
1025.4999999999997
 21
997.34386655173148
  0
LINE
  8
_0-a_ナット
  6
CONTINUOUS
 62
    7
 10
1031
 20
997.34386655173148
 11
1031
 21
991.4438665517315
  0
LINE
  8
_0-a_ナット
  6
CONTINUOUS
 62
    7
 10
1031
 20
991.4438665517315
 11
1069
 21
991.4438665517315
  0
LINE
  8
_0-a_ナット
  6
CONTINUOUS
 62
    7
 10
1069
 20
997.34386655173148
 11
1069
 21
991.4438665517315
  0
LINE
  8
_0-a_ナット
  6
CONTINUOUS
 62
    7
 10
1025.4999999999997
 20
975.06952728147211
 11
1074.5
 21
975.06952728147211
  0
LINE
  8
_0-a_ナット
  6
CONTINUOUS
 62
    7
 10
1074.5
 20
975.06952728147211
 11
1074.5
 21
972.56952728147211
  0
LINE
  8
_0-a_ナット
  6
CONTINUOUS
 62
    7
 10
1025.4999999999997
 20
972.56952728147211
 11
1074.5
 21
972.56952728147211
  0
LINE
  8
_0-a_ナット
  6
CONTINUOUS
 62
    7
 10
1069
 20
972.56952728147211
 11
1069
 21
966.66952728147202
  0
LINE
  8
_0-a_ナット
  6
CONTINUOUS
 62
    7
 10
1031
 20
966.66952728147202
 11
1069
 21
966.66952728147202
  0
LINE
  8
_0-a_ナット
  6
CONTINUOUS
 62
    7
 10
1031
 20
972.56952728147211
 11
1031
 21
966.66952728147202
  0
LINE
  8
_0-a_ナット
  6
CONTINUOUS
 62
    7
 10
1025.4999999999997
 20
975.06952728147211
 11
1025.4999999999997
 21
972.56952728147211
  0
LINE
  8
_0-4_三角パッキン
  6
CONTINUOUS
 62
    7
 10
1034.25
 20
1007.8438665517314
 11
1024
 21
1001.8438665517314
  0
LINE
  8
_0-4_三角パッキン
  6
CONTINUOUS
 62
    7
 10
1024
 20
1001.8438665517314
 11
1024
 21
1000.3438665517314
  0
LINE
  8
_0-4_三角パッキン
  6
CONTINUOUS
 62
    7
 10
1024
 20
1000.3438665517314
 11
1076
 21
1000.3438665517314
  0
LINE
  8
_0-4_三角パッキン
  6
CONTINUOUS
 62
    7
 10
1076
 20
1000.3438665517314
 11
1076
 21
1001.8438665517314
  0
LINE
  8
_0-4_三角パッキン
  6
CONTINUOUS
 62
    7
 10
1065.75
 20
1007.8438665517314
 11
1076
 21
1001.8438665517314
  0
LINE
  8
_0-4_三角パッキン
  6
CONTINUOUS
 62
    7
 10
1065.75
 20
1007.8438665517314
 11
1034.25
 21
1007.8438665517314
  0
LINE
  8
_0-4_三角パッキン
  6
CONTINUOUS
 62
    4
 10
1024
 20
1001.8438665517314
 11
1076
 21
1001.8438665517314
  0
LINE
  8
_0-5_スリップパッキン
  6
CONTINUOUS
 62
    7
 10
1025
 20
1000.3438665517314
 11
1025
 21
999.84386655173148
  0
LINE
  8
_0-5_スリップパッキン
  6
CONTINUOUS
 62
    7
 10
1025
 20
999.84386655173148
 11
1075
 21
999.84386655173148
  0
LINE
  8
_0-5_スリップパッキン
  6
CONTINUOUS
 62
    7
 10
1075
 20
999.84386655173148
 11
1075
 21
1000.3438665517314
  0
LINE
  8
_0-5_スリップパッキン
  6
CONTINUOUS
 62
    7
 10
1025
 20
1000.3438665517314
 11
1075
 21
1000.3438665517314
  0
SOLID
  8
_0-5_スリップパッキン
  6
CONTINUOUS
 62
    4
 10
1025
 20
1000.3438665517314
 11
1025
 21
999.84386655173148
 12
1075
 22
1000.3438665517314
 13
1075
 23
999.84386655173148
  0
LINE
  8
_0-1_マウンティングディスク
  6
CONTINUOUS
 62
    7
 10
1019
 20
1013.0695272814718
 11
1019
 21
1008.0695272814718
  0
LINE
  8
_0-1_マウンティングディスク
  6
CONTINUOUS
 62
    7
 10
1081
 20
1013.0695272814718
 11
1081
 21
1008.0695272814718
  0
LINE
  8
_0-1_マウンティングディスク
  6
CONTINUOUS
 62
    7
 10
1005
 20
1008.0695272814718
 11
1019
 21
1008.0695272814718
  0
LINE
  8
_0-1_マウンティングディスク
  6
CONTINUOUS
 62
    7
 10
1095
 20
1008.0695272814718
 11
1081
 21
1008.0695272814718
  0
ARC
  8
_0-1_マウンティングディスク
  6
CONTINUOUS
 62
    7
 10
1005
 20
1003.0695272814718
 40
5
 50
90
 51
180
  0
ARC
  8
_0-1_マウンティングディスク
  6
CONTINUOUS
 62
    7
 10
1095
 20
1003.0695272814718
 40
5
 50
0
 51
90
  0
LINE
  8
_0-1_マウンティングディスク
  6
CONTINUOUS
 62
    4
 10
1099.5747890886023
 20
1003.0695272814714
 11
1099.9832851575647
 21
1003.4780233504335
  0
LINE
  8
_0-1_マウンティングディスク
  6
CONTINUOUS
 62
    4
 10
1098.1605755262355
 20
1003.0695272814705
 11
1099.7429908136346
 21
1004.6519425688694
  0
LINE
  8
_0-1_マウンティングディスク
  6
CONTINUOUS
 62
    4
 10
1096.7463619638613
 20
1003.0695272814714
 11
1099.2991925074202
 21
1005.6223578250302
  0
LINE
  8
_0-1_マウンティングディスク
  6
CONTINUOUS
 62
    4
 10
1095.332148401487
 20
1003.0695272814725
 11
1098.6977054612007
 21
1006.4350843411858
  0
LINE
  8
_0-1_マウンティングディスク
  6
CONTINUOUS
 62
    4
 10
1093.9179348391103
 20
1003.0695272814707
 11
1097.9528597686257
 21
1007.104452210986
  0
LINE
  8
_0-1_マウンティングディスク
  6
CONTINUOUS
 62
    4
 10
1092.5037212767435
 20
1003.0695272814703
 11
1097.0597524343575
 21
1007.6255584390838
  0
LINE
  8
_0-1_マウンティングディスク
  6
CONTINUOUS
 62
    4
 10
1091.0895077143691
 20
1003.069527281471
 11
1095.990430777857
 21
1007.9704503449586
  0
LINE
  8
_0-1_マウンティングディスク
  6
CONTINUOUS
 62
    4
 10
1089.6752941519953
 20
1003.0695272814718
 11
1094.6752941519926
 21
1008.0695272814693
  0
LINE
  8
_0-1_マウンティングディスク
  6
CONTINUOUS
 62
    4
 10
1088.2610805896208
 20
1003.069527281473
 11
1093.2610805896185
 21
1008.0695272814705
  0
LINE
  8
_0-1_マウンティングディスク
  6
CONTINUOUS
 62
    4
 10
1086.8468670272443
 20
1003.0695272814714
 11
1091.8468670272443
 21
1008.0695272814714
  0
LINE
  8
_0-1_マウンティングディスク
  6
CONTINUOUS
 62
    4
 10
1085.4326534648771
 20
1003.0695272814705
 11
1090.4326534648798
 21
1008.069527281473
  0
LINE
  8
_0-1_マウンティングディスク
  6
CONTINUOUS
 62
    4
 10
1084.0184399025031
 20
1003.0695272814714
 11
1089.0184399025017
 21
1008.0695272814699
  0
LINE
  8
_0-1_マウンティングディスク
  6
CONTINUOUS
 62
    4
 10
1082.6042263401291
 20
1003.0695272814725
 11
1087.6042263401277
 21
1008.0695272814712
  0
LINE
  8
_0-1_マウンティングディスク
  6
CONTINUOUS
 62
    4
 10
1081.1900127777521
 20
1003.0695272814707
 11
1086.1900127777521
 21
1008.069527281471
  0
LINE
  8
_0-1_マウンティングディスク
  6
CONTINUOUS
 62
    4
 10
1079.7757992153858
 20
1003.0695272814705
 11
1084.7757992153879
 21
1008.0695272814725
  0
LINE
  8
_0-1_マウンティングディスク
  6
CONTINUOUS
 62
    4
 10
1078.3615856530111
 20
1003.069527281471
 11
1083.3615856530111
 21
1008.069527281471
  0
LINE
  8
_0-1_マウンティングディスク
  6
CONTINUOUS
 62
    4
 10
1076.9473720906371
 20
1003.0695272814722
 11
1081.9473720906366
 21
1008.0695272814718
  0
LINE
  8
_0-1_マウンティングディスク
  6
CONTINUOUS
 62
    4
 10
1075.5331585282629
 20
1003.069527281473
 11
1081.0000000000015
 21
1008.5363687532117
  0
LINE
  8
_0-1_マウンティングディスク
  6
CONTINUOUS
 62
    4
 10
1016.1361889085947
 20
1003.0695272814703
 11
1026.1361889085983
 21
1013.0695272814739
  0
LINE
  8
_0-1_マウンティングディスク
  6
CONTINUOUS
 62
    4
 10
1014.7219753462204
 20
1003.0695272814714
 11
1024.721975346222
 21
1013.0695272814728
  0
LINE
  8
_0-1_マウンティングディスク
  6
CONTINUOUS
 62
    4
 10
1013.3077617838464
 20
1003.0695272814722
 11
1018.3077617838464
 21
1008.0695272814722
  0
LINE
  8
_0-1_マウンティングディスク
  6
CONTINUOUS
 62
    4
 10
1018.9999999999995
 20
1008.7617654976254
 11
1023.3077617838473
 21
1013.0695272814733
  0
LINE
  8
_0-1_マウンティングディスク
  6
CONTINUOUS
 62
    4
 10
1011.8935482214694
 20
1003.0695272814707
 11
1016.8935482214717
 21
1008.069527281473
  0
LINE
  8
_0-1_マウンティングディスク
  6
CONTINUOUS
 62
    4
 10
1018.9999999999992
 20
1010.1759790600001
 11
1021.8935482214709
 21
1013.0695272814718
  0
LINE
  8
_0-1_マウンティングディスク
  6
CONTINUOUS
 62
    4
 10
1010.4793346591027
 20
1003.0695272814699
 11
1015.4793346591072
 21
1008.0695272814745
  0
LINE
  8
_0-1_マウンティングディスク
  6
CONTINUOUS
 62
    4
 10
1018.9999999999977
 20
1011.590192622365
 11
1020.4793346591065
 21
1013.0695272814737
  0
LINE
  8
_0-1_マウンティングディスク
  6
CONTINUOUS
 62
    4
 10
1009.0651210967286
 20
1003.0695272814707
 11
1014.0651210967286
 21
1008.0695272814707
  0
LINE
  8
_0-1_マウンティングディスク
  6
CONTINUOUS
 62
    4
 10
1018.9999999999997
 20
1013.0044061847422
 11
1019.0651210967298
 21
1013.0695272814722
  0
LINE
  8
_0-1_マウンティングディスク
  6
CONTINUOUS
 62
    4
 10
1007.6509075343542
 20
1003.0695272814717
 11
1012.6509075343542
 21
1008.0695272814718
  0
LINE
  8
_0-1_マウンティングディスク
  6
CONTINUOUS
 62
    4
 10
1006.2366939719777
 20
1003.0695272814703
 11
1011.2366939719788
 21
1008.0695272814714
  0
LINE
  8
_0-1_マウンティングディスク
  6
CONTINUOUS
 62
    4
 10
1004.822480409613
 20
1003.0695272814717
 11
1009.8224804096141
 21
1008.0695272814728
  0
LINE
  8
_0-1_マウンティングディスク
  6
CONTINUOUS
 62
    4
 10
1003.4082668472365
 20
1003.0695272814703
 11
1008.4082668472372
 21
1008.069527281471
  0
LINE
  8
_0-1_マウンティングディスク
  6
CONTINUOUS
 62
    4
 10
1001.9940532848622
 20
1003.0695272814714
 11
1006.9940532848625
 21
1008.0695272814714
  0
LINE
  8
_0-1_マウンティングディスク
  6
CONTINUOUS
 62
    4
 10
1000.5798397224882
 20
1003.0695272814725
 11
1005.5798397224856
 21
1008.0695272814699
  0
LINE
  8
_0-1_マウンティングディスク
  6
CONTINUOUS
 62
    4
 10
1000.085309519587
 20
1003.9892106409462
 11
1004.0803166405303
 21
1007.9842177618895
  0
LINE
  8
_0-1_マウンティングディスク
  6
CONTINUOUS
 62
    4
 10
1072.7
 20
1004.4790094403265
 11
1080.9999999999993
 21
1012.7790094403258
  0
LINE
  8
_0-1_マウンティングディスク
  6
CONTINUOUS
 62
    7
 10
1031.6154189013759
 20
1007.3968230034375
 11
1025.4717209073894
 21
1003.0695272814718
  0
ARC
  8
_0-1_マウンティングディスク
  6
CONTINUOUS
 62
    7
 10
1031.0073714540114
 20
1008.1907236910262
 40
1
 50
307.44845420909501
 51
43.228530259965893
  0
LINE
  8
_0-1_マウンティングディスク
  6
CONTINUOUS
 62
    7
 10
1031.7359991229134
 20
1008.8756336997939
 11
1027.2999999999999
 21
1013.0695272814718
  0
LINE
  8
_0-1_マウンティングディスク
  6
CONTINUOUS
 62
    4
 10
1018.9646160333356
 20
1003.0695272814703
 11
1028.1556578298991
 21
1012.2605690780335
  0
LINE
  8
_0-1_マウンティングディスク
  6
CONTINUOUS
 62
    4
 10
1017.5504024709709
 20
1003.0695272814716
 11
1027.4287136676698
 21
1012.9478384781702
  0
LINE
  8
_0-1_マウンティングディスク
  6
CONTINUOUS
 62
    4
 10
1020.3788295957124
 20
1003.0695272814717
 11
1028.882601992133
 21
1011.5732996778923
  0
LINE
  8
_0-1_マウンティングディスク
  6
CONTINUOUS
 62
    4
 10
1021.7930431580867
 20
1003.0695272814707
 11
1029.6095461543673
 21
1010.8860302777511
  0
LINE
  8
_0-1_マウンティングディスク
  6
CONTINUOUS
 62
    4
 10
1023.2072567204627
 20
1003.0695272814716
 11
1030.3364903166011
 21
1010.1987608776101
  0
LINE
  8
_0-1_マウンティングディスク
  6
CONTINUOUS
 62
    4
 10
1024.6214702828276
 20
1003.0695272814705
 11
1031.0634344788304
 21
1009.5114914774734
  0
LINE
  8
_0-1_マウンティングディスク
  6
CONTINUOUS
 62
    4
 10
1027.3792377736108
 20
1004.4130812098808
 11
1031.7705412600171
 21
1008.804384696287
  0
LINE
  8
_0-1_マウンティングディスク
  6
CONTINUOUS
 62
    7
 10
1068.2640008770865
 20
1008.8756336997939
 11
1072.7
 21
1013.0695272814718
  0
ARC
  8
_0-1_マウンティングディスク
  6
CONTINUOUS
 62
    7
 10
1068.9926285459885
 20
1008.1907236910262
 40
1
 50
136.77146974003412
 51
232.55154579090498
  0
LINE
  8
_0-1_マウンティングディスク
  6
CONTINUOUS
 62
    7
 10
1068.384581098624
 20
1007.3968230034375
 11
1074.5282790926105
 21
1003.0695272814718
  0
LINE
  8
_0-1_マウンティングディスク
  6
CONTINUOUS
 62
    4
 10
1068.4797287682747
 20
1007.3298060204677
 11
1074.21945002928
 21
1013.0695272814733
  0
LINE
  8
_0-1_マウンティングディスク
  6
CONTINUOUS
 62
    4
 10
1070.13926582119
 20
1006.1609159486329
 11
1077.0478771540285
 21
1013.0695272814716
  0
LINE
  8
_0-1_マウンティングディスク
  6
CONTINUOUS
 62
    4
 10
1069.3094972947324
 20
1006.7453609845504
 11
1075.6336635916543
 21
1013.0695272814723
  0
LINE
  8
_0-1_マウンティングディスク
  6
CONTINUOUS
 62
    4
 10
1070.9690343476422
 20
1005.5764709127191
 11
1078.462090716393
 21
1013.0695272814699
  0
LINE
  8
_0-1_マウンティングディスク
  6
CONTINUOUS
 62
    4
 10
1071.7988028740999
 20
1004.9920258768014
 11
1079.8763042787695
 21
1013.0695272814714
  0
LINE
  8
_0-1_マウンティングディスク
  6
CONTINUOUS
 62
    4
 10
1067.9949807154546
 20
1008.2592715300208
 11
1072.8052364669056
 21
1013.0695272814718
  0
LINE
  8
_0-1_マウンティングディスク
  6
CONTINUOUS
 62
    4
 10
1073.4583399270152
 20
1003.8231358049665
 11
1080.9999999999997
 21
1011.3647958779512
  0
LINE
  8
_0-1_マウンティングディスク
  6
CONTINUOUS
 62
    4
 10
1074.2881084534674
 20
1003.2386907690528
 11
1081.0000000000009
 21
1009.9505823155863
  0
LINE
  8
_0-1_マウンティングディスク
  6
DASHED1
 62
    4
 10
1025.25
 20
1011.569527281472
 11
1025.25
 21
1013.0695272814718
  0
LINE
  8
_0-1_マウンティングディスク
  6
DASHED1
 62
    4
 10
1023.25
 20
1011.569527281472
 11
1023.25
 21
1013.0695272814718
  0
LINE
  8
_0-1_マウンティングディスク
  6
DASHED1
 62
    4
 10
1023.25
 20
1011.569527281472
 11
1025.25
 21
1011.569527281472
  0
LINE
  8
_0-1_マウンティングディスク
  6
DASHED1
 62
    4
 10
1009.5
 20
1004.569527281472
 11
1009.5
 21
1003.0695272814718
  0
LINE
  8
_0-1_マウンティングディスク
  6
DASHED1
 62
    4
 10
1009.5
 20
1004.569527281472
 11
1011.5
 21
1004.569527281472
  0
LINE
  8
_0-1_マウンティングディスク
  6
DASHED1
 62
    4
 10
1011.5
 20
1004.569527281472
 11
1011.5
 21
1003.0695272814718
  0
LINE
  8
_0-1_マウンティングディスク
  6
DASHED1
 62
    4
 10
1074.75
 20
1011.569527281472
 11
1074.75
 21
1013.0695272814718
  0
LINE
  8
_0-1_マウンティングディスク
  6
DASHED1
 62
    4
 10
1076.7499999999997
 20
1011.569527281472
 11
1074.75
 21
1011.569527281472
  0
LINE
  8
_0-1_マウンティングディスク
  6
DASHED1
 62
    4
 10
1076.7499999999997
 20
1011.569527281472
 11
1076.7499999999997
 21
1013.0695272814718
  0
LINE
  8
_0-1_マウンティングディスク
  6
DASHED1
 62
    4
 10
1088.5
 20
1004.569527281472
 11
1088.5
 21
1003.0695272814718
  0
LINE
  8
_0-1_マウンティングディスク
  6
DASHED1
 62
    4
 10
1090.4999999999997
 20
1004.569527281472
 11
1088.5
 21
1004.569527281472
  0
LINE
  8
_0-1_マウンティングディスク
  6
DASHED1
 62
    4
 10
1090.4999999999997
 20
1004.569527281472
 11
1090.4999999999997
 21
1003.0695272814718
  0
SOLID
  8
_0-1_マウンティングディスク
  6
CONTINUOUS
 62
    4
 10
1023.25
 20
1013.0695272814718
 11
1023.25
 21
1011.569527281472
 12
1025.25
 22
1013.0695272814718
 13
1025.25
 23
1011.569527281472
  0
SOLID
  8
_0-1_マウンティングディスク
  6
CONTINUOUS
 62
    4
 10
1009.5
 20
1004.569527281472
 11
1009.5
 21
1003.0695272814718
 12
1011.5
 22
1004.569527281472
 13
1011.5
 23
1003.0695272814718
  0
SOLID
  8
_0-1_マウンティングディスク
  6
CONTINUOUS
 62
    4
 10
1074.75
 20
1013.0695272814718
 11
1074.75
 21
1011.569527281472
 12
1076.7499999999997
 22
1013.0695272814718
 13
1076.7499999999997
 23
1011.569527281472
  0
SOLID
  8
_0-1_マウンティングディスク
  6
CONTINUOUS
 62
    4
 10
1088.5
 20
1004.569527281472
 11
1088.5
 21
1003.0695272814718
 12
1090.4999999999997
 22
1004.569527281472
 13
1090.4999999999997
 23
1003.0695272814718
  0
LINE
  8
_0-1_マウンティングディスク
  6
CONTINUOUS
 62
    7
 10
1019
 20
1013.0695272814718
 11
1032.8059632949889
 21
1013.0695272814718
  0
LINE
  8
_0-1_マウンティングディスク
  6
CONTINUOUS
 62
    7
 10
1067.194036705011
 20
1013.0695272814718
 11
1081
 21
1013.0695272814718
  0
LINE
  8
_0-1_マウンティングディスク
  6
CONTINUOUS
 62
    7
 10
1000
 20
1003.0695272814718
 11
1026.0938370799733
 21
1003.0695272814718
  0
LINE
  8
_0-1_マウンティングディスク
  6
CONTINUOUS
 62
    7
 10
1073.9061629200264
 20
1003.0695272814718
 11
1100
 21
1003.0695272814718
  0
LINE
  8
_0-a_ナット
  6
CONTINUOUS
 62
    4
 10
1050
 20
972.56952728147211
 11
1050
 21
966.66952728147202
  0
LINE
  8
_0-a_ナット
  6
CONTINUOUS
 62
    4
 10
1050
 20
997.34386655173148
 11
1050
 21
991.4438665517315
  0
LINE
  8
_0-2_目皿
  6
CONTINUOUS
 62
    7
 10
1023.7624755271724
 20
1024.4263871457192
 11
1076.2375244728289
 21
1024.4263871457192
  0
ARC
  8
_0-2_目皿
  6
CONTINUOUS
 62
    7
 10
1023.650000000001
 20
1023.9392021133267
 40
0.4999999999995
 50
77.00000000000098
 51
179.99999999998402
  0
ARC
  8
_0-2_目皿
  6
CONTINUOUS
 62
    7
 10
1023.650000000001
 20
1023.7339412917676
 40
0.4999999999995
 50
179.99999999998698
 51
256.99999999999698
  0
LINE
  8
_0-2_目皿
  6
CONTINUOUS
 62
    7
 10
1023.1499999999999
 20
1023.7339412917676
 11
1023.1499999999999
 21
1023.9392021133267
  0
LINE
  8
_0-2_目皿
  6
CONTINUOUS
 62
    7
 10
1023.5375244728279
 20
1023.2467562593751
 11
1028.4156301833118
 21
1021.5905387066561
  0
ARC
  8
_0-2_目皿
  6
CONTINUOUS
 62
    7
 10
1026.8081510649749
 20
1016.8559837239661
 40
4.9999999999995008
 50
12.250000000000001
 51
71.246589897256001
  0
LINE
  8
_0-2_目皿
  6
CONTINUOUS
 62
    7
 10
1023.7624755271724
 20
1024.4263871457192
 11
1076.2375244728289
 21
1024.4263871457192
  0
ARC
  8
_0-2_目皿
  6
CONTINUOUS
 62
    7
 10
1076.3500000000003
 20
1023.9392021133267
 40
0.4999999999995
 50
0.0000000000160045
 51
102.99999999999698
  0
ARC
  8
_0-2_目皿
  6
CONTINUOUS
 62
    7
 10
1076.3500000000003
 20
1023.7339412917676
 40
0.4999999999995
 50
283.00000000000397
 51
0.0000000000130148
  0
LINE
  8
_0-2_目皿
  6
CONTINUOUS
 62
    7
 10
1076.8499999999999
 20
1023.7339412917676
 11
1076.8499999999999
 21
1023.9392021133267
  0
LINE
  8
_0-2_目皿
  6
CONTINUOUS
 62
    7
 10
1076.462475527172
 20
1023.2467562593751
 11
1071.5843698166895
 21
1021.5905387066561
  0
ARC
  8
_0-2_目皿
  6
CONTINUOUS
 62
    7
 10
1073.1918489350264
 20
1016.8559837239661
 40
4.9999999999995008
 50
108.75341010274402
 51
167.75000000000002
  0
LINE
  8
_0-2_目皿
  6
CONTINUOUS
 62
    7
 10
1034.0999999999999
 20
1007.4269200716596
 11
1031.694306597288
 21
1017.9168720847483
  0
LINE
  8
_0-2_目皿
  6
CONTINUOUS
 62
    7
 10
1065.9
 20
1007.4269200716596
 11
1068.3056934027117
 21
1017.9168720847483
  0
LINE
  8
_0-2_目皿
  6
CONTINUOUS
 62
    4
 10
1028.4156301833118
 20
1021.5905387066561
 11
1071.5843698166895
 21
1021.5905387066561
  0
LINE
  8
_0-2_目皿
  6
CONTINUOUS
 62
    4
 10
1023.5375244728279
 20
1023.2467562593751
 11
1076.462475527172
 21
1023.2467562593751
  0
LINE
  8
_0-2_目皿
  6
CONTINUOUS
 62
    7
 10
1034.0999999999999
 20
985.94695469517091
 11
1035.3499999999999
 21
984.97934430464169
  0
LINE
  8
_0-2_目皿
  6
CONTINUOUS
 62
    7
 10
1035.3499999999999
 20
984.97934430464169
 11
1034.0999999999999
 21
983.94626911018917
  0
LINE
  8
_0-2_目皿
  6
CONTINUOUS
 62
    7
 10
1034.0999999999999
 20
983.94626911018917
 11
1035.3499999999999
 21
982.97865871965996
  0
LINE
  8
_0-2_目皿
  6
CONTINUOUS
 62
    7
 10
1035.3499999999999
 20
982.97865871965996
 11
1034.0999999999999
 21
981.94558352520743
  0
LINE
  8
_0-2_目皿
  6
CONTINUOUS
 62
    7
 10
1034.0999999999999
 20
981.94558352520743
 11
1035.3499999999999
 21
980.97797313467822
  0
LINE
  8
_0-2_目皿
  6
CONTINUOUS
 62
    7
 10
1035.3499999999999
 20
980.97797313467822
 11
1034.0999999999999
 21
979.9448979402257
  0
LINE
  8
_0-2_目皿
  6
CONTINUOUS
 62
    7
 10
1034.0999999999999
 20
979.9448979402257
 11
1035.3499999999999
 21
978.97728754969648
  0
LINE
  8
_0-2_目皿
  6
CONTINUOUS
 62
    7
 10
1034.0999999999999
 20
965.94009884535375
 11
1035.3499999999999
 21
964.97248845482454
  0
LINE
  8
_0-2_目皿
  6
CONTINUOUS
 62
    7
 10
1035.3499999999999
 20
964.97248845482454
 11
1034.0999999999999
 21
963.93941326037202
  0
LINE
  8
_0-2_目皿
  6
CONTINUOUS
 62
    7
 10
1034.0999999999999
 20
963.93941326037202
 11
1035.3499999999999
 21
962.9718028698428
  0
LINE
  8
_0-2_目皿
  6
CONTINUOUS
 62
    7
 10
1035.3499999999999
 20
962.9718028698428
 11
1034.0999999999999
 21
961.93872767539028
  0
LINE
  8
_0-2_目皿
  6
CONTINUOUS
 62
    7
 10
1034.0999999999999
 20
961.93872767539028
 11
1035.3499999999999
 21
960.97111728486106
  0
LINE
  8
_0-2_目皿
  6
CONTINUOUS
 62
    7
 10
1035.3499999999999
 20
960.97111728486106
 11
1034.0999999999999
 21
959.93804209040854
  0
LINE
  8
_0-2_目皿
  6
CONTINUOUS
 62
    7
 10
1034.0999999999999
 20
959.93804209040854
 11
1035.3499999999999
 21
958.97043169987932
  0
LINE
  8
_0-2_目皿
  6
CONTINUOUS
 62
    7
 10
1035.3499999999999
 20
958.97043169987932
 11
1034.0999999999999
 21
957.93735650542714
  0
LINE
  8
_0-2_目皿
  6
CONTINUOUS
 62
    7
 10
1034.0999999999999
 20
957.93735650542714
 11
1035.3499999999999
 21
956.96974611489758
  0
LINE
  8
_0-2_目皿
  6
CONTINUOUS
 62
    7
 10
1035.3499999999999
 20
956.96974611489758
 11
1034.0999999999999
 21
955.9366709204454
  0
LINE
  8
_0-2_目皿
  6
CONTINUOUS
 62
    7
 10
1064.6499999999998
 20
985.74659180661888
 11
1065.8999999999998
 21
984.77898141608932
  0
LINE
  8
_0-2_目皿
  6
CONTINUOUS
 62
    7
 10
1065.8999999999998
 20
984.77898141608932
 11
1064.6499999999998
 21
983.74590622163714
  0
LINE
  8
_0-2_目皿
  6
CONTINUOUS
 62
    7
 10
1064.6499999999998
 20
983.74590622163714
 11
1065.8999999999998
 21
982.77829583110758
  0
LINE
  8
_0-2_目皿
  6
CONTINUOUS
 62
    7
 10
1065.8999999999998
 20
982.77829583110758
 11
1064.6499999999998
 21
981.7452206366554
  0
LINE
  8
_0-2_目皿
  6
CONTINUOUS
 62
    7
 10
1064.6499999999998
 20
981.7452206366554
 11
1065.8999999999998
 21
980.77761024612584
  0
LINE
  8
_0-2_目皿
  6
CONTINUOUS
 62
    7
 10
1065.8999999999998
 20
980.77761024612584
 11
1064.6499999999998
 21
979.74453505167366
  0
LINE
  8
_0-2_目皿
  6
CONTINUOUS
 62
    7
 10
1064.6499999999998
 20
979.74453505167366
 11
1065.8999999999998
 21
978.77692466114444
  0
LINE
  8
_0-2_目皿
  6
CONTINUOUS
 62
    7
 10
1064.6499999999996
 20
965.73973595680172
 11
1065.8999999999996
 21
964.77212556627227
  0
LINE
  8
_0-2_目皿
  6
CONTINUOUS
 62
    7
 10
1065.8999999999996
 20
964.77212556627227
 11
1064.6499999999996
 21
963.73905037181998
  0
LINE
  8
_0-2_目皿
  6
CONTINUOUS
 62
    7
 10
1064.6499999999996
 20
963.73905037181998
 11
1065.8999999999996
 21
962.77143998129054
  0
LINE
  8
_0-2_目皿
  6
CONTINUOUS
 62
    7
 10
1065.8999999999996
 20
962.77143998129054
 11
1064.6499999999996
 21
961.73836478683824
  0
LINE
  8
_0-2_目皿
  6
CONTINUOUS
 62
    7
 10
1064.6499999999996
 20
961.73836478683824
 11
1065.8999999999996
 21
960.7707543963088
  0
LINE
  8
_0-2_目皿
  6
CONTINUOUS
 62
    7
 10
1065.8999999999996
 20
960.7707543963088
 11
1064.6499999999996
 21
959.7376792018565
  0
LINE
  8
_0-2_目皿
  6
CONTINUOUS
 62
    7
 10
1064.6499999999996
 20
959.7376792018565
 11
1065.8999999999996
 21
958.77006881132729
  0
LINE
  8
_0-2_目皿
  6
CONTINUOUS
 62
    7
 10
1065.8999999999996
 20
958.77006881132729
 11
1064.6499999999996
 21
957.73699361687476
  0
LINE
  8
_0-2_目皿
  6
CONTINUOUS
 62
    7
 10
1064.6499999999996
 20
957.73699361687476
 11
1065.8999999999996
 21
956.76938322634555
  0
LINE
  8
_0-2_目皿
  6
CONTINUOUS
 62
    7
 10
1035.4887601405087
 20
955.61134452985754
 11
1036.0106731924001
 21
954.42638714571921
  0
LINE
  8
_0-2_目皿
  6
CONTINUOUS
 62
    7
 10
1064.511239859491
 20
955.61134452985754
 11
1063.9893268075998
 21
954.42638714571921
  0
LINE
  8
_0-2_目皿
  6
CONTINUOUS
 62
    7
 10
1063.9893268075998
 20
954.42638714571921
 11
1036.0106731924001
 21
954.42638714571921
  0
LINE
  8
_0-2_目皿
  6
CONTINUOUS
 62
    7
 10
1065.8999999999996
 20
956.76938322634555
 11
1064.4987967009724
 21
955.61134452985754
  0
LINE
  8
_0-2_目皿
  6
CONTINUOUS
 62
    7
 10
1034.0999999999999
 20
955.9366709204454
 11
1034.5202703817724
 21
955.61134452985754
  0
LINE
  8
_0-2_目皿
  6
CONTINUOUS
 62
    7
 10
1034.5202703817724
 20
955.61134452985754
 11
1064.4987967009724
 21
955.61134452985754
  0
LINE
  8
_0-2_目皿
  6
CONTINUOUS
 62
    7
 10
1034.9742981515041
 20
986.66952728147066
 11
1034.0999999999999
 21
985.94695469517091
  0
LINE
  8
_0-2_目皿
  6
CONTINUOUS
 62
    7
 10
1065.7667331765971
 20
986.66952728147066
 11
1064.6499999999998
 21
985.74659180661888
  0
LINE
  8
_0-2_目皿
  6
CONTINUOUS
 62
    7
 10
1035.3499999999999
 20
978.97728754969648
 11
1034.2516285151612
 21
978.06952728147189
  0
LINE
  8
_0-2_目皿
  6
CONTINUOUS
 62
    7
 10
1065.8999999999998
 20
978.77692466114444
 11
1065.0440635402544
 21
978.06952728147189
  0
LINE
  8
_0-2_目皿
  6
CONTINUOUS
 62
    7
 10
1065.7750286156119
 20
966.66952728147202
 11
1064.6499999999996
 21
965.73973595680172
  0
LINE
  8
_0-2_目皿
  6
CONTINUOUS
 62
    7
 10
1034.9825935905189
 20
966.66952728147202
 11
1034.0999999999999
 21
965.94009884535375
  0
LINE
  8
_0-2_目皿
  6
CONTINUOUS
 62
    7
 10
1035.3499999999999
 20
990.98140105958691
 11
1034.0999999999999
 21
989.94832586513439
  0
LINE
  8
_0-2_目皿
  6
CONTINUOUS
 62
    7
 10
1034.0999999999999
 20
989.94832586513439
 11
1035.3499999999999
 21
988.98071547460517
  0
LINE
  8
_0-2_目皿
  6
CONTINUOUS
 62
    7
 10
1035.3499999999999
 20
988.98071547460517
 11
1034.0999999999999
 21
987.94764028015265
  0
LINE
  8
_0-2_目皿
  6
CONTINUOUS
 62
    7
 10
1034.0999999999999
 20
987.94764028015265
 11
1035.3499999999999
 21
986.98002988962343
  0
LINE
  8
_0-2_目皿
  6
CONTINUOUS
 62
    7
 10
1035.3499999999999
 20
986.98002988962343
 11
1034.0999999999999
 21
985.94695469517091
  0
LINE
  8
_0-2_目皿
  6
CONTINUOUS
 62
    7
 10
1034.0999999999999
 20
985.94695469517091
 11
1035.3499999999999
 21
984.97934430464169
  0
LINE
  8
_0-2_目皿
  6
CONTINUOUS
 62
    7
 10
1065.8999999999998
 20
990.78103817103453
 11
1064.6499999999998
 21
989.74796297658235
  0
LINE
  8
_0-2_目皿
  6
CONTINUOUS
 62
    7
 10
1064.6499999999998
 20
989.74796297658235
 11
1065.8999999999998
 21
988.78035258605279
  0
LINE
  8
_0-2_目皿
  6
CONTINUOUS
 62
    7
 10
1065.8999999999998
 20
988.78035258605279
 11
1064.6499999999998
 21
987.74727739160061
  0
LINE
  8
_0-2_目皿
  6
CONTINUOUS
 62
    7
 10
1064.6499999999998
 20
987.74727739160061
 11
1065.8999999999998
 21
986.77966700107106
  0
LINE
  8
_0-2_目皿
  6
CONTINUOUS
 62
    7
 10
1065.8999999999998
 20
986.77966700107106
 11
1064.6499999999998
 21
985.74659180661888
  0
LINE
  8
_0-2_目皿
  6
CONTINUOUS
 62
    7
 10
1064.6499999999998
 20
985.74659180661888
 11
1065.8999999999998
 21
984.77898141608966
  0
LINE
  8
_0-2_目皿
  6
CONTINUOUS
 62
    7
 10
1035.3499999999999
 20
984.97934430464169
 11
1034.2516285151612
 21
984.0715840364171
  0
LINE
  8
_0-2_目皿
  6
CONTINUOUS
 62
    7
 10
1065.8999999999998
 20
984.77898141608966
 11
1065.0440635402544
 21
984.0715840364171
  0
LINE
  8
_0-2_目皿
  6
CONTINUOUS
 62
    7
 10
1034.752567530445
 20
991.4438665517315
 11
1035.3499999999999
 21
990.98140105958691
  0
LINE
  8
_0-2_目皿
  6
CONTINUOUS
 62
    7
 10
1065.0437302823731
 20
991.4438665517315
 11
1065.8999999999998
 21
990.78103817103453
  0
LINE
  8
_0-2_目皿
  6
DASHED1
 62
    4
 10
1034.8499999999999
 20
1006.6769200716595
 11
1065.15
 21
1006.6769200716595
  0
LINE
  8
_0-2_目皿
  6
DASHED1
 62
    4
 10
1065.9
 20
1007.4269200716596
 11
1034.0999999999999
 21
1007.4269200716596
  0
LINE
  8
_0-2_目皿
  6
DASHED1
 62
    4
 10
1034.8499999999999
 20
1006.6769200716595
 11
1034.0999999999999
 21
1007.4269200716596
  0
LINE
  8
_0-2_目皿
  6
DASHED1
 62
    4
 10
1065.15
 20
1006.6769200716595
 11
1065.9
 21
1007.4269200716596
  0
LINE
  8
_0-b_化粧キャップラウンド
  6
CONTINUOUS
 62
    7
 10
1032.9999999999997
 20
1031.4263871457192
 11
1044.5
 21
1031.4263871457192
  0
LINE
  8
_0-b_化粧キャップラウンド
  6
CONTINUOUS
 62
    7
 10
1055.4999999999997
 20
1031.4263871457192
 11
1067
 21
1031.4263871457192
  0
LINE
  8
_0-b_化粧キャップラウンド
  6
CONTINUOUS
 62
    7
 10
1022.9999999999997
 20
1031.4263871457192
 11
1077
 21
1031.4263871457192
  0
LINE
  8
_0-b_化粧キャップラウンド
  6
CONTINUOUS
 62
    7
 10
1022.9999999999997
 20
1033.4263871457192
 11
1077
 21
1033.4263871457192
  0
LINE
  8
_0-b_化粧キャップラウンド
  6
CONTINUOUS
 62
    7
 10
1022.9999999999997
 20
1033.7088323207872
 11
1022.9999999999997
 21
1031.4263871457192
  0
ARC
  8
_0-b_化粧キャップラウンド
  6
CONTINUOUS
 62
    7
 10
1023.9999999999998
 20
1033.7088323207872
 40
1
 50
108.42780160788487
 51
180
  0
LINE
  8
_0-b_化粧キャップラウンド
  6
CONTINUOUS
 62
    7
 10
1077
 20
1033.7088323207872
 11
1077
 21
1031.4263871457192
  0
ARC
  8
_0-b_化粧キャップラウンド
  6
CONTINUOUS
 62
    7
 10
1050
 20
955.6763871457191
 40
83.250000000000014
 50
71.572198392114117
 51
108.42780160788588
  0
ARC
  8
_0-b_化粧キャップラウンド
  6
CONTINUOUS
 62
    7
 10
1076
 20
1033.7088323207872
 40
1
 50
0
 51
71.572198392115126
  0
LINE
  8
_0-b_化粧キャップラウンド
  6
CONTINUOUS
 62
    4
 10
1023.3034979732858
 20
1034.4263871457192
 11
1076.6965020267141
 21
1034.4263871457192
  0
LINE
  8
_0-b_化粧キャップラウンド
  6
CONTINUOUS
 62
    7
 10
1032.9999999999997
 20
1031.4263871457192
 11
1032.9999999999997
 21
1024.4263871457192
  0
LINE
  8
_0-b_化粧キャップラウンド
  6
CONTINUOUS
 62
    7
 10
1044.5
 20
1031.4263871457192
 11
1044.5
 21
1024.4263871457192
  0
LINE
  8
_0-b_化粧キャップラウンド
  6
CONTINUOUS
 62
    7
 10
1055.4999999999997
 20
1031.4263871457192
 11
1055.4999999999997
 21
1024.4263871457192
  0
LINE
  8
_0-b_化粧キャップラウンド
  6
CONTINUOUS
 62
    7
 10
1067
 20
1031.4263871457192
 11
1067
 21
1024.4263871457192
  0
TEXT
  8
_0-0_
 62
    4
 10
1259.5598824958633
 20
1073.903080056107
 40
12.5
 41
1
 50
0
  1
排水目皿
  0
LINE
  8
_0-3_スポンジパッキン
  6
CONTINUOUS
 62
    7
 10
1075
 20
1023.2467562593751
 11
1025
 21
1023.2467562593751
  0
LINE
  8
_0-3_スポンジパッキン
  6
CONTINUOUS
 62
    7
 10
1025
 20
1023.2467562593751
 11
1025
 21
1022.2467562593751
  0
LINE
  8
_0-3_スポンジパッキン
  6
CONTINUOUS
 62
    7
 10
1075
 20
1023.2467562593751
 11
1075
 21
1022.2467562593751
  0
LINE
  8
_0-3_スポンジパッキン
  6
CONTINUOUS
 62
    4
 10
1025.7633448188116
 20
1023.2467562593753
 11
1026.7633448188103
 21
1022.2467562593769
  0
LINE
  8
_0-3_スポンジパッキン
  6
CONTINUOUS
 62
    4
 10
1030.0059855059291
 20
1023.2467562593742
 11
1031.005985505928
 21
1022.2467562593758
  0
LINE
  8
_0-3_スポンジパッキン
  6
CONTINUOUS
 62
    4
 10
1034.2486261930448
 20
1023.2467562593751
 11
1035.2486261930434
 21
1022.2467562593765
  0
LINE
  8
_0-3_スポンジパッキン
  6
CONTINUOUS
 62
    4
 10
1038.4912668801698
 20
1023.2467562593757
 11
1039.4912668801684
 21
1022.2467562593769
  0
LINE
  8
_0-3_スポンジパッキン
  6
CONTINUOUS
 62
    4
 10
1042.7339075672866
 20
1023.246756259375
 11
1043.7339075672853
 21
1022.2467562593762
  0
LINE
  8
_0-3_スポンジパッキン
  6
CONTINUOUS
 62
    4
 10
1046.9765482544028
 20
1023.2467562593751
 11
1047.9765482544016
 21
1022.2467562593766
  0
LINE
  8
_0-3_スポンジパッキン
  6
CONTINUOUS
 62
    4
 10
1051.2191889415278
 20
1023.2467562593757
 11
1052.2191889415264
 21
1022.2467562593769
  0
LINE
  8
_0-3_スポンジパッキン
  6
CONTINUOUS
 62
    4
 10
1055.4618296286441
 20
1023.2467562593757
 11
1056.4618296286428
 21
1022.2467562593772
  0
LINE
  8
_0-3_スポンジパッキン
  6
CONTINUOUS
 62
    4
 10
1059.704470315761
 20
1023.2467562593752
 11
1060.7044703157596
 21
1022.2467562593766
  0
LINE
  8
_0-3_スポンジパッキン
  6
CONTINUOUS
 62
    7
 10
1075
 20
1022.2467562593751
 11
1025
 21
1022.2467562593751
  0
LINE
  8
_0-3_スポンジパッキン
  6
CONTINUOUS
 62
    4
 10
1063.947111002886
 20
1023.2467562593757
 11
1064.9471110028873
 21
1022.2467562593743
  0
LINE
  8
_0-3_スポンジパッキン
  6
CONTINUOUS
 62
    4
 10
1068.1897516900016
 20
1023.2467562593765
 11
1069.1897516900003
 21
1022.2467562593777
  0
LINE
  8
_0-3_スポンジパッキン
  6
CONTINUOUS
 62
    4
 10
1072.4323923771191
 20
1023.2467562593753
 11
1073.4323923771178
 21
1022.2467562593766
  0
LINE
  8
_0-7_洗面ボウル
  6
CONTINUOUS
 62
    7
 10
1077.1624734122488
 20
1014.1056655712787
 11
1074.5798500082858
 21
1013.6959996032874
  0
LINE
  8
_0-7_洗面ボウル
  6
DASHED3
 62
    7
 10
1079.9245444429036
 20
1025.7951989434595
 11
1079.6594706778407
 21
1025.0887324403845
  0
LINE
  8
_0-7_洗面ボウル
  6
DASHED3
 62
    7
 10
1079.6594706778407
 20
1025.0887324403847
 11
1079.3177483807639
 21
1024.4266043075401
  0
LINE
  8
_0-7_洗面ボウル
  6
DASHED3
 62
    7
 10
1079.3177483807639
 20
1024.4266043075401
 11
1078.8993775516732
 21
1023.8088145449262
  0
LINE
  8
_0-7_洗面ボウル
  6
DASHED3
 62
    7
 10
1078.8993775516732
 20
1023.8088145449263
 11
1078.4043581905684
 21
1023.2353631525429
  0
LINE
  8
_0-7_洗面ボウル
  6
DASHED3
 62
    7
 10
1078.4043581905684
 20
1023.2353631525429
 11
1077.8326902974499
 21
1022.7062501303905
  0
LINE
  8
_0-7_洗面ボウル
  6
DASHED3
 62
    7
 10
1077.8326902974499
 20
1022.7062501303905
 11
1077.1843738723173
 21
1022.2214754784683
  0
LINE
  8
_0-7_洗面ボウル
  6
DASHED3
 62
    7
 10
1077.1843738723173
 20
1022.2214754784683
 11
1076.4594089151707
 21
1021.7810391967771
  0
LINE
  8
_0-7_洗面ボウル
  6
DASHED3
 62
    7
 10
1076.4594089151707
 20
1021.7810391967772
 11
1075.6577954260105
 21
1021.3849412853164
  0
LINE
  8
_0-7_洗面ボウル
  6
DASHED3
 62
    7
 10
1075.6577954260105
 20
1021.3849412853164
 11
1074.7795334048364
 21
1021.0331817440862
  0
LINE
  8
_0-7_洗面ボウル
  6
DASHED3
 62
    7
 10
1074.7795334048364
 20
1021.0331817440862
 11
1073.8246228516479
 21
1020.7257605730867
  0
LINE
  8
_0-7_洗面ボウル
  6
DASHED3
 62
    7
 10
1073.8246228516479
 20
1020.7257605730867
 11
1072.793063766446
 21
1020.4626777723181
  0
LINE
  8
_0-7_洗面ボウル
  6
DASHED3
 62
    7
 10
1072.793063766446
 20
1020.4626777723181
 11
1071.6848561492297
 21
1020.2439333417796
  0
LINE
  8
_0-7_洗面ボウル
  6
DASHED3
 62
    7
 10
1071.6848561492299
 20
1020.2439333417796
 11
1070.4999999999997
 21
1020.0695272814721
  0
LINE
  8
_0-7_洗面ボウル
  6
DASHED3
 62
    7
 10
1070.4999999999997
 20
1020.0695272814721
 11
1070.5
 21
1013.0695272814718
  0
LINE
  8
_0-7_洗面ボウル
  6
CONTINUOUS
 62
    7
 10
1070.5
 20
1013.0695272814718
 11
1029.5
 21
1013.0695272814718
  0
LINE
  8
_0-7_洗面ボウル
  6
DASHED3
 62
    7
 10
1020.0754555570963
 20
1025.7951989434595
 11
1020.3405293221592
 21
1025.0887324403845
  0
LINE
  8
_0-7_洗面ボウル
  6
DASHED3
 62
    7
 10
1020.3405293221592
 20
1025.0887324403845
 11
1020.682251619236
 21
1024.4266043075401
  0
LINE
  8
_0-7_洗面ボウル
  6
DASHED3
 62
    7
 10
1020.682251619236
 20
1024.4266043075401
 11
1021.1006224483267
 21
1023.8088145449262
  0
LINE
  8
_0-7_洗面ボウル
  6
DASHED3
 62
    7
 10
1021.1006224483267
 20
1023.8088145449263
 11
1021.5956418094315
 21
1023.2353631525429
  0
LINE
  8
_0-7_洗面ボウル
  6
DASHED3
 62
    7
 10
1021.5956418094315
 20
1023.2353631525429
 11
1022.1673097025501
 21
1022.7062501303905
  0
LINE
  8
_0-7_洗面ボウル
  6
DASHED3
 62
    7
 10
1022.1673097025501
 20
1022.7062501303905
 11
1022.8156261276826
 21
1022.2214754784683
  0
LINE
  8
_0-7_洗面ボウル
  6
DASHED3
 62
    7
 10
1022.8156261276825
 20
1022.2214754784683
 11
1023.5405910848292
 21
1021.7810391967771
  0
LINE
  8
_0-7_洗面ボウル
  6
DASHED3
 62
    7
 10
1023.5405910848292
 20
1021.7810391967772
 11
1024.3422045739894
 21
1021.3849412853164
  0
LINE
  8
_0-7_洗面ボウル
  6
DASHED3
 62
    7
 10
1024.3422045739894
 20
1021.3849412853164
 11
1025.2204665951635
 21
1021.0331817440862
  0
LINE
  8
_0-7_洗面ボウル
  6
DASHED3
 62
    7
 10
1025.2204665951635
 20
1021.0331817440862
 11
1026.175377148352
 21
1020.7257605730867
  0
LINE
  8
_0-7_洗面ボウル
  6
DASHED3
 62
    7
 10
1026.175377148352
 20
1020.7257605730867
 11
1027.2069362335539
 21
1020.4626777723178
  0
LINE
  8
_0-7_洗面ボウル
  6
DASHED3
 62
    7
 10
1027.2069362335539
 20
1020.4626777723181
 11
1028.31514385077
 21
1020.2439333417796
  0
LINE
  8
_0-7_洗面ボウル
  6
DASHED3
 62
    7
 10
1028.31514385077
 20
1020.2439333417796
 11
1029.5
 21
1020.0695272814721
  0
LINE
  8
_0-7_洗面ボウル
  6
DASHED3
 62
    7
 10
1029.5
 20
1020.0695272814721
 11
1029.5
 21
1013.0695272814718
  0
LINE
  8
_0-7_洗面ボウル
  6
CONTINUOUS
 62
    7
 10
945.17984720334811
 20
1109.1591257693887
 11
945.546312465509
 21
1102.4317897264133
  0
LINE
  8
_0-7_洗面ボウル
  6
CONTINUOUS
 62
    7
 10
945.546312465509
 20
1102.4317897264133
 11
946.06939960844215
 21
1095.7453857100545
  0
LINE
  8
_0-7_洗面ボウル
  6
CONTINUOUS
 62
    7
 10
946.06939960844215
 20
1095.7453857100545
 11
946.84823640478816
 21
1089.1258200662721
  0
LINE
  8
_0-7_洗面ボウル
  6
CONTINUOUS
 62
    7
 10
946.84823640478816
 20
1089.1258200662721
 11
947.9819506271873
 21
1082.5989991410258
  0
LINE
  8
_0-7_洗面ボウル
  6
CONTINUOUS
 62
    7
 10
947.9819506271873
 20
1082.5989991410258
 11
949.56967004828038
 21
1076.1908292802759
  0
LINE
  8
_0-7_洗面ボウル
  6
CONTINUOUS
 62
    7
 10
949.56967004828038
 20
1076.1908292802759
 11
950.73763399162078
 21
1072.5386651262308
  0
LINE
  8
_0-7_洗面ボウル
  6
CONTINUOUS
 62
    7
 10
950.73763399162078
 20
1072.5386651262308
 11
951.29739775061636
 21
1070.9953257758907
  0
LINE
  8
_0-7_洗面ボウル
  6
CONTINUOUS
 62
    7
 10
951.29739775061636
 20
1070.9953257758907
 11
952.34753140481393
 21
1068.3600262463887
  0
LINE
  8
_0-7_洗面ボウル
  6
CONTINUOUS
 62
    7
 10
952.34753140481393
 20
1068.3600262463887
 11
953.50085646020966
 21
1065.7611673762651
  0
LINE
  8
_0-7_洗面ボウル
  6
CONTINUOUS
 62
    7
 10
953.50085646020966
 20
1065.7611673762651
 11
954.75221760631256
 21
1063.2033969960036
  0
LINE
  8
_0-7_洗面ボウル
  6
CONTINUOUS
 62
    7
 10
954.75221760631256
 20
1063.2033969960036
 11
956.0964595326302
 21
1060.6913629360888
  0
LINE
  8
_0-7_洗面ボウル
  6
CONTINUOUS
 62
    7
 10
956.0964595326302
 20
1060.6913629360888
 11
957.52842692867159
 21
1058.2297130270048
  0
LINE
  8
_0-7_洗面ボウル
  6
CONTINUOUS
 62
    7
 10
957.52842692867159
 20
1058.2297130270048
 11
958.39713236819284
 21
1056.8268735845447
  0
LINE
  8
_0-7_洗面ボウル
  6
CONTINUOUS
 62
    7
 10
958.39713236819284
 20
1056.8268735845447
 11
959.99826209895309
 21
1054.3928775098368
  0
LINE
  8
_0-7_洗面ボウル
  6
CONTINUOUS
 62
    7
 10
959.99826209895309
 20
1054.3928775098368
 11
962.93991404431858
 21
1050.3297660851721
  0
LINE
  8
_0-7_洗面ボウル
  6
CONTINUOUS
 62
    7
 10
962.93991404431858
 20
1050.3297660851721
 11
966.08732935407579
 21
1046.4216797185181
  0
LINE
  8
_0-7_洗面ボウル
  6
CONTINUOUS
 62
    7
 10
966.08732935407579
 20
1046.4216797185181
 11
969.41323339445034
 21
1042.6524810299811
  0
LINE
  8
_0-7_洗面ボウル
  6
CONTINUOUS
 62
    7
 10
969.41323339445034
 20
1042.6524810299811
 11
972.89035153166855
 21
1039.0060326396665
  0
LINE
  8
_0-7_洗面ボウル
  6
CONTINUOUS
 62
    7
 10
972.89035153166855
 20
1039.0060326396665
 11
976.4914091319564
 21
1035.4661971676814
  0
LINE
  8
_0-7_洗面ボウル
  6
CONTINUOUS
 62
    7
 10
976.4914091319564
 20
1035.4661971676814
 11
978.62606397811396
 21
1033.4555836662864
  0
LINE
  8
_0-7_洗面ボウル
  6
CONTINUOUS
 62
    7
 10
978.62606397811396
 20
1033.4555836662864
 11
979.70888244077627
 21
1032.4571086430496
  0
LINE
  8
_0-7_洗面ボウル
  6
CONTINUOUS
 62
    7
 10
979.70888244077627
 20
1032.4571086430496
 11
981.59671632669301
 21
1030.7610300768417
  0
LINE
  8
_0-7_洗面ボウル
  6
CONTINUOUS
 62
    7
 10
981.59671632669301
 20
1030.7610300768417
 11
983.5182750039703
 21
1029.111163210757
  0
LINE
  8
_0-7_洗面ボウル
  6
CONTINUOUS
 62
    7
 10
983.5182750039703
 20
1029.111163210757
 11
985.48200281049219
 21
1027.5238123552931
  0
LINE
  8
_0-7_洗面ボウル
  6
CONTINUOUS
 62
    7
 10
985.48200281049219
 20
1027.5238123552931
 11
987.49634408414294
 21
1026.0152818209476
  0
LINE
  8
_0-7_洗面ボウル
  6
CONTINUOUS
 62
    7
 10
987.49634408414294
 20
1026.0152818209476
 11
989.56974316280684
 21
1024.601875918219
  0
LINE
  8
_0-7_洗面ボウル
  6
CONTINUOUS
 62
    7
 10
989.56974316280684
 20
1024.601875918219
 11
990.80270242292067
 21
1023.8321113470035
  0
LINE
  8
_0-7_洗面ボウル
  6
CONTINUOUS
 62
    7
 10
990.80270242292067
 20
1023.8321113470035
 11
992.76936978625758
 21
1022.7127881439746
  0
LINE
  8
_0-7_洗面ボウル
  6
CONTINUOUS
 62
    7
 10
992.76936978625758
 20
1022.7127881439746
 11
996.28229298189592
 21
1020.9967192978197
  0
LINE
  8
_0-7_洗面ボウル
  6
CONTINUOUS
 62
    7
 10
996.28229298189592
 20
1020.9967192978197
 11
999.92482162967519
 21
1019.524552551401
  0
LINE
  8
_0-7_洗面ボウル
  6
CONTINUOUS
 62
    7
 10
999.92482162967519
 20
1019.524552551401
 11
1003.6679167399129
 21
1018.2652074123975
  0
LINE
  8
_0-7_洗面ボウル
  6
CONTINUOUS
 62
    7
 10
1003.6679167399129
 20
1018.2652074123975
 11
1007.4825393229264
 21
1017.1876033884884
  0
LINE
  8
_0-7_洗面ボウル
  6
CONTINUOUS
 62
    7
 10
1007.4825393229264
 20
1017.1876033884884
 11
1011.339650389033
 21
1016.2606599873529
  0
LINE
  8
_0-7_洗面ボウル
  6
CONTINUOUS
 62
    7
 10
1011.339650389033
 20
1016.2606599873529
 11
1013.5848001583658
 21
1015.7798181818893
  0
LINE
  8
_0-7_洗面ボウル
  6
CONTINUOUS
 62
    7
 10
1013.5848001583658
 20
1015.7798181818893
 11
1015.0848663691544
 21
1015.4780246282869
  0
LINE
  8
_0-7_洗面ボウル
  6
CONTINUOUS
 62
    7
 10
1015.0848663691544
 20
1015.4780246282869
 11
1017.6701306700397
 21
1014.9893186816721
  0
LINE
  8
_0-7_洗面ボウル
  6
CONTINUOUS
 62
    7
 10
1017.6701306700397
 20
1014.9893186816721
 11
1020.2542687783825
 21
1014.5343187967048
  0
LINE
  8
_0-7_洗面ボウル
  6
CONTINUOUS
 62
    7
 10
1020.2542687783825
 20
1014.5343187967048
 11
1022.8375265877513
 21
1014.1056655712787
  0
LINE
  8
_0-7_洗面ボウル
  6
CONTINUOUS
 62
    7
 10
1022.8375265877513
 20
1014.1056655712787
 11
1025.4201499917141
 21
1013.6959996032874
  0
LINE
  8
_0-7_洗面ボウル
  6
CONTINUOUS
 62
    7
 10
1025.4201499917141
 20
1013.6959996032874
 11
1028.0023848838393
 21
1013.2979614906241
  0
LINE
  8
_0-7_洗面ボウル
  6
CONTINUOUS
 62
    7
 10
1028.0023848838393
 20
1013.2979614906241
 11
1029.5
 21
1013.0695272814718
  0
LINE
  8
_0-7_洗面ボウル
  6
CONTINUOUS
 62
    7
 10
1154.8201527966518
 20
1109.1591257693889
 11
1154.4536875344908
 21
1102.4317897264133
  0
LINE
  8
_0-7_洗面ボウル
  6
CONTINUOUS
 62
    7
 10
1154.4536875344908
 20
1102.4317897264133
 11
1153.9306003915578
 21
1095.7453857100545
  0
LINE
  8
_0-7_洗面ボウル
  6
CONTINUOUS
 62
    7
 10
1153.9306003915578
 20
1095.7453857100545
 11
1153.1517635952118
 21
1089.1258200662721
  0
LINE
  8
_0-7_洗面ボウル
  6
CONTINUOUS
 62
    7
 10
1153.1517635952118
 20
1089.1258200662721
 11
1152.0180493728125
 21
1082.598999141026
  0
LINE
  8
_0-7_洗面ボウル
  6
CONTINUOUS
 62
    7
 10
1152.0180493728125
 20
1082.598999141026
 11
1150.4303299517196
 21
1076.1908292802759
  0
LINE
  8
_0-7_洗面ボウル
  6
CONTINUOUS
 62
    7
 10
1150.4303299517196
 20
1076.1908292802759
 11
1149.2623660083793
 21
1072.5386651262308
  0
LINE
  8
_0-7_洗面ボウル
  6
CONTINUOUS
 62
    7
 10
1149.2623660083793
 20
1072.5386651262308
 11
1148.7026022493837
 21
1070.9953257758907
  0
LINE
  8
_0-7_洗面ボウル
  6
CONTINUOUS
 62
    7
 10
1148.7026022493837
 20
1070.9953257758907
 11
1147.652468595186
 21
1068.3600262463887
  0
LINE
  8
_0-7_洗面ボウル
  6
CONTINUOUS
 62
    7
 10
1147.652468595186
 20
1068.3600262463887
 11
1146.4991435397901
 21
1065.7611673762651
  0
LINE
  8
_0-7_洗面ボウル
  6
CONTINUOUS
 62
    7
 10
1146.4991435397901
 20
1065.7611673762651
 11
1145.2477823936874
 21
1063.2033969960036
  0
LINE
  8
_0-7_洗面ボウル
  6
CONTINUOUS
 62
    7
 10
1145.2477823936874
 20
1063.2033969960036
 11
1143.9035404673695
 21
1060.6913629360888
  0
LINE
  8
_0-7_洗面ボウル
  6
CONTINUOUS
 62
    7
 10
1143.9035404673695
 20
1060.6913629360888
 11
1142.4715730713282
 21
1058.2297130270048
  0
LINE
  8
_0-7_洗面ボウル
  6
CONTINUOUS
 62
    7
 10
1142.4715730713282
 20
1058.2297130270048
 11
1141.6028676318071
 21
1056.8268735845447
  0
LINE
  8
_0-7_洗面ボウル
  6
CONTINUOUS
 62
    7
 10
1141.6028676318071
 20
1056.8268735845447
 11
1140.0017379010469
 21
1054.392877509837
  0
LINE
  8
_0-7_洗面ボウル
  6
CONTINUOUS
 62
    7
 10
1140.0017379010469
 20
1054.392877509837
 11
1137.0600859556814
 21
1050.3297660851721
  0
LINE
  8
_0-7_洗面ボウル
  6
CONTINUOUS
 62
    7
 10
1137.0600859556814
 20
1050.3297660851721
 11
1133.9126706459242
 21
1046.4216797185181
  0
LINE
  8
_0-7_洗面ボウル
  6
CONTINUOUS
 62
    7
 10
1133.9126706459242
 20
1046.4216797185181
 11
1130.5867666055496
 21
1042.6524810299811
  0
LINE
  8
_0-7_洗面ボウル
  6
CONTINUOUS
 62
    7
 10
1130.5867666055496
 20
1042.6524810299811
 11
1127.1096484683314
 21
1039.0060326396665
  0
LINE
  8
_0-7_洗面ボウル
  6
CONTINUOUS
 62
    7
 10
1127.1096484683314
 20
1039.0060326396665
 11
1123.5085908680437
 21
1035.4661971676814
  0
LINE
  8
_0-7_洗面ボウル
  6
CONTINUOUS
 62
    7
 10
1123.5085908680437
 20
1035.4661971676814
 11
1121.373936021886
 21
1033.4555836662864
  0
LINE
  8
_0-7_洗面ボウル
  6
CONTINUOUS
 62
    7
 10
1121.373936021886
 20
1033.4555836662864
 11
1120.2911175592237
 21
1032.4571086430498
  0
LINE
  8
_0-7_洗面ボウル
  6
CONTINUOUS
 62
    7
 10
1120.2911175592237
 20
1032.4571086430498
 11
1118.4032836733067
 21
1030.7610300768419
  0
LINE
  8
_0-7_洗面ボウル
  6
CONTINUOUS
 62
    7
 10
1118.4032836733067
 20
1030.7610300768419
 11
1116.4817249960296
 21
1029.111163210757
  0
LINE
  8
_0-7_洗面ボウル
  6
CONTINUOUS
 62
    7
 10
1116.4817249960296
 20
1029.111163210757
 11
1114.5179971895076
 21
1027.5238123552931
  0
LINE
  8
_0-7_洗面ボウル
  6
CONTINUOUS
 62
    7
 10
1114.5179971895076
 20
1027.5238123552931
 11
1112.503655915857
 21
1026.0152818209476
  0
LINE
  8
_0-7_洗面ボウル
  6
CONTINUOUS
 62
    7
 10
1112.503655915857
 20
1026.0152818209476
 11
1110.4302568371931
 21
1024.6018759182193
  0
LINE
  8
_0-7_洗面ボウル
  6
CONTINUOUS
 62
    7
 10
1110.4302568371931
 20
1024.6018759182193
 11
1109.1972975770793
 21
1023.8321113470035
  0
LINE
  8
_0-7_洗面ボウル
  6
CONTINUOUS
 62
    7
 10
1109.1972975770793
 20
1023.8321113470035
 11
1107.2306302137421
 21
1022.7127881439747
  0
LINE
  8
_0-7_洗面ボウル
  6
CONTINUOUS
 62
    7
 10
1107.2306302137421
 20
1022.7127881439747
 11
1103.7177070181039
 21
1020.9967192978197
  0
LINE
  8
_0-7_洗面ボウル
  6
CONTINUOUS
 62
    7
 10
1103.7177070181039
 20
1020.9967192978197
 11
1100.0751783703249
 21
1019.524552551401
  0
LINE
  8
_0-7_洗面ボウル
  6
CONTINUOUS
 62
    7
 10
1100.0751783703249
 20
1019.524552551401
 11
1096.332083260087
 21
1018.2652074123975
  0
LINE
  8
_0-7_洗面ボウル
  6
CONTINUOUS
 62
    7
 10
1096.332083260087
 20
1018.2652074123975
 11
1092.5174606770735
 21
1017.1876033884884
  0
LINE
  8
_0-7_洗面ボウル
  6
CONTINUOUS
 62
    7
 10
1092.5174606770735
 20
1017.1876033884884
 11
1088.6603496109669
 21
1016.2606599873529
  0
LINE
  8
_0-7_洗面ボウル
  6
CONTINUOUS
 62
    7
 10
1088.6603496109669
 20
1016.2606599873529
 11
1086.4151998416341
 21
1015.7798181818893
  0
LINE
  8
_0-7_洗面ボウル
  6
CONTINUOUS
 62
    7
 10
1086.4151998416341
 20
1015.7798181818893
 11
1084.9151336308452
 21
1015.478024628287
  0
LINE
  8
_0-7_洗面ボウル
  6
CONTINUOUS
 62
    7
 10
1084.9151336308452
 20
1015.478024628287
 11
1082.3298693299602
 21
1014.9893186816722
  0
LINE
  8
_0-7_洗面ボウル
  6
CONTINUOUS
 62
    7
 10
1082.3298693299602
 20
1014.9893186816722
 11
1079.7457312216174
 21
1014.5343187967048
  0
LINE
  8
_0-7_洗面ボウル
  6
CONTINUOUS
 62
    7
 10
1079.7457312216174
 20
1014.5343187967048
 11
1077.1624734122488
 21
1014.1056655712787
  0
LINE
  8
_0-7_洗面ボウル
  6
CONTINUOUS
 62
    7
 10
1074.5798500082858
 20
1013.6959996032874
 11
1071.9976151161606
 21
1013.2979614906241
  0
LINE
  8
_0-7_洗面ボウル
  6
CONTINUOUS
 62
    7
 10
1071.9976151161606
 20
1013.2979614906241
 11
1070.4999999999997
 21
1013.0695272814721
  0
LINE
  8
_0-7_洗面ボウル
  6
CONTINUOUS
 62
    7
 10
945
 20
1113.0695272814718
 11
945.17984720334811
 21
1109.1591257693887
  0
LINE
  8
_0-7_洗面ボウル
  6
CONTINUOUS
 62
    7
 10
945
 20
1113.0695272814718
 11
1154.9999999999997
 21
1113.0695272814718
  0
LINE
  8
_0-7_洗面ボウル
  6
CONTINUOUS
 62
    7
 10
1154.9999999999997
 20
1113.0695272814718
 11
1154.8201527966518
 21
1109.1591257693889
  0
LINE
  8
_0-7_洗面ボウル
  6
DASHED3
 62
    7
 10
987.23480217026929
 20
1039.0844788927533
 11
983.42549550134106
 21
1042.672432904751
  0
LINE
  8
_0-7_洗面ボウル
  6
DASHED3
 62
    7
 10
983.42549550134106
 20
1042.672432904751
 11
980.01586063954675
 21
1046.0241000453522
  0
LINE
  8
_0-7_洗面ボウル
  6
DASHED3
 62
    7
 10
980.01586063954675
 20
1046.0241000453522
 11
976.7836558649792
 21
1049.4137081726207
  0
LINE
  8
_0-7_洗面ボウル
  6
DASHED3
 62
    7
 10
976.7836558649792
 20
1049.4137081726207
 11
973.7344620691822
 21
1052.8693151644929
  0
LINE
  8
_0-7_洗面ボウル
  6
DASHED3
 62
    7
 10
973.7344620691822
 20
1052.8693151644929
 11
970.88929145937197
 21
1056.4021099744231
  0
LINE
  8
_0-7_洗面ボウル
  6
DASHED3
 62
    7
 10
970.88929145937197
 20
1056.4021099744231
 11
968.22961556811742
 21
1060.0757463190238
  0
LINE
  8
_0-7_洗面ボウル
  6
DASHED3
 62
    7
 10
968.22961556811742
 20
1060.0757463190238
 11
966.82688903733776
 21
1062.2081349719942
  0
LINE
  8
_0-7_洗面ボウル
  6
DASHED3
 62
    7
 10
966.82688903733776
 20
1062.2081349719942
 11
966.10294722879962
 21
1063.3772011213013
  0
LINE
  8
_0-7_洗面ボウル
  6
DASHED3
 62
    7
 10
966.10294722879962
 20
1063.3772011213013
 11
964.82964542371053
 21
1065.566094025846
  0
LINE
  8
_0-7_洗面ボウル
  6
DASHED3
 62
    7
 10
964.82964542371053
 20
1065.566094025846
 11
963.65494685968224
 21
1067.7612962027749
  0
LINE
  8
_0-7_洗面ボウル
  6
DASHED3
 62
    7
 10
963.65494685968224
 20
1067.7612962027749
 11
962.56549714688867
 21
1069.9881211404406
  0
LINE
  8
_0-7_洗面ボウル
  6
DASHED3
 62
    7
 10
962.56549714688867
 20
1069.9881211404406
 11
961.56592537680444
 21
1072.240518197849
  0
LINE
  8
_0-7_洗面ボウル
  6
DASHED3
 62
    7
 10
961.56592537680444
 20
1072.240518197849
 11
960.64486780061974
 21
1074.5519026463539
  0
LINE
  8
_0-7_洗面ボウル
  6
DASHED3
 62
    7
 10
960.64486780061974
 20
1074.5519026463539
 11
960.20390739264439
 21
1075.7676861597265
  0
LINE
  8
_0-7_洗面ボウル
  6
DASHED3
 62
    7
 10
960.20390739264439
 20
1075.7676861597265
 11
959.19600662793322
 21
1078.9193408530943
  0
LINE
  8
_0-7_洗面ボウル
  6
DASHED3
 62
    7
 10
959.19600662793322
 20
1078.9193408530943
 11
957.77373632978185
 21
1084.6597440612235
  0
LINE
  8
_0-7_洗面ボウル
  6
DASHED3
 62
    7
 10
957.77373632978185
 20
1084.6597440612235
 11
956.74766723855532
 21
1090.566849293787
  0
LINE
  8
_0-7_洗面ボウル
  6
DASHED3
 62
    7
 10
956.74766723855532
 20
1090.566849293787
 11
956.02371005537986
 21
1096.7199767780075
  0
LINE
  8
_0-7_洗面ボウル
  6
DASHED3
 62
    7
 10
956.02371005537986
 20
1096.7199767780075
 11
955.52507537929682
 21
1103.0938151449031
  0
LINE
  8
_0-7_洗面ボウル
  6
DASHED3
 62
    7
 10
955.52507537929682
 20
1103.0938151449031
 11
955.16734406204227
 21
1109.660818986078
  0
LINE
  8
_0-7_洗面ボウル
  6
DASHED3
 62
    7
 10
1020.0754555570963
 20
1025.7951989434595
 11
1018.2430802208465
 21
1025.9771292562681
  0
LINE
  8
_0-7_洗面ボウル
  6
DASHED3
 62
    7
 10
1018.2430802208465
 20
1025.9771292562681
 11
1015.0916345115365
 21
1026.3163089683157
  0
LINE
  8
_0-7_洗面ボウル
  6
DASHED3
 62
    7
 10
1015.0916345115365
 20
1026.3163089683157
 11
1011.9619168905893
 21
1026.7263407885002
  0
LINE
  8
_0-7_洗面ボウル
  6
DASHED3
 62
    7
 10
1011.9619168905893
 20
1026.7263407885002
 11
1008.8676793126647
 21
1027.2520678232378
  0
LINE
  8
_0-7_洗面ボウル
  6
DASHED3
 62
    7
 10
1008.8676793126647
 20
1027.2520678232378
 11
1005.8226737324227
 21
1027.9383331789445
  0
LINE
  8
_0-7_洗面ボウル
  6
DASHED3
 62
    7
 10
1005.8226737324227
 20
1027.9383331789445
 11
1002.840652104523
 21
1028.8299799620356
  0
LINE
  8
_0-7_洗面ボウル
  6
DASHED3
 62
    7
 10
1002.840652104523
 20
1028.8299799620356
 11
1001.1453577925421
 21
1029.4589113820256
  0
LINE
  8
_0-7_洗面ボウル
  6
DASHED3
 62
    7
 10
1001.1453577925421
 20
1029.4589113820256
 11
1000.4527248055753
 21
1029.7454213857288
  0
LINE
  8
_0-7_洗面ボウル
  6
DASHED3
 62
    7
 10
1000.4527248055753
 20
1029.7454213857288
 11
999.27144799108191
 21
1030.2759062915756
  0
LINE
  8
_0-7_洗面ボウル
  6
DASHED3
 62
    7
 10
999.27144799108191
 20
1030.2759062915756
 11
998.10876103493501
 21
1030.8513946334599
  0
LINE
  8
_0-7_洗面ボウル
  6
DASHED3
 62
    7
 10
998.10876103493501
 20
1030.8513946334599
 11
996.96726622955736
 21
1031.4704889630866
  0
LINE
  8
_0-7_洗面ボウル
  6
DASHED3
 62
    7
 10
996.96726622955736
 20
1031.4704889630866
 11
995.84956586737109
 21
1032.1317918321599
  0
LINE
  8
_0-7_洗面ボウル
  6
DASHED3
 62
    7
 10
995.84956586737109
 20
1032.1317918321599
 11
994.75826224079901
 21
1032.8339057923849
  0
LINE
  8
_0-7_洗面ボウル
  6
DASHED3
 62
    7
 10
994.75826224079901
 20
1032.8339057923849
 11
994.13842656017914
 21
1033.2592808639853
  0
LINE
  8
_0-7_洗面ボウル
  6
DASHED3
 62
    7
 10
994.13842656017914
 20
1033.2592808639853
 11
993.44813610732057
 21
1033.7567975878332
  0
LINE
  8
_0-7_洗面ボウル
  6
DASHED3
 62
    7
 10
993.44813610732057
 20
1033.7567975878332
 11
992.28531208559604
 21
1034.6491689400777
  0
LINE
  8
_0-7_洗面ボウル
  6
DASHED3
 62
    7
 10
992.28531208559604
 20
1034.6491689400777
 11
991.15161600648548
 21
1035.5783967354043
  0
LINE
  8
_0-7_洗面ボウル
  6
DASHED3
 62
    7
 10
991.15161600648548
 20
1035.5783967354043
 11
990.04068805719134
 21
1036.5364337154985
  0
LINE
  8
_0-7_洗面ボウル
  6
DASHED3
 62
    7
 10
990.04068805719134
 20
1036.5364337154985
 11
988.94616842491541
 21
1037.5152326220452
  0
LINE
  8
_0-7_洗面ボウル
  6
DASHED3
 62
    7
 10
988.94616842491541
 20
1037.5152326220452
 11
987.86169729686002
 21
1038.5067461967294
  0
LINE
  8
_0-7_洗面ボウル
  6
DASHED3
 62
    7
 10
987.86169729686002
 20
1038.5067461967294
 11
987.23480217026929
 21
1039.0844788927533
  0
LINE
  8
_0-7_洗面ボウル
  6
DASHED3
 62
    7
 10
1144.4749246207031
 20
1103.0938151449031
 11
1144.8326559379577
 21
1109.660818986078
  0
LINE
  8
_0-7_洗面ボウル
  6
DASHED3
 62
    7
 10
1143.97628994462
 20
1096.7199767780073
 11
1144.4749246207031
 21
1103.0938151449031
  0
LINE
  8
_0-7_洗面ボウル
  6
DASHED3
 62
    7
 10
1143.2523327614446
 20
1090.566849293787
 11
1143.97628994462
 21
1096.7199767780073
  0
LINE
  8
_0-7_洗面ボウル
  6
DASHED3
 62
    7
 10
1142.2262636702182
 20
1084.6597440612235
 11
1143.2523327614446
 21
1090.566849293787
  0
LINE
  8
_0-7_洗面ボウル
  6
DASHED3
 62
    7
 10
1140.8039933720667
 20
1078.9193408530943
 11
1142.2262636702182
 21
1084.6597440612235
  0
LINE
  8
_0-7_洗面ボウル
  6
DASHED3
 62
    7
 10
1139.7960926073556
 20
1075.7676861597265
 11
1140.8039933720667
 21
1078.9193408530943
  0
LINE
  8
_0-7_洗面ボウル
  6
DASHED3
 62
    7
 10
1139.3551321993802
 20
1074.5519026463539
 11
1139.7960926073556
 21
1075.7676861597265
  0
LINE
  8
_0-7_洗面ボウル
  6
DASHED3
 62
    7
 10
1138.4340746231955
 20
1072.240518197849
 11
1139.3551321993802
 21
1074.5519026463539
  0
LINE
  8
_0-7_洗面ボウル
  6
DASHED3
 62
    7
 10
1137.434502853111
 20
1069.9881211404406
 11
1138.4340746231955
 21
1072.240518197849
  0
LINE
  8
_0-7_洗面ボウル
  6
DASHED3
 62
    7
 10
1136.3450531403177
 20
1067.7612962027749
 11
1137.434502853111
 21
1069.9881211404406
  0
LINE
  8
_0-7_洗面ボウル
  6
DASHED3
 62
    7
 10
1135.1703545762895
 20
1065.566094025846
 11
1136.3450531403177
 21
1067.7612962027749
  0
LINE
  8
_0-7_洗面ボウル
  6
DASHED3
 62
    7
 10
1133.8970527712003
 20
1063.3772011213013
 11
1135.1703545762895
 21
1065.566094025846
  0
LINE
  8
_0-7_洗面ボウル
  6
DASHED3
 62
    7
 10
1133.1731109626621
 20
1062.2081349719942
 11
1133.8970527712003
 21
1063.3772011213013
  0
LINE
  8
_0-7_洗面ボウル
  6
DASHED3
 62
    7
 10
1131.7703844318825
 20
1060.0757463190238
 11
1133.1731109626621
 21
1062.2081349719942
  0
LINE
  8
_0-7_洗面ボウル
  6
DASHED3
 62
    7
 10
1129.1107085406279
 20
1056.4021099744229
 11
1131.7703844318825
 21
1060.0757463190238
  0
LINE
  8
_0-7_洗面ボウル
  6
DASHED3
 62
    7
 10
1126.2655379308177
 20
1052.8693151644929
 11
1129.1107085406279
 21
1056.4021099744229
  0
LINE
  8
_0-7_洗面ボウル
  6
DASHED3
 62
    7
 10
1123.2163441350207
 20
1049.4137081726207
 11
1126.2655379308177
 21
1052.8693151644929
  0
LINE
  8
_0-7_洗面ボウル
  6
DASHED3
 62
    7
 10
1119.9841393604533
 20
1046.024100045352
 11
1123.2163441350207
 21
1049.4137081726207
  0
LINE
  8
_0-7_洗面ボウル
  6
DASHED3
 62
    7
 10
1116.5745044986588
 20
1042.6724329047508
 11
1119.9841393604533
 21
1046.024100045352
  0
LINE
  8
_0-7_洗面ボウル
  6
DASHED3
 62
    7
 10
1112.7651978297305
 20
1039.0844788927533
 11
1116.5745044986588
 21
1042.6724329047508
  0
LINE
  8
_0-7_洗面ボウル
  6
DASHED3
 62
    7
 10
1112.1383027031399
 20
1038.5067461967294
 11
1112.7651978297305
 21
1039.0844788927533
  0
LINE
  8
_0-7_洗面ボウル
  6
DASHED3
 62
    7
 10
1111.0538315750845
 20
1037.5152326220452
 11
1112.1383027031399
 21
1038.5067461967294
  0
LINE
  8
_0-7_洗面ボウル
  6
DASHED3
 62
    7
 10
1109.9593119428086
 20
1036.5364337154985
 11
1111.0538315750845
 21
1037.5152326220452
  0
LINE
  8
_0-7_洗面ボウル
  6
DASHED3
 62
    7
 10
1108.8483839935145
 20
1035.5783967354043
 11
1109.9593119428086
 21
1036.5364337154985
  0
LINE
  8
_0-7_洗面ボウル
  6
DASHED3
 62
    7
 10
1107.714687914404
 20
1034.6491689400775
 11
1108.8483839935145
 21
1035.5783967354043
  0
LINE
  8
_0-7_洗面ボウル
  6
DASHED3
 62
    7
 10
1106.5518638926794
 20
1033.7567975878332
 11
1107.714687914404
 21
1034.6491689400775
  0
LINE
  8
_0-7_洗面ボウル
  6
DASHED3
 62
    7
 10
1105.8615734398208
 20
1033.2592808639853
 11
1106.5518638926794
 21
1033.7567975878332
  0
LINE
  8
_0-7_洗面ボウル
  6
DASHED3
 62
    7
 10
1105.2417377592009
 20
1032.8339057923849
 11
1105.8615734398208
 21
1033.2592808639853
  0
LINE
  8
_0-7_洗面ボウル
  6
DASHED3
 62
    7
 10
1104.150434132629
 20
1032.1317918321599
 11
1105.2417377592009
 21
1032.8339057923849
  0
LINE
  8
_0-7_洗面ボウル
  6
DASHED3
 62
    7
 10
1103.0327337704425
 20
1031.4704889630866
 11
1104.150434132629
 21
1032.1317918321599
  0
LINE
  8
_0-7_洗面ボウル
  6
DASHED3
 62
    7
 10
1101.8912389650649
 20
1030.8513946334599
 11
1103.0327337704425
 21
1031.4704889630866
  0
LINE
  8
_0-7_洗面ボウル
  6
DASHED3
 62
    7
 10
1100.728552008918
 20
1030.2759062915756
 11
1101.8912389650649
 21
1030.8513946334599
  0
LINE
  8
_0-7_洗面ボウル
  6
DASHED3
 62
    7
 10
1099.5472751944246
 20
1029.7454213857286
 11
1100.728552008918
 21
1030.2759062915756
  0
LINE
  8
_0-7_洗面ボウル
  6
DASHED3
 62
    7
 10
1098.8546422074578
 20
1029.4589113820256
 11
1099.5472751944246
 21
1029.7454213857286
  0
LINE
  8
_0-7_洗面ボウル
  6
DASHED3
 62
    7
 10
1097.1593478954769
 20
1028.8299799620356
 11
1098.8546422074578
 21
1029.4589113820256
  0
LINE
  8
_0-7_洗面ボウル
  6
DASHED3
 62
    7
 10
1094.1773262675772
 20
1027.9383331789442
 11
1097.1593478954769
 21
1028.8299799620356
  0
LINE
  8
_0-7_洗面ボウル
  6
DASHED3
 62
    7
 10
1091.1323206873353
 20
1027.2520678232376
 11
1094.1773262675772
 21
1027.9383331789442
  0
LINE
  8
_0-7_洗面ボウル
  6
DASHED3
 62
    7
 10
1088.0380831094107
 20
1026.7263407885002
 11
1091.1323206873353
 21
1027.2520678232376
  0
LINE
  8
_0-7_洗面ボウル
  6
DASHED3
 62
    7
 10
1084.9083654884634
 20
1026.3163089683155
 11
1088.0380831094107
 21
1026.7263407885002
  0
LINE
  8
_0-7_洗面ボウル
  6
DASHED3
 62
    7
 10
1081.7569197791535
 20
1025.9771292562681
 11
1084.9083654884634
 21
1026.3163089683155
  0
LINE
  8
_0-7_洗面ボウル
  6
DASHED3
 62
    7
 10
1079.9245444429036
 20
1025.7951989434595
 11
1081.7569197791535
 21
1025.9771292562681
  0
LINE
  8
_0-7_洗面ボウル
  6
DASHED3
 62
    7
 10
955.16734406204227
 20
1109.660818986078
 11
955.01057073529773
 21
1113.0695272814718
  0
LINE
  8
_0-7_洗面ボウル
  6
DASHED3
 62
    7
 10
1144.8326559379577
 20
1109.660818986078
 11
1144.9894292647022
 21
1113.0695272814718
  0
LINE
  8
_0-0_
  6
CONTINUOUS
 62
    4
 10
1256.7611396673123
 20
1077.9810681775234
 11
1066.7521121091442
 21
1024.0287376029236
  0
LINE
  8
_0-0_
  6
CONTINUOUS
 62
    4
 10
1070.3425788617364
 20
1022.6310866366417
 11
1259.3979344990614
 21
1058.951335173559
  0
TEXT
  8
_0-0_
 62
    4
 10
1229.026989324275
 20
823.33191292274909
 40
12.5
 41
1
 50
0
  1
排水トラップφ25
  0
TEXT
  8
_0-0_
 62
    4
 10
828.59439174122644
 20
860.63974661678093
 40
12.5
 41
1
 50
0
  1
排水目皿用ナット
  0
TEXT
  8
_0-0_
 62
    4
 10
718.05324459234611
 20
901.94259567387689
 40
12.5
 41
1
 50
0
  1
ボウル固定板（バックプレート）
  0
TEXT
  8
_0-0_
 62
    7
 10
1030
 20
797.32036074465304
 40
10
 41
1
 50
0
  1
取付方法
  0
LINE
  8
_0-0_
  6
CONTINUOUS
 62
    7
 10
1003.75
 20
811.07036074465304
 11
1003.75
 21
793.57036074465304
  0
LINE
  8
_0-0_
  6
CONTINUOUS
 62
    7
 10
1003.75
 20
793.57036074465304
 11
1096.25
 21
793.57036074465304
  0
LINE
  8
_0-0_
  6
CONTINUOUS
 62
    7
 10
1096.25
 20
793.57036074465304
 11
1096.25
 21
811.07036074465304
  0
LINE
  8
_0-0_
  6
CONTINUOUS
 62
    7
 10
1003.75
 20
811.07036074465304
 11
1096.25
 21
811.07036074465304
  0
ENDSEC
  0
EOF
