  0
SECTION
  2
HEADER
  9
$ACADVER
  1
AC1009
  9
$INSBASE
 10
0
 20
0
 30
0
  9
$EXTMIN
 10
0
 20
0
  9
$EXTMAX
 10
1682
 20
1188
  9
$LIMMIN
 10
0
 20
0
  9
$LIMMAX
 10
1682
 20
1188
  9
$LTSCALE
 40
2
  0
ENDSEC
  0
SECTION
  2
TABLES
  0
TABLE
  2
LTYPE
 70
     9
  0
LTYPE
  2
CONTINUOUS
 70
    64
  3
実線
 72
    65
 73
     0
 40
0.0
  0
LTYPE
  2
DASHED1
 70
    64
  3
--  --  --  --  --  --  --  --  
 72
    65
 73
     2
 40
2.5
 49
1.25
 49
-1.25
  0
LTYPE
  2
DASHED2
 70
    64
  3
----    ----    ----    ----    
 72
    65
 73
     2
 40
5.0
 49
2.5
 49
-2.5
  0
LTYPE
  2
DASHED3
 70
    64
  3
------  ------  ------  ------  
 72
    65
 73
     2
 40
5.0
 49
3.75
 49
-1.25
  0
LTYPE
  2
CENTER1
 70
    64
  3
----- - ----- - ----- - ----- - 
 72
    65
 73
     4
 40
10.0
 49
6.25
 49
-1.25
 49
1.25
 49
-1.25
  0
LTYPE
  2
CENTER2
 70
    64
  3
----------  --  ----------  --  
 72
    65
 73
     4
 40
20.0
 49
12.5
 49
-2.5
 49
2.5
 49
-2.5
  0
LTYPE
  2
PHANTOM1
 70
    64
  3
--- - - --- - - --- - - --- - - 
 72
    65
 73
     6
 40
10.0
 49
3.25
 49
-1.25
 49
1.25
 49
-1.25
 49
1.25
 49
-1.25
  0
LTYPE
  2
PHANTOM2
 70
    64
  3
--------  -  -  --------  -  -  
 72
    65
 73
     6
 40
20.0
 49
10.0
 49
-2.5
 49
1.25
 49
-2.5
 49
1.25
 49
-2.5
  0
LTYPE
  2
DOT
 70
    64
  3
-   -   -   -   -   -   -   -   
 72
    65
 73
     2
 40
2.5
 49
0.625
 49
-1.875
  0
LTYPE
  2
DUMMY
 70
    64
  3
ダミー
 72
    65
 73
     0
 40
0.0
  0
LTYPE
  2
RAND1
 70
    64
  3
ランダム線1
 72
    65
 73
     4
 40
10.0
 49
1.0
 49
-2.0
 49
3.0
 49
-4.0
  0
LTYPE
  2
RAND2
 70
    64
  3
ランダム線2
 72
    65
 73
     4
 40
14.0
 49
2.0
 49
-3.0
 49
4.0
 49
-5.0
  0
LTYPE
  2
RAND3
 70
    64
  3
ランダム線3
 72
    65
 73
     4
 40
18.0
 49
3.0
 49
-4.0
 49
5.0
 49
-6.0
  0
LTYPE
  2
RAND4
 70
    64
  3
ランダム線4
 72
    65
 73
     4
 40
22.0
 49
4.0
 49
-5.0
 49
6.0
 49
-7.0
  0
LTYPE
  2
RAND5
 70
    64
  3
ランダム線5
 72
    65
 73
     4
 40
26.0
 49
5.0
 49
-6.0
 49
7.0
 49
-8.0
  0
LTYPE
  2
LONG1
 70
    64
  3
----------  --  ----------  --  
 72
    65
 73
     4
 40
40.0
 49
32.5
 49
-2.5
 49
2.5
 49
-2.5
  0
LTYPE
  2
LONG2
 70
    64
  3
--------  -  -  --------  -  -  
 72
    65
 73
     6
 40
40.0
 49
30.0
 49
-2.5
 49
1.25
 49
-2.5
 49
1.25
 49
-2.5
  0
LTYPE
  2
LONG3
 70
    64
  3
+++++++++++++++..+++++++++++++++
 72
    65
 73
     2
 40
40.0
 49
37.5
 49
-2.5
  0
LTYPE
  2
LONG4
 70
    64
  3
+++++++++++++++..+++++++++++++++
 72
    65
 73
     2
 40
80.0
 49
75.0
 49
-5.0
  0
LTYPE
  2
LONG5
 70
    64
  3
----------  --  ----------  --  
 72
    65
 73
     4
 40
60.0
 49
37.5
 49
-7.5
 49
7.5
 49
-7.5
  0
LTYPE
  2
dashed
 70
   64
  3
-------   -------------   ------
 72
   65
 73
    2
 40
7.5
 49
6
 49
-1.5
  0
LTYPE
  2
dashed_spaced
 70
   64
  3
----        --------        ----
 72
   65
 73
    2
 40
12
 49
6
 49
-6
  0
LTYPE
  2
long_dashed_dotted
 70
   64
  3
------------- --- --------------
 72
   65
 73
    4
 40
15.25
 49
12
 49
-1.5
 49
0.25
 49
-1.5
  0
LTYPE
  2
long_dashed_double-dotted
 70
   64
  3
----------- --- --- ------------
 72
   65
 73
    6
 40
17
 49
12
 49
-1.5
 49
0.25
 49
-1.5
 49
0.25
 49
-1.5
  0
LTYPE
  2
long_dashed_triplicate-dotted
 70
   64
  3
--------- --- --- --- ----------
 72
   65
 73
    8
 40
18.75
 49
12
 49
-1.5
 49
0.25
 49
-1.5
 49
0.25
 49
-1.5
 49
0.25
 49
-1.5
  0
LTYPE
  2
dotted
 70
   64
  3
   -       -       -       -    
 72
   65
 73
    2
 40
1.75
 49
0.25
 49
-1.5
  0
LTYPE
  2
chain
 70
   64
  3
-------------- -- --------------
 72
   65
 73
    4
 40
18.5
 49
12
 49
-1.5
 49
3.5
 49
-1.5
  0
LTYPE
  2
chain_double_dash
 70
   64
  3
------------ -- -- -------------
 72
   65
 73
    6
 40
23.5
 49
12
 49
-1.5
 49
3.5
 49
-1.5
 49
3.5
 49
-1.5
  0
LTYPE
  2
dashed_dotted
 70
   64
  3
-----------     -     ----------
 72
   65
 73
    4
 40
9.25
 49
6
 49
-1.5
 49
0.25
 49
-1.5
  0
LTYPE
  2
double-dashed_dotted
 70
   64
  3
------   -----------   -   -----
 72
   65
 73
    6
 40
16.75
 49
6
 49
-1.5
 49
6
 49
-1.5
 49
0.25
 49
-1.5
  0
LTYPE
  2
dashed_double-dotted
 70
   64
  3
---------    -    -    ---------
 72
   65
 73
    6
 40
11
 49
6
 49
-1.5
 49
0.25
 49
-1.5
 49
0.25
 49
-1.5
  0
LTYPE
  2
double-dashed_double-dotted
 70
   64
  3
-----   ---------   -   -   ----
 72
   65
 73
    8
 40
18.5
 49
6
 49
-1.5
 49
6
 49
-1.5
 49
0.25
 49
-1.5
 49
0.25
 49
-1.5
  0
LTYPE
  2
dashed_triplicate-dotted
 70
   64
  3
-------    -    -    -    ------
 72
   65
 73
    8
 40
12.75
 49
6
 49
-1.5
 49
0.25
 49
-1.5
 49
0.25
 49
-1.5
 49
0.25
 49
-1.5
  0
LTYPE
  2
double-dashed_triplicate-dotted
 70
   64
  3
-----  ---------  -  -  -  -----
 72
   65
 73
   10
 40
20.25
 49
6
 49
-1.5
 49
6
 49
-1.5
 49
0.25
 49
-1.5
 49
0.25
 49
-1.5
 49
0.25
 49
-1.5
  0
LTYPE
  2
undefined
 70
   64
  3
--------------------------------
 72
   65
 73
    0
 40
0
  0
LTYPE
  2
_
 70
   64
  3
                                
 72
   65
 73
    0
 40
0
  0
LTYPE
  2
__18
 70
   64
  3
                                
 72
   65
 73
    0
 40
0
  0
LTYPE
  2
__19
 70
   64
  3
                                
 72
   65
 73
    0
 40
0
  0
LTYPE
  2
__20
 70
   64
  3
                                
 72
   65
 73
    0
 40
0
  0
LTYPE
  2
__21
 70
   64
  3
                                
 72
   65
 73
    0
 40
0
  0
LTYPE
  2
__22
 70
   64
  3
                                
 72
   65
 73
    0
 40
0
  0
LTYPE
  2
__23
 70
   64
  3
                                
 72
   65
 73
    0
 40
0
  0
LTYPE
  2
__24
 70
   64
  3
                                
 72
   65
 73
    0
 40
0
  0
LTYPE
  2
__25
 70
   64
  3
                                
 72
   65
 73
    0
 40
0
  0
LTYPE
  2
__26
 70
   64
  3
                                
 72
   65
 73
    0
 40
0
  0
LTYPE
  2
__27
 70
   64
  3
                                
 72
   65
 73
    0
 40
0
  0
LTYPE
  2
__28
 70
   64
  3
                                
 72
   65
 73
    0
 40
0
  0
LTYPE
  2
__29
 70
   64
  3
                                
 72
   65
 73
    0
 40
0
  0
LTYPE
  2
__30
 70
   64
  3
                                
 72
   65
 73
    0
 40
0
  0
LTYPE
  2
__31
 70
   64
  3
                                
 72
   65
 73
    0
 40
0
  0
LTYPE
  2
__32
 70
   64
  3
                                
 72
   65
 73
    0
 40
0
  0
ENDTAB
  0
TABLE
  2
STYLE
  5
3
100
AcDbSymbolTable
 70
     1
  0
STYLE
  5
10
100
AcDbSymbolTableRecord
100
AcDbTextStyleTableRecord
  2
STANDARD
 70
     0
 40
0.0
 41
1.0
 50
0.0
 71
     0
 42
0.2
  3
txt
  4
bigfont.shx
  0
STYLE
  5
26
100
AcDbSymbolTableRecord
100
AcDbTextStyleTableRecord
  2
TATEGAKI
 70
    68
 40
0.0
 41
1.0
 50
0.0
 71
     0
 42
1.0
  3
txt
  4
bigfont.shx
  0
ENDTAB
  0
TABLE
  2
LAYER
 70
   12
  0
LAYER
  2
_0-0_
 70
   64
 62
    7
  6
CONTINUOUS
  0
LAYER
  2
_0-1_マウンティングディスク
 70
   64
 62
    7
  6
CONTINUOUS
  0
LAYER
  2
_0-2_目皿
 70
   64
 62
    7
  6
CONTINUOUS
  0
LAYER
  2
_0-3_スポンジパッキン
 70
   64
 62
    7
  6
CONTINUOUS
  0
LAYER
  2
_0-4_三角パッキン
 70
   64
 62
    7
  6
CONTINUOUS
  0
LAYER
  2
_0-5_スリップパッキン
 70
   64
 62
    7
  6
CONTINUOUS
  0
LAYER
  2
_0-7_洗面ボウル
 70
   64
 62
    7
  6
CONTINUOUS
  0
LAYER
  2
_0-8_天板
 70
   64
 62
    7
  6
CONTINUOUS
  0
LAYER
  2
_0-9_バックプレ__ト
 70
   64
 62
    7
  6
CONTINUOUS
  0
LAYER
  2
_0-a_ナット
 70
   64
 62
    7
  6
CONTINUOUS
  0
LAYER
  2
_0-b_化粧キャップラウンド
 70
   64
 62
    7
  6
CONTINUOUS
  0
LAYER
  2
ADD_LINE
 70
   64
 62
    7
  6
CONTINUOUS
  0
ENDTAB
  0
ENDSEC
  0
SECTION
  2
BLOCKS
  0
BLOCK
  2
-000-_None_2_
 70
   64
 10
0
 20
0
 30
0
  0
ENDBLK
  0
ENDSEC
  0
SECTION
  2
ENTITIES
  0
TEXT
  8
_0-0_
 62
    7
 10
1030.7075061101975
 20
297.05202280950254
 40
15
 41
1
 50
0
  1
※天板厚　15～25㎜対応
  0
LINE
  8
_0-0_
  6
CONTINUOUS
 62
    7
 10
457.33649231803872
 20
291.01557813630955
 11
1224.6635076819611
 21
291.01557813630955
  0
TEXT
  8
_0-0_
 62
    7
 10
554.34524249259459
 20
82.331973303859285
 40
15
 41
1
 50
0
  1
・排水トラップ
  0
TEXT
  8
_0-0_
 62
    7
 10
555.99092264348632
 20
256.57867789672889
 40
15
 41
1
 50
0
  1
【セット内容】
  0
TEXT
  8
_0-0_
 62
    7
 10
554.34524249259459
 20
32.331973303859285
 40
15
 41
1
 50
0
  1
・排水トラップ（SトラップまたはPトラップまたはボトルラップ）
  0
TEXT
  8
_0-0_
 62
    7
 10
554.34524249259459
 20
182.33197330385928
 40
15
 41
1
 50
0
  1
・Mimi シリーズ　排水栓（排水目皿）（70㎜）
  0
TEXT
  8
_0-0_
 62
    7
 10
554.34524249259459
 20
232.33197330385922
 40
15
 41
1
 50
0
  1
・SUS304 Mimiスクエア用マウンティングディスク
  0
TEXT
  8
_0-0_
 62
    7
 10
486.11430347179555
 20
335.08892906806772
 40
17.5
 41
1
 50
0
  1
商品名：Mimi SQUAERシリーズ Sトラップ／Pトラップ／ボトルラップ コンプリートセット70mm
  0
TEXT
  8
_0-0_
 62
    7
 10
554.34524249259459
 20
157.33197330385928
 40
15
 41
1
 50
0
  1
・排水パッキン（スポンジパッキン・三角パッキン・スリップパッキン）
  0
TEXT
  8
_0-0_
 62
    7
 10
554.34524249259459
 20
132.33197330385928
 40
15
 41
1
 50
0
  1
・排水目皿用ナット×2
  0
TEXT
  8
_0-0_
 62
    7
 10
554.3452424925947
 20
107.33197330385928
 40
15
 41
1
 50
0
  1
・ボウル固定板（バックプレート）
  0
LINE
  8
_0-8_天板
  6
CONTINUOUS
 62
    3
 10
808.5
 20
804.56952728147189
 11
485.2127721609421
 21
804.56952728147189
  0
LINE
  8
_0-8_天板
  6
CONTINUOUS
 62
    4
 10
485.2127721609421
 20
804.56952728147189
 11
486.11557860849848
 21
803.24546072303041
  0
LINE
  8
_0-8_天板
  6
CONTINUOUS
 62
    4
 10
486.11557860849848
 20
803.24546072303041
 11
487.62533775800284
 21
800.96258734640707
  0
LINE
  8
_0-8_天板
  6
CONTINUOUS
 62
    4
 10
487.62533775800284
 20
800.96258734640707
 11
489.0050866544243
 21
798.6797139697835
  0
LINE
  8
_0-8_天板
  6
CONTINUOUS
 62
    4
 10
489.0050866544243
 20
798.6797139697835
 11
490.17254032745745
 21
796.39684059316027
  0
LINE
  8
_0-8_天板
  6
CONTINUOUS
 62
    4
 10
490.17254032745745
 20
796.39684059316027
 11
491.04541380679711
 21
794.11396721653693
  0
LINE
  8
_0-8_天板
  6
CONTINUOUS
 62
    4
 10
491.04541380679711
 20
794.11396721653693
 11
491.54142212213491
 21
791.83109383991359
  0
LINE
  8
_0-8_天板
  6
CONTINUOUS
 62
    4
 10
491.54142212213491
 20
791.83109383991359
 11
491.62400276976632
 21
790.50702728147189
  0
LINE
  8
_0-8_天板
  6
CONTINUOUS
 62
    4
 10
491.62400276976632
 20
790.50702728147189
 11
491.54142212213491
 21
789.18296072303041
  0
LINE
  8
_0-8_天板
  6
CONTINUOUS
 62
    4
 10
491.54142212213491
 20
789.18296072303041
 11
491.04541380679711
 21
786.90008734640707
  0
LINE
  8
_0-8_天板
  6
CONTINUOUS
 62
    4
 10
491.04541380679711
 20
786.90008734640707
 11
490.17254032745745
 21
784.6172139697835
  0
LINE
  8
_0-8_天板
  6
CONTINUOUS
 62
    4
 10
490.17254032745745
 20
784.6172139697835
 11
489.0050866544243
 21
782.33434059316027
  0
LINE
  8
_0-8_天板
  6
CONTINUOUS
 62
    4
 10
489.0050866544243
 20
782.33434059316027
 11
487.62533775800284
 21
780.05146721653693
  0
LINE
  8
_0-8_天板
  6
CONTINUOUS
 62
    4
 10
489.00508665442464
 20
782.33434059316027
 11
487.62533775800284
 21
780.05146721653693
  0
LINE
  8
_0-8_天板
  6
CONTINUOUS
 62
    4
 10
490.17254032745745
 20
784.6172139697835
 11
489.00508665442464
 21
782.33434059316027
  0
LINE
  8
_0-8_天板
  6
CONTINUOUS
 62
    4
 10
491.04541380679597
 20
786.90008734640707
 11
490.17254032745745
 21
784.6172139697835
  0
LINE
  8
_0-8_天板
  6
CONTINUOUS
 62
    4
 10
491.541422122134
 20
789.18296072303041
 11
491.04541380679597
 21
786.90008734640707
  0
LINE
  8
_0-8_天板
  6
CONTINUOUS
 62
    4
 10
491.62400276976632
 20
790.50702728147189
 11
491.541422122134
 21
789.18296072303041
  0
LINE
  8
_0-8_天板
  6
CONTINUOUS
 62
    4
 10
491.541422122134
 20
791.83109383991359
 11
491.62400276976632
 21
790.50702728147189
  0
LINE
  8
_0-8_天板
  6
CONTINUOUS
 62
    4
 10
491.04541380679597
 20
794.11396721653693
 11
491.541422122134
 21
791.83109383991359
  0
LINE
  8
_0-8_天板
  6
CONTINUOUS
 62
    4
 10
490.17254032745745
 20
796.39684059316027
 11
491.04541380679597
 21
794.11396721653693
  0
LINE
  8
_0-8_天板
  6
CONTINUOUS
 62
    4
 10
489.00508665442464
 20
798.6797139697835
 11
490.17254032745745
 21
796.39684059316027
  0
LINE
  8
_0-8_天板
  6
CONTINUOUS
 62
    4
 10
487.62533775800307
 20
800.96258734640707
 11
489.00508665442464
 21
798.6797139697835
  0
LINE
  8
_0-8_天板
  6
CONTINUOUS
 62
    4
 10
486.11557860849848
 20
803.24546072303041
 11
487.62533775800307
 21
800.96258734640707
  0
LINE
  8
_0-8_天板
  6
CONTINUOUS
 62
    4
 10
485.2127721609421
 20
804.56952728147189
 11
486.11557860849848
 21
803.24546072303041
  0
LINE
  8
_0-8_天板
  6
CONTINUOUS
 62
    3
 10
808.5
 20
804.56952728147189
 11
808.5
 21
779.56952728147189
  0
LINE
  8
_0-8_天板
  6
CONTINUOUS
 62
    4
 10
1192.9949133455752
 20
782.33434059316027
 11
1194.3746622419971
 21
780.05146721653693
  0
LINE
  8
_0-7_洗面ボウル
  6
CONTINUOUS
 62
    7
 10
701
 20
914.56952728147189
 11
981
 21
914.56952728147189
  0
LINE
  8
_0-0_
  6
DASHED2
 62
    4
 10
849.75324675324691
 20
663.73343151443054
 11
851.05194805194719
 21
664.12025921226404
  0
LINE
  8
_0-0_
  6
DASHED2
 62
    4
 10
848.24675324675331
 20
663.73343151443054
 11
849.00000000000068
 21
663.66902839693966
  0
LINE
  8
_0-0_
  6
DASHED2
 62
    4
 10
849.00000000000068
 20
663.66902839693966
 11
849.75324675324691
 21
663.73343151443054
  0
LINE
  8
_0-0_
  6
DASHED2
 62
    4
 10
829.64935064935139
 20
672.5370597228516
 11
830.9480519480528
 21
673.21779758161528
  0
LINE
  8
_0-0_
  6
DASHED2
 62
    4
 10
830.9480519480528
 20
673.21779758161528
 11
832.24675324675308
 21
673.60462527944878
  0
LINE
  8
_0-0_
  6
DASHED2
 62
    4
 10
832.24675324675308
 20
673.60462527944878
 11
832.99999999999931
 21
673.66902839693966
  0
LINE
  8
_0-0_
  6
DASHED2
 62
    4
 10
832.99999999999931
 20
673.66902839693966
 11
833.75324675324668
 21
673.60462527944878
  0
LINE
  8
_0-0_
  6
DASHED2
 62
    4
 10
833.75324675324668
 20
673.60462527944878
 11
835.0519480519481
 21
673.21779758161528
  0
LINE
  8
_0-0_
  6
DASHED2
 62
    4
 10
835.0519480519481
 20
673.21779758161528
 11
836.35064935064951
 21
672.5370597228516
  0
LINE
  8
_0-0_
  6
DASHED2
 62
    4
 10
836.35064935064951
 20
672.5370597228516
 11
837.64935064935093
 21
671.62658422737808
  0
LINE
  8
_0-0_
  6
DASHED2
 62
    4
 10
837.64935064935093
 20
671.62658422737808
 11
838.94805194805235
 21
670.55054361941552
  0
LINE
  8
_0-0_
  6
DASHED2
 62
    4
 10
838.94805194805235
 20
670.55054361941552
 11
840.24675324675376
 21
669.37311042318435
  0
LINE
  8
_0-0_
  6
DASHED2
 62
    4
 10
840.24675324675376
 20
669.37311042318435
 11
841.75324675324623
 21
667.96494637069508
  0
LINE
  8
_0-0_
  6
DASHED2
 62
    4
 10
841.75324675324623
 20
667.96494637069508
 11
843.05194805194764
 21
666.78751317446392
  0
LINE
  8
_0-0_
  6
DASHED2
 62
    4
 10
843.05194805194764
 20
666.78751317446392
 11
844.35064935064906
 21
665.71147256650124
  0
LINE
  8
_0-0_
  6
DASHED2
 62
    4
 10
844.35064935064906
 20
665.71147256650124
 11
845.64935064935048
 21
664.80099707102795
  0
LINE
  8
_0-0_
  6
DASHED2
 62
    4
 10
845.64935064935048
 20
664.80099707102795
 11
846.94805194805189
 21
664.12025921226404
  0
LINE
  8
_0-0_
  6
DASHED2
 62
    4
 10
846.94805194805189
 20
664.12025921226404
 11
848.24675324675331
 21
663.73343151443054
  0
LINE
  8
_0-0_
  6
DASHED2
 62
    4
 10
828.5
 20
671.73128890935709
 11
829.64935064935139
 21
672.5370597228516
  0
LINE
  8
_0-0_
  6
DASHED2
 62
    4
 10
851.05194805194719
 20
664.12025921226404
 11
852.3506493506486
 21
664.80099707102795
  0
LINE
  8
_0-0_
  6
DASHED2
 62
    4
 10
852.3506493506486
 20
664.80099707102795
 11
853.5
 21
665.60676788452246
  0
LINE
  8
_0-0_
  6
CONTINUOUS
 62
    4
 10
1244.8169932835442
 20
804.56952728147189
 11
1217.6365445579358
 21
804.56952728147189
  0
LINE
  8
_0-0_
  6
CONTINUOUS
 62
    4
 10
847.13282635303789
 20
839.3020805787122
 11
928.1263350808806
 21
934.20793426985619
  0
TEXT
  8
_0-0_
 62
    7
 10
1050.3979344990616
 20
854.20133517355895
 40
12.5
 41
1
 50
0
  1
スポンジパッキン
  0
LINE
  8
_0-0_
  6
CONTINUOUS
 62
    4
 10
887.97081047795563
 20
806.52009254117774
 11
1052.6568212073893
 21
842.26362356774075
  0
TEXT
  8
_0-0_
 62
    7
 10
1052.1781560613762
 20
836.6716635547084
 40
12.5
 41
1
 50
0
  1
マウンティングディスク
  0
LINE
  8
_0-0_
  6
CENTER1
 62
    4
 10
841
 20
962.54807380375723
 11
841
 21
630.75375318568649
  0
LINE
  8
_0-0_
  6
CONTINUOUS
 62
    4
 10
802.45303916867874
 20
805.4789153402396
 11
609.99006663455338
 21
714.94903118248453
  0
TEXT
  8
_0-0_
 62
    7
 10
522.54973832684027
 20
708.49755577163728
 40
12.5
 41
1
 50
0
  1
Оリング（黒）
  0
TEXT
  8
_0-0_
 62
    7
 10
1073.3784153729322
 20
656.98605550006732
 40
12.5
 41
1
 50
0
  1
三角パッキン
  0
TEXT
  8
_0-0_
 62
    7
 10
1025.9562728930941
 20
635.2254113059987
 40
12.5
 41
1
 50
0
  1
スリップパッキン
  0
LINE
  8
_0-0_
  6
CONTINUOUS
 62
    4
 10
845.17057712626387
 20
676.9591007653255
 11
1011.6127900841141
 21
616.26593061599737
  0
INSERT
  2
-000-_None_2_
  8
_0-0_
 10
813.17382243718452
 20
831.50757253254528
 41
0.1499999999999999
 42
0.1499999999999999
 50
227.96725797660207
  0
LINE
  8
_0-0_
  6
CONTINUOUS
 62
    4
 10
1244.8169932835442
 20
804.56952425201814
 11
1217.6365445579358
 21
804.56952425201814
  0
LINE
  8
_0-8_天板
  6
CONTINUOUS
 62
    3
 10
1196.7872278390584
 20
804.56952728147189
 11
873.5
 21
804.56952728147189
  0
LINE
  8
_0-8_天板
  6
CONTINUOUS
 62
    4
 10
1196.7872278390584
 20
804.56952728147189
 11
1196.0649826810126
 21
803.51027403471869
  0
LINE
  8
_0-8_天板
  6
CONTINUOUS
 62
    4
 10
491.59865872995237
 20
790.91338393446187
 11
505.25480207696296
 21
804.56952728147189
  0
LINE
  8
_0-8_天板
  6
CONTINUOUS
 62
    4
 10
487.58027892750942
 20
801.03713975574964
 11
491.11266645323189
 21
804.56952728147189
  0
LINE
  8
_0-8_天板
  6
CONTINUOUS
 62
    4
 10
1196.7872278390577
 20
804.56952728147189
 11
1195.8844213915015
 21
803.24546072303041
  0
LINE
  8
_0-8_天板
  6
CONTINUOUS
 62
    4
 10
1195.8844213915015
 20
803.24546072303041
 11
1194.3746622419969
 21
800.96258734640707
  0
LINE
  8
_0-8_天板
  6
CONTINUOUS
 62
    4
 10
1194.3746622419969
 20
800.96258734640707
 11
1192.9949133455752
 21
798.6797139697835
  0
LINE
  8
_0-8_天板
  6
CONTINUOUS
 62
    4
 10
1192.9949133455752
 20
798.6797139697835
 11
1191.8274596725425
 21
796.39684059316027
  0
LINE
  8
_0-8_天板
  6
CONTINUOUS
 62
    4
 10
1191.8274596725425
 20
796.39684059316027
 11
1190.954586193204
 21
794.11396721653693
  0
LINE
  8
_0-8_天板
  6
CONTINUOUS
 62
    4
 10
1190.954586193204
 20
794.11396721653693
 11
1190.4585778778659
 21
791.83109383991359
  0
LINE
  8
_0-8_天板
  6
CONTINUOUS
 62
    4
 10
1190.4585778778659
 20
791.83109383991359
 11
1190.3759972302336
 21
790.50702728147189
  0
LINE
  8
_0-8_天板
  6
CONTINUOUS
 62
    4
 10
1190.3759972302336
 20
790.50702728147189
 11
1190.4585778778659
 21
789.18296072303041
  0
LINE
  8
_0-8_天板
  6
CONTINUOUS
 62
    4
 10
1190.4585778778659
 20
789.18296072303041
 11
1190.954586193204
 21
786.90008734640707
  0
LINE
  8
_0-8_天板
  6
CONTINUOUS
 62
    4
 10
1190.954586193204
 20
786.90008734640707
 11
1191.8274596725425
 21
784.6172139697835
  0
LINE
  8
_0-8_天板
  6
CONTINUOUS
 62
    4
 10
1191.8274596725425
 20
784.6172139697835
 11
1192.9949133455752
 21
782.33434059316027
  0
LINE
  8
_0-8_天板
  6
CONTINUOUS
 62
    4
 10
1197.6900342866142
 20
749.64359383991359
 11
1197.6395324700076
 21
749.56952728147189
  0
LINE
  8
_0-8_天板
  6
CONTINUOUS
 62
    4
 10
1192.9949133455756
 20
782.33434059316027
 11
1194.3746622419971
 21
780.05146721653693
  0
LINE
  8
_0-8_天板
  6
CONTINUOUS
 62
    4
 10
1191.8274596725425
 20
784.6172139697835
 11
1192.9949133455756
 21
782.33434059316027
  0
LINE
  8
_0-8_天板
  6
CONTINUOUS
 62
    4
 10
1190.9545861932028
 20
786.90008734640707
 11
1191.8274596725425
 21
784.6172139697835
  0
LINE
  8
_0-8_天板
  6
CONTINUOUS
 62
    4
 10
1190.458577877865
 20
789.18296072303041
 11
1190.9545861932028
 21
786.90008734640707
  0
LINE
  8
_0-8_天板
  6
CONTINUOUS
 62
    4
 10
1190.3759972302336
 20
790.50702728147189
 11
1190.458577877865
 21
789.18296072303041
  0
LINE
  8
_0-8_天板
  6
CONTINUOUS
 62
    4
 10
1190.458577877865
 20
791.83109383991359
 11
1190.3759972302336
 21
790.50702728147189
  0
LINE
  8
_0-8_天板
  6
CONTINUOUS
 62
    4
 10
1190.9545861932028
 20
794.11396721653693
 11
1190.458577877865
 21
791.83109383991359
  0
LINE
  8
_0-8_天板
  6
CONTINUOUS
 62
    4
 10
1191.8274596725425
 20
796.39684059316027
 11
1190.9545861932028
 21
794.11396721653693
  0
LINE
  8
_0-8_天板
  6
CONTINUOUS
 62
    4
 10
1192.9949133455756
 20
798.6797139697835
 11
1191.8274596725425
 21
796.39684059316027
  0
LINE
  8
_0-8_天板
  6
CONTINUOUS
 62
    4
 10
1194.3746622419971
 20
800.96258734640707
 11
1192.9949133455756
 21
798.6797139697835
  0
LINE
  8
_0-8_天板
  6
CONTINUOUS
 62
    4
 10
1195.8844213915015
 20
803.24546072303041
 11
1194.3746622419971
 21
800.96258734640707
  0
LINE
  8
_0-8_天板
  6
CONTINUOUS
 62
    4
 10
1196.7872278390577
 20
804.56952728147189
 11
1195.8844213915015
 21
803.24546072303041
  0
LINE
  8
_0-8_天板
  6
CONTINUOUS
 62
    4
 10
873.50000000000113
 20
790.97706336377359
 11
887.09246391769715
 21
804.56952728147109
  0
TEXT
  8
_0-0_
 62
    7
 10
1050.5598824958631
 20
875.40308005610677
 40
12.5
 41
1
 50
0
  1
排水目皿
  0
LINE
  8
_0-7_洗面ボウル
  6
CONTINUOUS
 62
    7
 10
981
 20
914.56952728147189
 11
701
 21
914.56952728147189
  0
LINE
  8
_0-7_洗面ボウル
  6
CONTINUOUS
 62
    7
 10
878.5
 20
814.56952728147189
 11
803.5
 21
814.56952728147189
  0
LINE
  8
_0-7_洗面ボウル
  6
DASHED3
 62
    4
 10
714
 20
914.56952728147189
 11
814.38659793359624
 21
819.56952728147189
  0
LINE
  8
_0-7_洗面ボウル
  6
DASHED3
 62
    4
 10
968
 20
914.56952728147189
 11
867.61340206640352
 21
819.56952728147189
  0
LINE
  8
_0-7_洗面ボウル
  6
DASHED3
 62
    4
 10
867.61340206640352
 20
819.56952728147189
 11
867.61340206640352
 21
814.56952728147189
  0
LINE
  8
_0-7_洗面ボウル
  6
DASHED3
 62
    4
 10
814.38659793359624
 20
819.56952728147189
 11
814.38659793359624
 21
814.56952728147189
  0
LINE
  8
_0-7_洗面ボウル
  6
CONTINUOUS
 62
    7
 10
879.12529710058447
 20
818.16127185470816
 11
981
 21
914.56952728147189
  0
LINE
  8
_0-7_洗面ボウル
  6
CONTINUOUS
 62
    7
 10
878.5
 20
816.7086218836763
 11
878.5
 21
814.56952728147189
  0
ARC
  8
_0-7_洗面ボウル
  6
CONTINUOUS
 62
    7
 10
880.5
 20
816.7086218836763
 40
2
 50
133.42081710870411
 51
180.00000000000005
  0
LINE
  8
_0-7_洗面ボウル
  6
CONTINUOUS
 62
    7
 10
802.87470289941541
 20
818.16127185470816
 11
701
 21
914.56952728147189
  0
LINE
  8
_0-7_洗面ボウル
  6
CONTINUOUS
 62
    7
 10
803.5
 20
816.7086218836763
 11
803.5
 21
814.56952728147189
  0
ARC
  8
_0-7_洗面ボウル
  6
CONTINUOUS
 62
    7
 10
801.5
 20
816.7086218836763
 40
2
 50
0
 51
46.5791828912959
  0
LINE
  8
_0-1_マウンティングディスク
  6
CONTINUOUS
 62
    7
 10
840.99999999999954
 20
804.56952728147189
 11
878.29999999999949
 21
804.56952728147189
  0
LINE
  8
_0-1_マウンティングディスク
  6
CONTINUOUS
 62
    7
 10
791.99999999999931
 20
805.569527281472
 11
791.99999999999931
 21
804.56952728147189
  0
LINE
  8
_0-1_マウンティングディスク
  6
CONTINUOUS
 62
    7
 10
794.96287566446937
 20
808.569527281472
 11
797.49999999999931
 21
808.569527281472
  0
ARC
  8
_0-1_マウンティングディスク
  6
CONTINUOUS
 62
    7
 10
797.49999999999931
 20
814.56952728147189
 40
6.0000000000000008
 50
270
 51
0
  0
ARC
  8
_0-1_マウンティングディスク
  6
CONTINUOUS
 62
    7
 10
794.99999999999931
 20
805.569527281472
 40
3.0000000000000004
 50
90
 51
180
  0
LINE
  8
_0-1_マウンティングディスク
  6
CONTINUOUS
 62
    7
 10
791.99999999999931
 20
805.569527281472
 11
791.99999999999931
 21
804.56952728147189
  0
LINE
  8
_0-1_マウンティングディスク
  6
CONTINUOUS
 62
    7
 10
890.00000000000045
 20
805.569527281472
 11
890.00000000000045
 21
804.56952728147189
  0
LINE
  8
_0-1_マウンティングディスク
  6
CONTINUOUS
 62
    7
 10
887.03712433552937
 20
808.569527281472
 11
884.49999999999931
 21
808.569527281472
  0
ARC
  8
_0-1_マウンティングディスク
  6
CONTINUOUS
 62
    7
 10
884.49999999999931
 20
814.56952728147189
 40
6.0000000000000008
 50
180
 51
270
  0
ARC
  8
_0-1_マウンティングディスク
  6
CONTINUOUS
 62
    7
 10
886.99999999999931
 20
805.569527281472
 40
3.0000000000000004
 50
0
 51
90
  0
LINE
  8
_0-1_マウンティングディスク
  6
CONTINUOUS
 62
    7
 10
791.99999999999931
 20
806.069527281472
 11
792.04196010844941
 21
806.069527281472
  0
LINE
  8
_0-1_マウンティングディスク
  6
CONTINUOUS
 62
    7
 10
881.3999999999994
 20
804.56952728147189
 11
889.03712433552937
 21
804.56952728147189
  0
LINE
  8
_0-1_マウンティングディスク
  6
DASHED1
 62
    4
 10
822.99999999999954
 20
812.56952728147291
 11
809.14359353944837
 21
804.56952728147189
  0
LINE
  8
_0-1_マウンティングディスク
  6
DASHED1
 62
    4
 10
822.99999999999954
 20
812.56952728147211
 11
822.99999999999954
 21
814.56952728147189
  0
LINE
  8
_0-1_マウンティングディスク
  6
DASHED1
 62
    4
 10
858.99999999999931
 20
812.56952728147291
 11
858.99999999999931
 21
814.56952728147189
  0
LINE
  8
_0-1_マウンティングディスク
  6
DASHED1
 62
    4
 10
858.99999999999931
 20
812.56952728147291
 11
872.85640646055139
 21
804.56952728147189
  0
LINE
  8
_0-1_マウンティングディスク
  6
CONTINUOUS
 62
    7
 10
803.49999999999943
 20
814.56952728147189
 11
878.49999999999954
 21
814.56952728147189
  0
LINE
  8
_0-1_マウンティングディスク
  6
CONTINUOUS
 62
    7
 10
791.99999999999931
 20
804.56952728147189
 11
890.00000000000045
 21
804.56952728147189
  0
LINE
  8
_0-1_マウンティングディスク
  6
DASHED1
 62
    4
 10
815.99999999999954
 20
813.069527281472
 11
813.29999999999938
 21
813.069527281472
  0
LINE
  8
_0-1_マウンティングディスク
  6
DASHED1
 62
    4
 10
865.99999999999954
 20
813.069527281472
 11
868.69999999999936
 21
813.069527281472
  0
LINE
  8
_0-1_マウンティングディスク
  6
DASHED1
 62
    4
 10
800.79999999999938
 20
806.069527281472
 11
803.49999999999943
 21
806.069527281472
  0
LINE
  8
_0-1_マウンティングディスク
  6
DASHED1
 62
    4
 10
881.19999999999936
 20
806.069527281472
 11
878.49999999999954
 21
806.069527281472
  0
LINE
  8
_0-1_マウンティングディスク
  6
DASHED1
 62
    4
 10
813.29999999999938
 20
813.069527281472
 11
813.29999999999938
 21
814.56952728147189
  0
LINE
  8
_0-1_マウンティングディスク
  6
DASHED1
 62
    4
 10
815.99999999999954
 20
814.56952728147189
 11
815.99999999999954
 21
813.069527281472
  0
LINE
  8
_0-1_マウンティングディスク
  6
DASHED1
 62
    4
 10
865.99999999999954
 20
814.56952728147189
 11
865.99999999999954
 21
813.069527281472
  0
LINE
  8
_0-1_マウンティングディスク
  6
DASHED1
 62
    4
 10
868.69999999999936
 20
813.069527281472
 11
868.69999999999936
 21
814.56952728147189
  0
SOLID
  8
_0-1_マウンティングディスク
  6
CONTINUOUS
 62
    4
 10
865.99999999999954
 20
814.56952728147189
 11
865.99999999999954
 21
813.069527281472
 12
868.69999999999936
 22
814.56952728147189
 13
868.69999999999936
 23
813.069527281472
  0
SOLID
  8
_0-1_マウンティングディスク
  6
CONTINUOUS
 62
    4
 10
813.29999999999938
 20
814.56952728147189
 11
813.29999999999938
 21
813.069527281472
 12
815.99999999999954
 22
814.56952728147189
 13
815.99999999999954
 23
813.069527281472
  0
LINE
  8
_0-1_マウンティングディスク
  6
DASHED1
 62
    4
 10
800.79999999999938
 20
804.56952728147189
 11
800.79999999999938
 21
806.069527281472
  0
LINE
  8
_0-1_マウンティングディスク
  6
DASHED1
 62
    4
 10
803.49999999999943
 20
804.56952728147189
 11
803.49999999999943
 21
806.069527281472
  0
LINE
  8
_0-1_マウンティングディスク
  6
DASHED1
 62
    4
 10
878.49999999999954
 20
804.56952728147189
 11
878.49999999999954
 21
806.069527281472
  0
LINE
  8
_0-1_マウンティングディスク
  6
DASHED1
 62
    4
 10
881.19999999999936
 20
804.56952728147189
 11
881.19999999999936
 21
806.069527281472
  0
SOLID
  8
_0-1_マウンティングディスク
  6
CONTINUOUS
 62
    4
 10
800.79999999999938
 20
806.069527281472
 11
800.79999999999938
 21
804.56952728147189
 12
803.49999999999943
 22
806.069527281472
 13
803.49999999999943
 23
804.56952728147189
  0
SOLID
  8
_0-1_マウンティングディスク
  6
CONTINUOUS
 62
    4
 10
878.49999999999954
 20
806.069527281472
 11
878.49999999999954
 21
804.56952728147189
 12
881.3999999999994
 22
806.069527281472
 13
881.3999999999994
 23
804.56952728147189
  0
LINE
  8
_0-1_マウンティングディスク
  6
CONTINUOUS
 62
    4
 10
821.75419323784512
 20
811.8502604119883
 11
822.99999999999772
 21
813.09606717414067
  0
LINE
  8
_0-1_マウンティングディスク
  6
CONTINUOUS
 62
    4
 10
820.08116063037186
 20
810.88433458569807
 11
822.9999999999984
 21
813.8031739553246
  0
LINE
  8
_0-1_マウンティングディスク
  6
CONTINUOUS
 62
    4
 10
818.40812802288974
 20
809.91840875940818
 11
822.99999999999795
 21
814.51028073651639
  0
LINE
  8
_0-1_マウンティングディスク
  6
CONTINUOUS
 62
    4
 10
816.73509541541875
 20
808.9524829331201
 11
822.35213976377281
 21
814.56952728147393
  0
LINE
  8
_0-1_マウンティングディスク
  6
CONTINUOUS
 62
    4
 10
815.06206280794458
 20
807.98655710682885
 11
821.64503298258841
 21
814.56952728147268
  0
LINE
  8
_0-1_マウンティングディスク
  6
CONTINUOUS
 62
    4
 10
813.38903020045893
 20
807.02063128053544
 11
820.93792620139583
 21
814.56952728147223
  0
LINE
  8
_0-1_マウンティングディスク
  6
CONTINUOUS
 62
    4
 10
811.71599759299147
 20
806.054705454251
 11
820.23081942021349
 21
814.56952728147291
  0
LINE
  8
_0-1_マウンティングディスク
  6
CONTINUOUS
 62
    4
 10
810.04296498550297
 20
805.08877962795463
 11
819.52371263902136
 21
814.56952728147291
  0
LINE
  8
_0-1_マウンティングディスク
  6
CONTINUOUS
 62
    4
 10
808.81660585783652
 20
804.56952728147109
 11
818.81660585783629
 21
814.56952728147098
  0
LINE
  8
_0-1_マウンティングディスク
  6
CONTINUOUS
 62
    4
 10
808.10949907665451
 20
804.56952728147223
 11
818.10949907665417
 21
814.56952728147177
  0
LINE
  8
_0-1_マウンティングディスク
  6
CONTINUOUS
 62
    4
 10
807.40239229546227
 20
804.56952728147211
 11
815.90239229546114
 21
813.06952728147086
  0
LINE
  8
_0-1_マウンティングディスク
  6
CONTINUOUS
 62
    4
 10
816.00000000000045
 20
813.16713498601041
 11
817.40239229546205
 21
814.56952728147177
  0
LINE
  8
_0-1_マウンティングディスク
  6
CONTINUOUS
 62
    4
 10
806.69528551428038
 20
804.56952728147336
 11
815.19528551427902
 21
813.06952728147177
  0
LINE
  8
_0-1_マウンティングディスク
  6
CONTINUOUS
 62
    4
 10
815.99999999999931
 20
813.87424176719218
 11
816.6952855142797
 21
814.56952728147257
  0
LINE
  8
_0-1_マウンティングディスク
  6
CONTINUOUS
 62
    4
 10
805.98817873308803
 20
804.56952728147302
 11
814.48817873308701
 21
813.06952728147189
  0
LINE
  8
_0-1_マウンティングディスク
  6
CONTINUOUS
 62
    4
 10
805.28107195190341
 20
804.5695272814712
 11
813.78107195190216
 21
813.06952728147018
  0
LINE
  8
_0-1_マウンティングディスク
  6
CONTINUOUS
 62
    4
 10
804.57396517072174
 20
804.5695272814728
 11
813.30000000000006
 21
813.29556211075123
  0
LINE
  8
_0-1_マウンティングディスク
  6
CONTINUOUS
 62
    4
 10
803.86685838952905
 20
804.56952728147223
 11
813.29999999999972
 21
814.0026688919429
  0
LINE
  8
_0-1_マウンティングディスク
  6
CONTINUOUS
 62
    4
 10
803.15975160834682
 20
804.56952728147302
 11
813.1597516083467
 21
814.5695272814728
  0
LINE
  8
_0-1_マウンティングディスク
  6
CONTINUOUS
 62
    4
 10
802.45264482716311
 20
804.56952728147234
 11
812.45264482716186
 21
814.5695272814712
  0
LINE
  8
_0-1_マウンティングディスク
  6
CONTINUOUS
 62
    4
 10
801.74553804597007
 20
804.56952728147143
 11
811.74553804596973
 21
814.56952728147109
  0
LINE
  8
_0-1_マウンティングディスク
  6
CONTINUOUS
 62
    4
 10
801.03843126478932
 20
804.56952728147348
 11
811.03843126478807
 21
814.56952728147257
  0
LINE
  8
_0-1_マウンティングディスク
  6
CONTINUOUS
 62
    4
 10
800.33132448359594
 20
804.56952728147234
 11
810.3313244835956
 21
814.56952728147189
  0
LINE
  8
_0-1_マウンティングディスク
  6
CONTINUOUS
 62
    4
 10
799.6242177024111
 20
804.56952728147052
 11
809.62421770241314
 21
814.5695272814728
  0
LINE
  8
_0-1_マウンティングディスク
  6
CONTINUOUS
 62
    4
 10
798.91711092123034
 20
804.56952728147291
 11
808.91711092122955
 21
814.56952728147211
  0
LINE
  8
_0-1_マウンティングディスク
  6
CONTINUOUS
 62
    4
 10
798.21000414003685
 20
804.56952728147155
 11
808.2100041400364
 21
814.56952728147109
  0
LINE
  8
_0-1_マウンティングディスク
  6
CONTINUOUS
 62
    4
 10
797.50289735885644
 20
804.56952728147416
 11
807.50289735885564
 21
814.56952728147336
  0
LINE
  8
_0-1_マウンティングディスク
  6
CONTINUOUS
 62
    4
 10
796.79579057766272
 20
804.56952728147257
 11
806.79579057766204
 21
814.56952728147189
  0
LINE
  8
_0-1_マウンティングディスク
  6
CONTINUOUS
 62
    4
 10
796.08868379647776
 20
804.56952728147064
 11
806.08868379647742
 21
814.56952728147007
  0
LINE
  8
_0-1_マウンティングディスク
  6
CONTINUOUS
 62
    4
 10
795.3815770152978
 20
804.56952728147371
 11
799.86910598945291
 21
809.05705625562882
  0
LINE
  8
_0-1_マウンティングディスク
  6
CONTINUOUS
 62
    4
 10
803.01247102583795
 20
812.20042129201397
 11
805.38157701529712
 21
814.56952728147302
  0
LINE
  8
_0-1_マウンティングディスク
  6
CONTINUOUS
 62
    4
 10
794.67447023410363
 20
804.56952728147166
 11
798.82189977432938
 21
808.71695682169752
  0
LINE
  8
_0-1_マウンティングディスク
  6
CONTINUOUS
 62
    4
 10
803.35257045976925
 20
813.24762750713739
 11
804.67447023410295
 21
814.56952728147098
  0
LINE
  8
_0-1_マウンティングディスク
  6
CONTINUOUS
 62
    4
 10
793.96736345292151
 20
804.56952728147257
 11
797.98717440042742
 21
808.58933822897847
  0
LINE
  8
_0-1_マウンティングディスク
  6
CONTINUOUS
 62
    4
 10
803.48018905248841
 20
814.08235288103946
 11
803.96736345292333
 21
814.56952728147439
  0
LINE
  8
_0-1_マウンティングディスク
  6
CONTINUOUS
 62
    4
 10
793.26025667173905
 20
804.56952728147302
 11
797.26025667173837
 21
808.56952728147257
  0
LINE
  8
_0-1_マウンティングディスク
  6
CONTINUOUS
 62
    4
 10
792.55314989054454
 20
804.56952728147075
 11
796.55314989054625
 21
808.56952728147257
  0
LINE
  8
_0-1_マウンティングディスク
  6
CONTINUOUS
 62
    4
 10
791.99999999999715
 20
804.7234841721065
 11
795.84604310936401
 21
808.56952728147314
  0
LINE
  8
_0-1_マウンティングディスク
  6
CONTINUOUS
 62
    4
 10
792.00000000000068
 20
805.43059095330204
 11
795.13893632816905
 21
808.56952728147052
  0
LINE
  8
_0-1_マウンティングディスク
  6
CONTINUOUS
 62
    4
 10
792.06829118339135
 20
806.20598891787562
 11
794.36353836360274
 21
808.50123609808701
  0
LINE
  8
_0-1_マウンティングディスク
  6
CONTINUOUS
 62
    4
 10
889.42677891310313
 20
804.56952728147211
 11
889.99999999999954
 21
805.14274836836875
  0
LINE
  8
_0-1_マウンティングディスク
  6
CONTINUOUS
 62
    4
 10
888.71967213192078
 20
804.56952728147291
 11
889.98797791288438
 21
805.83783306243651
  0
LINE
  8
_0-1_マウンティングディスク
  6
CONTINUOUS
 62
    4
 10
888.01256535072639
 20
804.56952728147075
 11
889.87373954963345
 21
806.43070148037782
  0
LINE
  8
_0-1_マウンティングディスク
  6
CONTINUOUS
 62
    4
 10
887.30545856954404
 20
804.5695272814712
 11
889.67113075147267
 21
806.93519946340006
  0
LINE
  8
_0-1_マウンティングディスク
  6
CONTINUOUS
 62
    4
 10
886.59835178835237
 20
804.56952728147189
 11
889.39929345858786
 21
807.37046895170726
  0
LINE
  8
_0-1_マウンティングディスク
  6
CONTINUOUS
 62
    4
 10
885.8912450071698
 20
804.56952728147223
 11
889.06624578173818
 21
807.74452805604062
  0
LINE
  8
_0-1_マウンティングディスク
  6
CONTINUOUS
 62
    4
 10
885.18413822598745
 20
804.56952728147302
 11
888.673797335274
 21
808.05918639075946
  0
LINE
  8
_0-1_マウンティングディスク
  6
CONTINUOUS
 62
    4
 10
884.47703144479373
 20
804.56952728147143
 11
888.21845049278294
 21
808.31094632946064
  0
LINE
  8
_0-1_マウンティングディスク
  6
CONTINUOUS
 62
    4
 10
883.7699246636107
 20
804.56952728147143
 11
887.68959276446935
 21
808.48919538232996
  0
LINE
  8
_0-1_マウンティングディスク
  6
CONTINUOUS
 62
    4
 10
883.06281788242858
 20
804.56952728147223
 11
887.06217355475132
 21
808.56888295379496
  0
LINE
  8
_0-1_マウンティングディスク
  6
CONTINUOUS
 62
    4
 10
882.35571110123646
 20
804.56952728147223
 11
886.35571110123555
 21
808.56952728147132
  0
LINE
  8
_0-1_マウンティングディスク
  6
CONTINUOUS
 62
    4
 10
881.64860432005434
 20
804.56952728147325
 11
885.64860432005502
 21
808.56952728147393
  0
LINE
  8
_0-1_マウンティングディスク
  6
CONTINUOUS
 62
    4
 10
880.94149753886131
 20
804.56952728147211
 11
884.9414975388604
 21
808.56952728147132
  0
LINE
  8
_0-1_マウンティングディスク
  6
CONTINUOUS
 62
    4
 10
880.2343907576776
 20
804.56952728147155
 11
884.24002562655527
 21
808.57516215034934
  0
LINE
  8
_0-1_マウンティングディスク
  6
CONTINUOUS
 62
    4
 10
879.52728397649548
 20
804.56952728147234
 11
883.59580583727688
 21
808.63804914225397
  0
LINE
  8
_0-1_マウンティングディスク
  6
CONTINUOUS
 62
    4
 10
878.82017719530244
 20
804.56952728147155
 11
883.00851123296138
 21
808.75786131913059
  0
LINE
  8
_0-1_マウンティングディスク
  6
CONTINUOUS
 62
    4
 10
878.11307041412101
 20
804.56952728147336
 11
882.46772933209354
 21
808.92418619944578
  0
LINE
  8
_0-1_マウンティングディスク
  6
CONTINUOUS
 62
    4
 10
877.40596363292843
 20
804.5695272814728
 11
881.96690055273916
 21
809.13046420128353
  0
LINE
  8
_0-1_マウンティングディスク
  6
CONTINUOUS
 62
    4
 10
876.69885685174426
 20
804.56952728147166
 11
881.50171477843809
 21
809.37238520816549
  0
LINE
  8
_0-1_マウンティングディスク
  6
CONTINUOUS
 62
    4
 10
875.99175007056214
 20
804.56952728147257
 11
881.06931300033988
 21
809.64709021125031
  0
LINE
  8
_0-1_マウンティングディスク
  6
CONTINUOUS
 62
    4
 10
875.28464328936979
 20
804.56952728147223
 11
880.66785910760995
 21
809.9527430997125
  0
LINE
  8
_0-1_マウンティングディスク
  6
CONTINUOUS
 62
    4
 10
874.57753650818517
 20
804.56952728147075
 11
880.29630469827293
 21
810.28829547155851
  0
LINE
  8
_0-1_マウンティングディスク
  6
CONTINUOUS
 62
    4
 10
873.87042972699828
 20
804.5695272814712
 11
879.95426812336131
 21
810.65336567783447
  0
LINE
  8
_0-1_マウンティングディスク
  6
CONTINUOUS
 62
    4
 10
873.16332294581116
 20
804.56952728147177
 11
879.64199279707895
 21
811.04819713273968
  0
LINE
  8
_0-1_マウンティングディスク
  6
CONTINUOUS
 62
    4
 10
872.60269597928436
 20
804.71600709612789
 11
879.36037364350409
 21
811.47368476034785
  0
LINE
  8
_0-1_マウンティングディスク
  6
CONTINUOUS
 62
    4
 10
872.15440824319671
 20
804.97482614123259
 11
879.11105868400068
 21
811.93147658203656
  0
LINE
  8
_0-1_マウンティングディスク
  6
CONTINUOUS
 62
    4
 10
871.70612050711451
 20
805.23364518633343
 11
878.8966544530383
 21
812.42417913225722
  0
LINE
  8
_0-1_マウンティングディスク
  6
CONTINUOUS
 62
    4
 10
871.257832771033
 20
805.49246423143495
 11
878.72110149890954
 21
812.95573295931149
  0
LINE
  8
_0-1_マウンティングディスク
  6
CONTINUOUS
 62
    4
 10
870.80954503494558
 20
805.75128327653965
 11
878.59036748102948
 21
813.53210572262355
  0
LINE
  8
_0-1_マウンティングディスク
  6
CONTINUOUS
 62
    4
 10
870.36125729886407
 20
806.01010232164105
 11
878.51381123187888
 21
814.16265625465598
  0
LINE
  8
_0-1_マウンティングディスク
  6
CONTINUOUS
 62
    4
 10
869.91296956277642
 20
806.26892136674564
 11
878.21357547750221
 21
814.5695272814712
  0
LINE
  8
_0-1_マウンティングディスク
  6
CONTINUOUS
 62
    4
 10
869.46468182669445
 20
806.5277404118467
 11
877.50646869632009
 21
814.56952728147223
  0
LINE
  8
_0-1_マウンティングディスク
  6
CONTINUOUS
 62
    4
 10
869.01639409061272
 20
806.78655945694777
 11
876.79936191513775
 21
814.56952728147302
  0
LINE
  8
_0-1_マウンティングディスク
  6
CONTINUOUS
 62
    4
 10
868.56810635452529
 20
807.04537850205281
 11
876.09225513394358
 21
814.56952728147098
  0
LINE
  8
_0-1_マウンティングディスク
  6
CONTINUOUS
 62
    4
 10
868.11981861844333
 20
807.30419754715364
 11
875.38514835276373
 21
814.56952728147405
  0
LINE
  8
_0-1_マウンティングディスク
  6
CONTINUOUS
 62
    4
 10
867.67153088235613
 20
807.56301659225869
 11
874.67804157156979
 21
814.56952728147223
  0
LINE
  8
_0-1_マウンティングディスク
  6
CONTINUOUS
 62
    4
 10
867.22324314627417
 20
807.82183563735964
 11
873.97093479038699
 21
814.56952728147257
  0
LINE
  8
_0-1_マウンティングディスク
  6
CONTINUOUS
 62
    4
 10
866.77495541019243
 20
808.08065468246093
 11
873.26382800920487
 21
814.56952728147336
  0
LINE
  8
_0-1_マウンティングディスク
  6
CONTINUOUS
 62
    4
 10
866.32666767410501
 20
808.33947372756551
 11
872.55672122801115
 21
814.56952728147177
  0
LINE
  8
_0-1_マウンティングディスク
  6
CONTINUOUS
 62
    4
 10
865.87837993802281
 20
808.59829277266658
 11
871.84961444682812
 21
814.56952728147189
  0
LINE
  8
_0-1_マウンティングディスク
  6
CONTINUOUS
 62
    4
 10
865.43009220194107
 20
808.85711181776775
 11
871.142507665646
 21
814.5695272814728
  0
LINE
  8
_0-1_マウンティングディスク
  6
CONTINUOUS
 62
    4
 10
864.98180446585411
 20
809.1159308628728
 11
870.43540088445251
 21
814.56952728147143
  0
LINE
  8
_0-1_マウンティングディスク
  6
CONTINUOUS
 62
    4
 10
864.53351672977191
 20
809.37474990797386
 11
869.72829410327199
 21
814.56952728147382
  0
LINE
  8
_0-1_マウンティングディスク
  6
CONTINUOUS
 62
    4
 10
864.08522899368449
 20
809.63356895307845
 11
869.0211873220785
 21
814.56952728147268
  0
LINE
  8
_0-1_マウンティングディスク
  6
CONTINUOUS
 62
    4
 10
863.63694125760275
 20
809.89238799817962
 11
868.31408054089524
 21
814.56952728147223
  0
LINE
  8
_0-1_マウンティングディスク
  6
CONTINUOUS
 62
    4
 10
863.18865352152056
 20
810.1512070432808
 11
867.60697375971312
 21
814.56952728147302
  0
LINE
  8
_0-1_マウンティングディスク
  6
CONTINUOUS
 62
    4
 10
862.74036578543359
 20
810.41002608838584
 11
866.89986697852009
 21
814.56952728147223
  0
LINE
  8
_0-1_マウンティングディスク
  6
CONTINUOUS
 62
    4
 10
862.29207804935163
 20
810.66884513348691
 11
866.19276019733888
 21
814.56952728147416
  0
LINE
  8
_0-1_マウンティングディスク
  6
CONTINUOUS
 62
    4
 10
861.84379031326398
 20
810.92766417859149
 11
865.4856534161463
 21
814.56952728147348
  0
LINE
  8
_0-1_マウンティングディスク
  6
CONTINUOUS
 62
    4
 10
861.39550257718246
 20
811.18648322369278
 11
864.77854663496236
 21
814.56952728147268
  0
LINE
  8
_0-1_マウンティングディスク
  6
CONTINUOUS
 62
    4
 10
860.94721484110027
 20
811.44530226879373
 11
864.07143985378024
 21
814.56952728147348
  0
LINE
  8
_0-1_マウンティングディスク
  6
CONTINUOUS
 62
    4
 10
860.49892710501262
 20
811.70412131389832
 11
863.36433307258766
 21
814.56952728147302
  0
LINE
  8
_0-1_マウンティングディスク
  6
CONTINUOUS
 62
    4
 10
860.05063936893134
 20
811.96294035899973
 11
862.65722629140327
 21
814.56952728147189
  0
LINE
  8
_0-1_マウンティングディスク
  6
CONTINUOUS
 62
    4
 10
859.60235163284892
 20
812.22175940410056
 11
861.95011951022138
 21
814.5695272814728
  0
LINE
  8
_0-1_マウンティングディスク
  6
CONTINUOUS
 62
    4
 10
859.15406389676218
 20
812.48057844920595
 11
861.24301272902926
 21
814.56952728147302
  0
LINE
  8
_0-1_マウンティングディスク
  6
CONTINUOUS
 62
    4
 10
858.99999999999772
 20
813.03362133362452
 11
860.53590594784714
 21
814.56952728147393
  0
LINE
  8
_0-1_マウンティングディスク
  6
CONTINUOUS
 62
    4
 10
858.99999999999749
 20
813.7407281148163
 11
859.82879916665524
 21
814.56952728147393
  0
LINE
  8
_0-1_マウンティングディスク
  6
CONTINUOUS
 62
    4
 10
858.99999999999909
 20
814.44783489600081
 11
859.12169238547039
 21
814.56952728147223
  0
LINE
  8
_0-2_目皿
  6
DASHED3
 62
    7
 10
869.40435819056847
 20
821.55813417463991
 11
868.83269029744997
 21
821.0290211524873
  0
LINE
  8
_0-2_目皿
  6
DASHED3
 62
    7
 10
868.83269029744997
 20
821.0290211524873
 11
868.18437387231733
 21
820.54424650056535
  0
LINE
  8
_0-2_目皿
  6
DASHED1
 62
    4
 10
825.85000000000013
 20
803.9996910937566
 11
856.14999999999986
 21
803.9996910937566
  0
LINE
  8
_0-2_目皿
  6
DASHED1
 62
    4
 10
856.90000000000009
 20
804.74969109375638
 11
825.0999999999999
 21
804.74969109375638
  0
LINE
  8
_0-2_目皿
  6
CONTINUOUS
 62
    7
 10
825.85000000000013
 20
803.9996910937566
 11
825.0999999999999
 21
804.7496910937566
  0
LINE
  8
_0-2_目皿
  6
CONTINUOUS
 62
    7
 10
856.14999999999986
 20
803.9996910937566
 11
856.90000000000009
 21
804.7496910937566
  0
ARC
  8
_0-2_目皿
  6
CONTINUOUS
 62
    7
 10
814.650000000001
 20
821.26197313542354
 40
0.4999999999995
 50
77.00000000000098
 51
179.99999999998402
  0
ARC
  8
_0-2_目皿
  6
CONTINUOUS
 62
    7
 10
814.650000000001
 20
821.0567123138644
 40
0.4999999999995
 50
179.99999999998701
 51
256.99999999999698
  0
LINE
  8
_0-2_目皿
  6
CONTINUOUS
 62
    7
 10
814.14999999999986
 20
821.0567123138644
 11
814.14999999999986
 21
821.26197313542354
  0
LINE
  8
_0-2_目皿
  6
CONTINUOUS
 62
    7
 10
814.53752447282795
 20
820.569527281472
 11
819.4156301833118
 21
818.913309728753
  0
ARC
  8
_0-2_目皿
  6
CONTINUOUS
 62
    7
 10
817.80815106497493
 20
814.17875474606307
 40
4.9999999999995008
 50
12.250000000000001
 51
71.246589897256001
  0
LINE
  8
_0-2_目皿
  6
CONTINUOUS
 62
    7
 10
814.76247552717245
 20
821.74915816781594
 11
867.2375244728289
 21
821.74915816781594
  0
ARC
  8
_0-2_目皿
  6
CONTINUOUS
 62
    7
 10
867.35000000000036
 20
821.26197313542354
 40
0.4999999999995
 50
0.0000000000160045
 51
102.99999999999697
  0
ARC
  8
_0-2_目皿
  6
CONTINUOUS
 62
    7
 10
867.35000000000036
 20
821.0567123138644
 40
0.4999999999995
 50
283.00000000000397
 51
0.0000000000130148
  0
LINE
  8
_0-2_目皿
  6
CONTINUOUS
 62
    7
 10
867.8499999999999
 20
821.0567123138644
 11
867.8499999999999
 21
821.26197313542354
  0
LINE
  8
_0-2_目皿
  6
CONTINUOUS
 62
    7
 10
867.46247552717204
 20
820.569527281472
 11
862.58436981668955
 21
818.913309728753
  0
ARC
  8
_0-2_目皿
  6
CONTINUOUS
 62
    7
 10
864.19184893502642
 20
814.17875474606296
 40
4.9999999999995008
 50
108.75341010274401
 51
167.75000000000005
  0
LINE
  8
_0-2_目皿
  6
CONTINUOUS
 62
    7
 10
825.0999999999999
 20
804.7496910937566
 11
822.69430659728777
 21
815.23964310684505
  0
LINE
  8
_0-2_目皿
  6
CONTINUOUS
 62
    7
 10
856.90000000000009
 20
804.7496910937566
 11
859.30569340271222
 21
815.23964310684505
  0
LINE
  8
_0-2_目皿
  6
CONTINUOUS
 62
    4
 10
819.4156301833118
 20
818.913309728753
 11
862.58436981668955
 21
818.913309728753
  0
LINE
  8
_0-2_目皿
  6
CONTINUOUS
 62
    4
 10
814.53752447282795
 20
820.569527281472
 11
867.46247552717204
 21
820.569527281472
  0
LINE
  8
_0-2_目皿
  6
CONTINUOUS
 62
    7
 10
825.0999999999999
 20
787.27109688723123
 11
826.3499999999999
 21
786.3034864967019
  0
LINE
  8
_0-2_目皿
  6
CONTINUOUS
 62
    7
 10
826.3499999999999
 20
786.3034864967019
 11
825.0999999999999
 21
785.27041130224949
  0
LINE
  8
_0-2_目皿
  6
CONTINUOUS
 62
    7
 10
825.0999999999999
 20
785.27041130224949
 11
826.3499999999999
 21
784.30280091172016
  0
LINE
  8
_0-2_目皿
  6
CONTINUOUS
 62
    7
 10
826.3499999999999
 20
784.30280091172016
 11
825.0999999999999
 21
783.26972571726787
  0
LINE
  8
_0-2_目皿
  6
CONTINUOUS
 62
    7
 10
825.0999999999999
 20
783.26972571726787
 11
826.3499999999999
 21
782.30211532673843
  0
LINE
  8
_0-2_目皿
  6
CONTINUOUS
 62
    7
 10
826.3499999999999
 20
782.30211532673843
 11
825.0999999999999
 21
781.26904013228613
  0
LINE
  8
_0-2_目皿
  6
CONTINUOUS
 62
    7
 10
825.0999999999999
 20
781.26904013228613
 11
826.3499999999999
 21
780.3014297417568
  0
LINE
  8
_0-2_目皿
  6
CONTINUOUS
 62
    7
 10
825.0999999999999
 20
767.26424103741419
 11
826.3499999999999
 21
766.29663064688475
  0
LINE
  8
_0-2_目皿
  6
CONTINUOUS
 62
    7
 10
826.3499999999999
 20
766.29663064688475
 11
825.0999999999999
 21
765.26355545243245
  0
LINE
  8
_0-2_目皿
  6
CONTINUOUS
 62
    7
 10
825.0999999999999
 20
765.26355545243245
 11
826.3499999999999
 21
764.29594506190301
  0
LINE
  8
_0-2_目皿
  6
CONTINUOUS
 62
    7
 10
826.3499999999999
 20
764.29594506190301
 11
825.0999999999999
 21
763.26286986745083
  0
LINE
  8
_0-2_目皿
  6
CONTINUOUS
 62
    7
 10
825.0999999999999
 20
763.26286986745083
 11
826.3499999999999
 21
762.29525947692127
  0
LINE
  8
_0-2_目皿
  6
CONTINUOUS
 62
    7
 10
826.3499999999999
 20
762.29525947692127
 11
825.0999999999999
 21
761.26218428246909
  0
LINE
  8
_0-2_目皿
  6
CONTINUOUS
 62
    7
 10
825.0999999999999
 20
761.26218428246909
 11
826.3499999999999
 21
760.29457389193976
  0
LINE
  8
_0-2_目皿
  6
CONTINUOUS
 62
    7
 10
826.3499999999999
 20
760.29457389193976
 11
825.0999999999999
 21
759.26149869748735
  0
LINE
  8
_0-2_目皿
  6
CONTINUOUS
 62
    7
 10
825.0999999999999
 20
759.26149869748735
 11
826.3499999999999
 21
758.29388830695802
  0
LINE
  8
_0-2_目皿
  6
CONTINUOUS
 62
    7
 10
826.3499999999999
 20
758.29388830695802
 11
825.0999999999999
 21
757.26081311250561
  0
LINE
  8
_0-2_目皿
  6
CONTINUOUS
 62
    7
 10
825.0999999999999
 20
757.26081311250561
 11
826.3499999999999
 21
756.29320272197628
  0
LINE
  8
_0-2_目皿
  6
CONTINUOUS
 62
    7
 10
826.3499999999999
 20
756.29320272197628
 11
825.0999999999999
 21
755.26012752752399
  0
LINE
  8
_0-2_目皿
  6
CONTINUOUS
 62
    7
 10
825.0999999999999
 20
755.26012752752399
 11
826.3499999999999
 21
754.29251713699454
  0
LINE
  8
_0-2_目皿
  6
CONTINUOUS
 62
    7
 10
856.90000000000009
 20
788.10380919313138
 11
855.65000000000009
 21
787.07073399867908
  0
LINE
  8
_0-2_目皿
  6
CONTINUOUS
 62
    7
 10
855.65000000000009
 20
787.07073399867908
 11
856.90000000000009
 21
786.10312360814964
  0
LINE
  8
_0-2_目皿
  6
CONTINUOUS
 62
    7
 10
856.90000000000009
 20
786.10312360814964
 11
855.65000000000009
 21
785.07004841369746
  0
LINE
  8
_0-2_目皿
  6
CONTINUOUS
 62
    7
 10
855.64999999999963
 20
785.07004841369746
 11
856.89999999999963
 21
784.10243802316813
  0
LINE
  8
_0-2_目皿
  6
CONTINUOUS
 62
    7
 10
856.89999999999963
 20
784.10243802316813
 11
855.64999999999963
 21
783.06936282871572
  0
LINE
  8
_0-2_目皿
  6
CONTINUOUS
 62
    7
 10
855.64999999999963
 20
783.06936282871572
 11
856.89999999999963
 21
782.10175243818639
  0
LINE
  8
_0-2_目皿
  6
CONTINUOUS
 62
    7
 10
856.89999999999963
 20
782.10175243818639
 11
855.64999999999963
 21
781.06867724373398
  0
LINE
  8
_0-2_目皿
  6
CONTINUOUS
 62
    7
 10
856.89999999999963
 20
780.10106685320465
 11
855.64999999999963
 21
779.06799165875224
  0
LINE
  8
_0-2_目皿
  6
CONTINUOUS
 62
    7
 10
856.89999999999963
 20
768.09695334331433
 11
855.64999999999963
 21
767.06387814886193
  0
LINE
  8
_0-2_目皿
  6
CONTINUOUS
 62
    7
 10
855.64999999999963
 20
767.06387814886193
 11
856.89999999999963
 21
766.0962677583326
  0
LINE
  8
_0-2_目皿
  6
CONTINUOUS
 62
    7
 10
856.89999999999963
 20
766.0962677583326
 11
855.64999999999963
 21
765.0631925638803
  0
LINE
  8
_0-2_目皿
  6
CONTINUOUS
 62
    7
 10
855.64999999999963
 20
765.0631925638803
 11
856.89999999999963
 21
764.09558217335097
  0
LINE
  8
_0-2_目皿
  6
CONTINUOUS
 62
    7
 10
856.89999999999963
 20
764.09558217335097
 11
855.64999999999963
 21
763.06250697889856
  0
LINE
  8
_0-2_目皿
  6
CONTINUOUS
 62
    7
 10
855.64999999999963
 20
763.06250697889856
 11
856.89999999999963
 21
762.09489658836923
  0
LINE
  8
_0-2_目皿
  6
CONTINUOUS
 62
    7
 10
856.89999999999963
 20
762.09489658836923
 11
855.64999999999963
 21
761.06182139391682
  0
LINE
  8
_0-2_目皿
  6
CONTINUOUS
 62
    7
 10
855.64999999999963
 20
761.06182139391682
 11
856.89999999999963
 21
760.09421100338749
  0
LINE
  8
_0-2_目皿
  6
CONTINUOUS
 62
    7
 10
856.89999999999963
 20
760.09421100338749
 11
855.64999999999963
 21
759.06113580893509
  0
LINE
  8
_0-2_目皿
  6
CONTINUOUS
 62
    7
 10
855.64999999999963
 20
759.06113580893509
 11
856.89999999999963
 21
758.09352541840576
  0
LINE
  8
_0-2_目皿
  6
CONTINUOUS
 62
    7
 10
856.89999999999963
 20
758.09352541840576
 11
855.64999999999963
 21
757.06045022395346
  0
LINE
  8
_0-2_目皿
  6
CONTINUOUS
 62
    7
 10
855.64999999999963
 20
757.06045022395346
 11
856.89999999999963
 21
756.09283983342413
  0
LINE
  8
_0-2_目皿
  6
CONTINUOUS
 62
    7
 10
856.89999999999963
 20
756.09283983342413
 11
855.64999999999963
 21
755.05976463897172
  0
LINE
  8
_0-2_目皿
  6
CONTINUOUS
 62
    7
 10
855.64999999999963
 20
755.05976463897172
 11
856.89999999999963
 21
754.09215424844239
  0
LINE
  8
_0-3_スポンジパッキン
  6
CONTINUOUS
 62
    7
 10
866
 20
819.56952728147189
 11
816
 21
819.56952728147189
  0
LINE
  8
_0-3_スポンジパッキン
  6
CONTINUOUS
 62
    7
 10
816
 20
820.569527281472
 11
816
 21
819.56952728147189
  0
LINE
  8
_0-3_スポンジパッキン
  6
CONTINUOUS
 62
    7
 10
866
 20
820.569527281472
 11
816
 21
820.569527281472
  0
LINE
  8
_0-3_スポンジパッキン
  6
CONTINUOUS
 62
    7
 10
866
 20
820.569527281472
 11
866
 21
819.56952728147189
  0
LINE
  8
_0-3_スポンジパッキン
  6
CONTINUOUS
 62
    4
 10
816.7633448188119
 20
820.56952728147246
 11
817.76334481881031
 21
819.56952728147371
  0
LINE
  8
_0-3_スポンジパッキン
  6
CONTINUOUS
 62
    4
 10
821.0059855059294
 20
820.56952728147132
 11
822.00598550592803
 21
819.56952728147257
  0
LINE
  8
_0-3_スポンジパッキン
  6
CONTINUOUS
 62
    4
 10
825.24862619304462
 20
820.569527281472
 11
826.24862619304349
 21
819.56952728147336
  0
LINE
  8
_0-3_スポンジパッキン
  6
CONTINUOUS
 62
    4
 10
829.49126688016986
 20
820.56952728147246
 11
830.49126688016849
 21
819.56952728147393
  0
LINE
  8
_0-3_スポンジパッキン
  6
CONTINUOUS
 62
    4
 10
833.73390756728667
 20
820.56952728147189
 11
834.73390756728554
 21
819.56952728147336
  0
LINE
  8
_0-3_スポンジパッキン
  6
CONTINUOUS
 62
    4
 10
837.97654825440281
 20
820.56952728147211
 11
838.97654825440167
 21
819.56952728147336
  0
LINE
  8
_0-3_スポンジパッキン
  6
CONTINUOUS
 62
    4
 10
842.21918894152804
 20
820.56952728147246
 11
843.21918894152668
 21
819.56952728147393
  0
LINE
  8
_0-3_スポンジパッキン
  6
CONTINUOUS
 62
    4
 10
846.46182962864395
 20
820.5695272814728
 11
847.46182962864281
 21
819.56952728147393
  0
LINE
  8
_0-3_スポンジパッキン
  6
CONTINUOUS
 62
    4
 10
850.704470315761
 20
820.56952728147211
 11
851.70447031575986
 21
819.56952728147348
  0
LINE
  8
_0-3_スポンジパッキン
  6
CONTINUOUS
 62
    4
 10
854.94711100288577
 20
820.5695272814728
 11
855.94711100288714
 21
819.56952728147143
  0
LINE
  8
_0-3_スポンジパッキン
  6
CONTINUOUS
 62
    4
 10
859.18975169000168
 20
820.56952728147325
 11
860.18975169000032
 21
819.56952728147484
  0
LINE
  8
_0-3_スポンジパッキン
  6
CONTINUOUS
 62
    4
 10
863.43239237711918
 20
820.56952728147211
 11
864.43239237711759
 21
819.56952728147371
  0
LINE
  8
_0-a_ナット
  6
CONTINUOUS
 62
    7
 10
816.5
 20
794.06952728147211
 11
865.5
 21
794.06952728147211
  0
LINE
  8
_0-a_ナット
  6
CONTINUOUS
 62
    7
 10
865.5
 20
796.56952728147211
 11
865.5
 21
794.06952728147211
  0
LINE
  8
_0-a_ナット
  6
CONTINUOUS
 62
    7
 10
816.5
 20
796.56952728147211
 11
865.5
 21
796.56952728147211
  0
LINE
  8
_0-a_ナット
  6
CONTINUOUS
 62
    7
 10
816.5
 20
796.56952728147211
 11
816.5
 21
794.06952728147211
  0
LINE
  8
_0-a_ナット
  6
CONTINUOUS
 62
    7
 10
822
 20
794.06952728147211
 11
822
 21
788.16952728147202
  0
LINE
  8
_0-a_ナット
  6
CONTINUOUS
 62
    7
 10
822
 20
788.16952728147202
 11
860
 21
788.16952728147202
  0
LINE
  8
_0-a_ナット
  6
CONTINUOUS
 62
    7
 10
860
 20
794.06952728147211
 11
860
 21
788.16952728147202
  0
LINE
  8
_0-4_三角パッキン
  6
CONTINUOUS
 62
    7
 10
825.25
 20
804.56952728147189
 11
815
 21
798.569527281472
  0
LINE
  8
_0-4_三角パッキン
  6
CONTINUOUS
 62
    7
 10
815
 20
798.569527281472
 11
815
 21
797.06952728147189
  0
LINE
  8
_0-4_三角パッキン
  6
CONTINUOUS
 62
    7
 10
815
 20
797.06952728147189
 11
867
 21
797.06952728147189
  0
LINE
  8
_0-4_三角パッキン
  6
CONTINUOUS
 62
    7
 10
867
 20
797.06952728147189
 11
867
 21
798.569527281472
  0
LINE
  8
_0-4_三角パッキン
  6
CONTINUOUS
 62
    7
 10
856.75
 20
804.56952728147189
 11
867
 21
798.569527281472
  0
LINE
  8
_0-4_三角パッキン
  6
CONTINUOUS
 62
    7
 10
856.75
 20
804.56952728147189
 11
825.25
 21
804.56952728147189
  0
LINE
  8
_0-4_三角パッキン
  6
CONTINUOUS
 62
    4
 10
815
 20
798.569527281472
 11
867
 21
798.569527281472
  0
LINE
  8
_0-5_スリップパッキン
  6
CONTINUOUS
 62
    7
 10
816
 20
797.06952728147189
 11
816
 21
796.56952728147211
  0
LINE
  8
_0-5_スリップパッキン
  6
CONTINUOUS
 62
    7
 10
816
 20
796.56952728147211
 11
866
 21
796.56952728147211
  0
LINE
  8
_0-5_スリップパッキン
  6
CONTINUOUS
 62
    7
 10
866
 20
796.56952728147211
 11
866
 21
797.06952728147189
  0
LINE
  8
_0-5_スリップパッキン
  6
CONTINUOUS
 62
    7
 10
816
 20
797.06952728147189
 11
866
 21
797.06952728147189
  0
SOLID
  8
_0-5_スリップパッキン
  6
CONTINUOUS
 62
    4
 10
816
 20
797.06952728147189
 11
816
 21
796.56952728147211
 12
866
 22
797.06952728147189
 13
866
 23
796.56952728147211
  0
LINE
  8
_0-a_ナット
  6
CONTINUOUS
 62
    4
 10
841
 20
794.06952728147211
 11
841
 21
788.16952728147202
  0
LINE
  8
_0-0_
  6
CONTINUOUS
 62
    4
 10
865.27607321046662
 20
820.04001743694936
 11
1050.3979344990616
 21
860.45133517355895
  0
LINE
  8
_0-0_
  6
CONTINUOUS
 62
    4
 10
859.93662619163228
 20
821.42855305302828
 11
1047.7611396673123
 21
879.48106817752341
  0
LINE
  8
_0-0_
  6
CONTINUOUS
 62
    4
 10
848.09727997029926
 20
796.88780221000661
 11
1023.1934858156023
 21
642.31978714087881
  0
LINE
  8
_0-0_
  6
CONTINUOUS
 62
    4
 10
854.65362874128572
 20
801.50458187605033
 11
1070.8859777826264
 21
664.66560495712656
  0
LINE
  8
_0-0_
  6
CONTINUOUS
 62
    4
 10
650.84631299842021
 20
674.64022367170855
 11
824.22414632137088
 21
789.78732389463596
  0
LINE
  8
_0-2_目皿
  6
CONTINUOUS
 62
    7
 10
826.18708252683995
 20
788.16952728147202
 11
825.0999999999999
 21
787.27109688723123
  0
LINE
  8
_0-2_目皿
  6
CONTINUOUS
 62
    7
 10
856.81510259580727
 20
788.16952728147202
 11
856.90000000000009
 21
788.10380919313138
  0
LINE
  8
_0-8_天板
  6
CONTINUOUS
 62
    3
 10
873.5
 20
804.56952728147189
 11
873.5
 21
779.56952728147189
  0
LINE
  8
_0-8_天板
  6
CONTINUOUS
 62
    4
 10
1194.3746622419971
 20
780.05146721653693
 11
1194.6933891735591
 21
779.56952728147189
  0
LINE
  8
_0-8_天板
  6
CONTINUOUS
 62
    3
 10
1194.6933891735591
 20
779.56952728147189
 11
873.5
 21
779.56952728147189
  0
LINE
  8
_0-8_天板
  6
CONTINUOUS
 62
    4
 10
932.80314203635612
 20
779.56952728147189
 11
957.80314203635475
 21
804.56952728146961
  0
LINE
  8
_0-8_天板
  6
CONTINUOUS
 62
    4
 10
1187.3615832635109
 20
779.56952728147189
 11
1192.0243211693741
 21
784.23226518733508
  0
LINE
  8
_0-8_天板
  6
CONTINUOUS
 62
    4
 10
1003.5138201550042
 20
779.56952728147189
 11
1028.5138201550043
 21
804.56952728147166
  0
LINE
  8
_0-8_天板
  6
CONTINUOUS
 62
    4
 10
1017.6559557787377
 20
779.56952728147189
 11
1042.6559557787377
 21
804.56952728147189
  0
LINE
  8
_0-8_天板
  6
CONTINUOUS
 62
    4
 10
1031.7980914024715
 20
779.56952728147189
 11
1056.7980914024699
 21
804.56952728147075
  0
LINE
  8
_0-8_天板
  6
CONTINUOUS
 62
    4
 10
1045.9402270261955
 20
779.56952728147189
 11
1070.9402270261975
 21
804.56952728147393
  0
LINE
  8
_0-8_天板
  6
CONTINUOUS
 62
    4
 10
1060.0823626499288
 20
779.56952728147189
 11
1085.0823626499297
 21
804.5695272814728
  0
LINE
  8
_0-8_天板
  6
CONTINUOUS
 62
    4
 10
1074.2244982736619
 20
779.56952728147189
 11
1099.2244982736619
 21
804.56952728147166
  0
LINE
  8
_0-8_天板
  6
CONTINUOUS
 62
    4
 10
1088.3666338973953
 20
779.56952728147189
 11
1113.3666338973964
 21
804.56952728147223
  0
LINE
  8
_0-8_天板
  6
CONTINUOUS
 62
    4
 10
1102.5087695211195
 20
779.56952728147189
 11
1127.5087695211195
 21
804.56952728147166
  0
LINE
  8
_0-8_天板
  6
CONTINUOUS
 62
    4
 10
1116.6509051448538
 20
779.56952728147189
 11
1141.6509051448517
 21
804.56952728147052
  0
LINE
  8
_0-8_天板
  6
CONTINUOUS
 62
    4
 10
1130.7930407685862
 20
779.56952728147189
 11
1155.7930407685851
 21
804.56952728147143
  0
LINE
  8
_0-8_天板
  6
CONTINUOUS
 62
    4
 10
1144.9351763923207
 20
779.56952728147189
 11
1169.9351763923184
 21
804.5695272814703
  0
LINE
  8
_0-8_天板
  6
CONTINUOUS
 62
    4
 10
1159.0773120160438
 20
779.56952728147189
 11
1184.0773120160449
 21
804.56952728147371
  0
LINE
  8
_0-8_天板
  6
CONTINUOUS
 62
    4
 10
1173.2194476397771
 20
779.56952728147189
 11
1194.1288656277308
 21
800.47894526942559
  0
LINE
  8
_0-8_天板
  6
CONTINUOUS
 62
    4
 10
946.94527766008059
 20
779.56952728147189
 11
971.94527766008127
 21
804.56952728147336
  0
LINE
  8
_0-8_天板
  6
CONTINUOUS
 62
    4
 10
961.08741328381393
 20
779.56952728147189
 11
986.08741328381461
 21
804.56952728147189
  0
LINE
  8
_0-8_天板
  6
CONTINUOUS
 62
    4
 10
975.22954890754726
 20
779.56952728147189
 11
1000.2295489075479
 21
804.56952728147189
  0
LINE
  8
_0-8_天板
  6
CONTINUOUS
 62
    4
 10
989.37168453127583
 20
779.56952728147189
 11
1014.3716845312767
 21
804.56952728147336
  0
LINE
  8
_0-8_天板
  6
CONTINUOUS
 62
    4
 10
918.66100641262278
 20
779.56952728147189
 11
943.66100641262141
 21
804.56952728147075
  0
LINE
  8
_0-8_天板
  6
CONTINUOUS
 62
    4
 10
904.51887078888944
 20
779.56952728147189
 11
929.51887078888921
 21
804.56952728147166
  0
LINE
  8
_0-8_天板
  6
CONTINUOUS
 62
    4
 10
890.3767351651561
 20
779.56952728147189
 11
915.37673516515701
 21
804.5695272814728
  0
LINE
  8
_0-8_天板
  6
CONTINUOUS
 62
    4
 10
876.23459954143208
 20
779.56952728147189
 11
901.23459954143049
 21
804.5695272814703
  0
LINE
  8
_0-8_天板
  6
CONTINUOUS
 62
    4
 10
494.39693770069516
 20
779.56952728147189
 11
519.39693770069402
 21
804.56952728147075
  0
LINE
  8
_0-8_天板
  6
CONTINUOUS
 62
    4
 10
763.09751455158311
 20
779.56952728147189
 11
788.09751455158198
 21
804.56952728147143
  0
LINE
  8
_0-8_天板
  6
CONTINUOUS
 62
    4
 10
579.24975144307757
 20
779.56952728147189
 11
604.24975144307813
 21
804.5695272814728
  0
LINE
  8
_0-8_天板
  6
CONTINUOUS
 62
    4
 10
565.10761581934389
 20
779.56952728147189
 11
590.1076158193448
 21
804.56952728147302
  0
LINE
  8
_0-8_天板
  6
CONTINUOUS
 62
    4
 10
550.96548019561998
 20
779.56952728147189
 11
575.96548019561828
 21
804.56952728147052
  0
LINE
  8
_0-8_天板
  6
CONTINUOUS
 62
    4
 10
536.82334457188608
 20
779.56952728147189
 11
561.82334457188608
 21
804.56952728147166
  0
LINE
  8
_0-8_天板
  6
CONTINUOUS
 62
    4
 10
522.68120894815331
 20
779.56952728147189
 11
547.68120894815388
 21
804.56952728147302
  0
LINE
  8
_0-8_天板
  6
CONTINUOUS
 62
    4
 10
748.95537892784977
 20
779.56952728147189
 11
773.95537892785091
 21
804.56952728147257
  0
LINE
  8
_0-8_天板
  6
CONTINUOUS
 62
    4
 10
734.81324330411644
 20
779.56952728147189
 11
759.8132433041153
 21
804.56952728147109
  0
LINE
  8
_0-8_天板
  6
CONTINUOUS
 62
    4
 10
720.67110768038423
 20
779.56952728147189
 11
745.67110768038423
 21
804.56952728147257
  0
LINE
  8
_0-8_天板
  6
CONTINUOUS
 62
    4
 10
706.5289720566584
 20
779.56952728147189
 11
731.52897205665772
 21
804.56952728147143
  0
LINE
  8
_0-8_天板
  6
CONTINUOUS
 62
    4
 10
692.38683643292608
 20
779.56952728147189
 11
717.38683643292665
 21
804.5695272814728
  0
LINE
  8
_0-8_天板
  6
CONTINUOUS
 62
    4
 10
678.24470080919218
 20
779.56952728147189
 11
703.24470080919218
 21
804.56952728147189
  0
LINE
  8
_0-8_天板
  6
CONTINUOUS
 62
    4
 10
664.10256518546884
 20
779.56952728147189
 11
689.1025651854668
 21
804.56952728147052
  0
LINE
  8
_0-8_天板
  6
CONTINUOUS
 62
    4
 10
649.96042956173459
 20
779.56952728147189
 11
674.96042956173459
 21
804.56952728147166
  0
LINE
  8
_0-8_天板
  6
CONTINUOUS
 62
    4
 10
635.81829393800137
 20
779.56952728147189
 11
660.81829393800239
 21
804.5695272814728
  0
LINE
  8
_0-8_天板
  6
CONTINUOUS
 62
    4
 10
621.67615831426883
 20
779.56952728147189
 11
646.67615831426905
 21
804.56952728147257
  0
LINE
  8
_0-8_天板
  6
CONTINUOUS
 62
    4
 10
607.53402269054424
 20
779.56952728147189
 11
632.53402269054254
 21
804.56952728147052
  0
LINE
  8
_0-8_天板
  6
CONTINUOUS
 62
    4
 10
593.39188706681034
 20
779.56952728147189
 11
618.39188706681034
 21
804.56952728147166
  0
LINE
  8
_0-8_天板
  6
CONTINUOUS
 62
    4
 10
508.5390733244194
 20
779.56952728147189
 11
533.53907332442054
 21
804.56952728147371
  0
LINE
  8
_0-8_天板
  6
CONTINUOUS
 62
    4
 10
777.23965017530758
 20
779.56952728147189
 11
802.23965017530838
 21
804.56952728147189
  0
LINE
  8
_0-8_天板
  6
CONTINUOUS
 62
    4
 10
791.38178579904126
 20
779.56952728147189
 11
808.50000000000113
 21
796.68774148243232
  0
LINE
  8
_0-8_天板
  6
CONTINUOUS
 62
    4
 10
805.52392142277415
 20
779.56952728147189
 11
808.49999999999874
 21
782.54560585869671
  0
LINE
  8
_0-8_天板
  6
CONTINUOUS
 62
    4
 10
487.62533775800284
 20
780.05146721653693
 11
487.30661082644087
 21
779.56952728147189
  0
LINE
  8
_0-8_天板
  6
CONTINUOUS
 62
    3
 10
808.5
 20
779.56952728147189
 11
487.30661082644087
 21
779.56952728147189
  0
LINE
  8
_0-2_目皿
  6
CONTINUOUS
 62
    7
 10
854.9893268075998
 20
751.74915816781594
 11
827.01067319240019
 21
751.74915816781594
  0
LINE
  8
_0-2_目皿
  6
CONTINUOUS
 62
    7
 10
826.3499999999999
 20
753.24915816781606
 11
827.01067319240019
 21
751.74915816781594
  0
LINE
  8
_0-2_目皿
  6
CONTINUOUS
 62
    7
 10
826.3499999999999
 20
754.29251713699454
 11
825.08755684148013
 21
753.24915816781606
  0
LINE
  8
_0-2_目皿
  6
CONTINUOUS
 62
    7
 10
855.65000000000009
 20
753.24915816781606
 11
854.9893268075998
 21
751.74915816781594
  0
LINE
  8
_0-2_目皿
  6
CONTINUOUS
 62
    7
 10
855.87999186657316
 20
753.24915816781606
 11
825.08755684148013
 21
753.24915816781606
  0
LINE
  8
_0-2_目皿
  6
CONTINUOUS
 62
    7
 10
856.89999999999963
 20
754.09215424844239
 11
855.87999186657316
 21
753.24915816781606
  0
LINE
  8
_0-9_バックプレ__ト
  6
CONTINUOUS
 62
    7
 10
801
 20
776.56952728147211
 11
881.00000000000022
 21
776.56952728147211
  0
LINE
  8
_0-9_バックプレ__ト
  6
CONTINUOUS
 62
    7
 10
881.00000000000022
 20
779.56952728147189
 11
881.00000000000022
 21
776.56952728147211
  0
LINE
  8
_0-9_バックプレ__ト
  6
CONTINUOUS
 62
    7
 10
801
 20
779.56952728147189
 11
881.00000000000022
 21
779.56952728147189
  0
LINE
  8
_0-9_バックプレ__ト
  6
CONTINUOUS
 62
    7
 10
801
 20
779.56952728147189
 11
801
 21
776.56952728147211
  0
LINE
  8
_0-9_バックプレ__ト
  6
DASHED1
 62
    4
 10
857.50000000000022
 20
779.56952728147189
 11
857.50000000000022
 21
776.56952728147211
  0
LINE
  8
_0-9_バックプレ__ト
  6
DASHED1
 62
    4
 10
824.5
 20
779.56952728147189
 11
824.5
 21
776.56952728147211
  0
LINE
  8
_0-a_ナット
  6
CONTINUOUS
 62
    7
 10
816.50000000000022
 20
774.06952728147211
 11
865.5
 21
774.06952728147211
  0
LINE
  8
_0-a_ナット
  6
CONTINUOUS
 62
    7
 10
816.50000000000022
 20
776.56952728147211
 11
865.5
 21
776.56952728147211
  0
LINE
  8
_0-a_ナット
  6
CONTINUOUS
 62
    7
 10
865.5
 20
776.56952728147211
 11
865.5
 21
774.06952728147211
  0
LINE
  8
_0-a_ナット
  6
CONTINUOUS
 62
    7
 10
816.50000000000022
 20
776.56952728147211
 11
816.50000000000022
 21
774.06952728147211
  0
LINE
  8
_0-a_ナット
  6
CONTINUOUS
 62
    7
 10
822
 20
774.06952728147211
 11
822
 21
768.16952728147202
  0
LINE
  8
_0-a_ナット
  6
CONTINUOUS
 62
    7
 10
822
 20
768.16952728147202
 11
860.00000000000022
 21
768.16952728147202
  0
LINE
  8
_0-a_ナット
  6
CONTINUOUS
 62
    7
 10
860.00000000000022
 20
774.06952728147211
 11
860.00000000000022
 21
768.16952728147202
  0
LINE
  8
_0-a_ナット
  6
CONTINUOUS
 62
    4
 10
841
 20
774.06952728147211
 11
841
 21
768.16952728147202
  0
LINE
  8
_0-0_
  6
DASHED2
 62
    4
 10
828.5
 20
751.74915816781594
 11
828.5
 21
671.73128890935709
  0
LINE
  8
_0-0_
  6
DASHED2
 62
    4
 10
853.5
 20
751.74915816781594
 11
853.5
 21
665.60676788452246
  0
TEXT
  8
_0-0_
 62
    7
 10
1016.2650419760198
 20
754.29717315570633
 40
17.5
 41
1
 50
0
  1
天板開口寸法：53～55
  0
LINE
  8
_0-a_ナット
  6
CONTINUOUS
 62
    4
 10
1244.8169932835442
 20
804.56952425201814
 11
1244.8169932835442
 21
779.56952728147189
  0
LINE
  8
_0-a_ナット
  6
CONTINUOUS
 62
    7
 10
1244.8169932835442
 20
804.56952425201814
 11
1242.8758504452753
 21
811.813967949186
  0
LINE
  8
_0-a_ナット
  6
CONTINUOUS
 62
    7
 10
1244.8169932835442
 20
804.56952425201814
 11
1246.758136121813
 21
811.813967949186
  0
LINE
  8
_0-a_ナット
  6
CONTINUOUS
 62
    7
 10
1244.8169932835442
 20
779.56952728147189
 11
1246.758136121813
 21
772.32508358430402
  0
LINE
  8
_0-a_ナット
  6
CONTINUOUS
 62
    7
 10
1244.8169932835442
 20
779.56952728147189
 11
1242.8758504452753
 21
772.32508358430402
  0
LINE
  8
_0-a_ナット
  6
CONTINUOUS
 62
    4
 10
1244.8169932835442
 20
804.56952425201814
 11
1217.6365445579358
 21
804.56952425201814
  0
LINE
  8
_0-a_ナット
  6
CONTINUOUS
 62
    4
 10
1244.8169932835442
 20
779.56952728147189
 11
1217.6365445579358
 21
779.56952728147189
  0
TEXT
  8
_0-a_ナット
 62
    7
 10
1242.3169932835442
 20
783.94452576674507
 40
15
 41
1
 50
90
  1
25
  0
LINE
  8
_0-2_目皿
  6
CONTINUOUS
 62
    7
 10
826.3499999999999
 20
780.3014297417568
 11
825.46441289049539
 21
779.56952728147189
  0
LINE
  8
_0-2_目皿
  6
CONTINUOUS
 62
    7
 10
855.64999999999963
 20
781.06867724373398
 11
857.58666528508661
 21
779.56952728147189
  0
LINE
  8
_0-2_目皿
  6
CONTINUOUS
 62
    7
 10
856.8062459192406
 20
768.16952728147202
 11
856.89999999999963
 21
768.09695334331433
  0
LINE
  8
_0-2_目皿
  6
CONTINUOUS
 62
    7
 10
826.19537796585291
 20
768.16952728147202
 11
825.0999999999999
 21
767.26424103741419
  0
LINE
  8
_0-0_
  6
CONTINUOUS
 62
    4
 10
650.84631299842021
 20
674.64022367170855
 11
823.84517162973406
 21
770.14854851265295
  0
LINE
  8
_0-0_
  6
CONTINUOUS
 62
    4
 10
704.50710032096856
 20
632.16390356189288
 11
812.42414527401217
 21
777.84026013997572
  0
LINE
  8
_0-b_化粧キャップラウンド
  6
CONTINUOUS
 62
    7
 10
811
 20
836.24915816781606
 11
811
 21
833.24915816781606
  0
LINE
  8
_0-b_化粧キャップラウンド
  6
CONTINUOUS
 62
    7
 10
811
 20
836.24915816781606
 11
871
 21
836.24915816781606
  0
LINE
  8
_0-b_化粧キャップラウンド
  6
CONTINUOUS
 62
    7
 10
871
 20
836.24915816781606
 11
871
 21
833.24915816781606
  0
LINE
  8
_0-b_化粧キャップラウンド
  6
CONTINUOUS
 62
    7
 10
811
 20
833.24915816781606
 11
871
 21
833.24915816781606
  0
LINE
  8
_0-b_化粧キャップラウンド
  6
CONTINUOUS
 62
    7
 10
824
 20
828.74915816781606
 11
835.5
 21
828.74915816781606
  0
LINE
  8
_0-b_化粧キャップラウンド
  6
CONTINUOUS
 62
    7
 10
846.5
 20
828.74915816781606
 11
858
 21
828.74915816781606
  0
LINE
  8
_0-b_化粧キャップラウンド
  6
CONTINUOUS
 62
    4
 10
812
 20
836.24915816781606
 11
812
 21
833.24915816781606
  0
LINE
  8
_0-b_化粧キャップラウンド
  6
CONTINUOUS
 62
    4
 10
870
 20
836.24915816781606
 11
870
 21
833.24915816781606
  0
LINE
  8
_0-b_化粧キャップラウンド
  6
CONTINUOUS
 62
    7
 10
824
 20
833.24915816781606
 11
824
 21
821.74915816781594
  0
LINE
  8
_0-b_化粧キャップラウンド
  6
CONTINUOUS
 62
    7
 10
835.5
 20
828.74915816781606
 11
835.5
 21
821.74915816781594
  0
LINE
  8
_0-b_化粧キャップラウンド
  6
CONTINUOUS
 62
    7
 10
846.5
 20
828.74915816781606
 11
846.5
 21
821.74915816781594
  0
LINE
  8
_0-b_化粧キャップラウンド
  6
CONTINUOUS
 62
    7
 10
858
 20
833.24915816781606
 11
858
 21
821.74915816781594
  0
LINE
  8
_0-0_
  6
CONTINUOUS
 62
    4
 10
814.55891745805445
 20
813.64024389621442
 11
614.1459960915406
 21
875.81022081226637
  0
TEXT
  8
_0-0_
 62
    7
 10
931.51569128763958
 20
933.58081435541953
 40
12.5
 41
1
 50
0
  1
化粧キャップスクエア
  0
TEXT
  8
_0-0_
 62
    7
 10
545.26372712146417
 20
665.71381031613975
 40
12.5
 41
1
 50
0
  1
排水目皿用ナット
  0
TEXT
  8
_0-0_
 62
    7
 10
515.56322795341088
 20
625.75956738768718
 40
12.5
 41
1
 50
0
  1
ボウル固定板（バックプレート）
  0
TEXT
  8
_0-0_
 62
    7
 10
1020.0269893242749
 20
607.66978308547402
 40
12.5
 41
1
 50
0
  1
排水トラップφ25
  0
TEXT
  8
_0-0_
 62
    7
 10
821
 20
598.82036074465304
 40
10
 41
1
 50
0
  1
取付方法
  0
LINE
  8
_0-0_
  6
CONTINUOUS
 62
    7
 10
794.75
 20
612.57036074465304
 11
794.75
 21
595.07036074465304
  0
LINE
  8
_0-0_
  6
CONTINUOUS
 62
    7
 10
794.75
 20
595.07036074465304
 11
887.25
 21
595.07036074465304
  0
LINE
  8
_0-0_
  6
CONTINUOUS
 62
    7
 10
887.25
 20
595.07036074465304
 11
887.25
 21
612.57036074465304
  0
LINE
  8
_0-0_
  6
CONTINUOUS
 62
    7
 10
794.75
 20
612.57036074465304
 11
887.25
 21
612.57036074465304
  0
TEXT
  8
_0-0_
 62
    7
 10
512.0110039288852
 20
872.62399218680877
 40
12.5
 41
1
 50
0
  1
Оリング（黒）
  0
TEXT
  8
_0-0_
 62
    7
 10
486.11430347179555
 20
309.72815453750934
 40
17.5
 41
1
 50
0
  1
品　番：SC-MDW-S70SQ／SC-MDW-P70SQ／SC-MDW-B70SQ
  0
TEXT
  8
_0-0_
 62
    7
 10
554.34524249259459
 20
207.33197330385922
 40
15
 41
1
 50
0
  1
・Оリング×2（黒）
  0
TEXT
  8
_0-0_
 62
    7
 10
554.34524249259447
 20
57.331973303859285
 40
15
 41
1
 50
0
  1
・化粧キャップスクエア（SUS304ヘアーライン仕上）
  0
ENDSEC
  0
EOF
