  0
SECTION
  2
HEADER
  9
$ACADVER
  1
AC1009
  9
$INSBASE
 10
0
 20
0
 30
0
  9
$EXTMIN
 10
0
 20
0
  9
$EXTMAX
 10
1682
 20
1188
  9
$LIMMIN
 10
0
 20
0
  9
$LIMMAX
 10
1682
 20
1188
  9
$LTSCALE
 40
2
  0
ENDSEC
  0
SECTION
  2
TABLES
  0
TABLE
  2
LTYPE
 70
     9
  0
LTYPE
  2
CONTINUOUS
 70
    64
  3
実線
 72
    65
 73
     0
 40
0.0
  0
LTYPE
  2
DASHED1
 70
    64
  3
--  --  --  --  --  --  --  --  
 72
    65
 73
     2
 40
2.5
 49
1.25
 49
-1.25
  0
LTYPE
  2
DASHED2
 70
    64
  3
----    ----    ----    ----    
 72
    65
 73
     2
 40
5.0
 49
2.5
 49
-2.5
  0
LTYPE
  2
DASHED3
 70
    64
  3
------  ------  ------  ------  
 72
    65
 73
     2
 40
5.0
 49
3.75
 49
-1.25
  0
LTYPE
  2
CENTER1
 70
    64
  3
----- - ----- - ----- - ----- - 
 72
    65
 73
     4
 40
10.0
 49
6.25
 49
-1.25
 49
1.25
 49
-1.25
  0
LTYPE
  2
CENTER2
 70
    64
  3
----------  --  ----------  --  
 72
    65
 73
     4
 40
20.0
 49
12.5
 49
-2.5
 49
2.5
 49
-2.5
  0
LTYPE
  2
PHANTOM1
 70
    64
  3
--- - - --- - - --- - - --- - - 
 72
    65
 73
     6
 40
10.0
 49
3.25
 49
-1.25
 49
1.25
 49
-1.25
 49
1.25
 49
-1.25
  0
LTYPE
  2
PHANTOM2
 70
    64
  3
--------  -  -  --------  -  -  
 72
    65
 73
     6
 40
20.0
 49
10.0
 49
-2.5
 49
1.25
 49
-2.5
 49
1.25
 49
-2.5
  0
LTYPE
  2
DOT
 70
    64
  3
-   -   -   -   -   -   -   -   
 72
    65
 73
     2
 40
2.5
 49
0.625
 49
-1.875
  0
LTYPE
  2
DUMMY
 70
    64
  3
ダミー
 72
    65
 73
     0
 40
0.0
  0
LTYPE
  2
RAND1
 70
    64
  3
ランダム線1
 72
    65
 73
     4
 40
10.0
 49
1.0
 49
-2.0
 49
3.0
 49
-4.0
  0
LTYPE
  2
RAND2
 70
    64
  3
ランダム線2
 72
    65
 73
     4
 40
14.0
 49
2.0
 49
-3.0
 49
4.0
 49
-5.0
  0
LTYPE
  2
RAND3
 70
    64
  3
ランダム線3
 72
    65
 73
     4
 40
18.0
 49
3.0
 49
-4.0
 49
5.0
 49
-6.0
  0
LTYPE
  2
RAND4
 70
    64
  3
ランダム線4
 72
    65
 73
     4
 40
22.0
 49
4.0
 49
-5.0
 49
6.0
 49
-7.0
  0
LTYPE
  2
RAND5
 70
    64
  3
ランダム線5
 72
    65
 73
     4
 40
26.0
 49
5.0
 49
-6.0
 49
7.0
 49
-8.0
  0
LTYPE
  2
LONG1
 70
    64
  3
----------  --  ----------  --  
 72
    65
 73
     4
 40
40.0
 49
32.5
 49
-2.5
 49
2.5
 49
-2.5
  0
LTYPE
  2
LONG2
 70
    64
  3
--------  -  -  --------  -  -  
 72
    65
 73
     6
 40
40.0
 49
30.0
 49
-2.5
 49
1.25
 49
-2.5
 49
1.25
 49
-2.5
  0
LTYPE
  2
LONG3
 70
    64
  3
+++++++++++++++..+++++++++++++++
 72
    65
 73
     2
 40
40.0
 49
37.5
 49
-2.5
  0
LTYPE
  2
LONG4
 70
    64
  3
+++++++++++++++..+++++++++++++++
 72
    65
 73
     2
 40
80.0
 49
75.0
 49
-5.0
  0
LTYPE
  2
LONG5
 70
    64
  3
----------  --  ----------  --  
 72
    65
 73
     4
 40
60.0
 49
37.5
 49
-7.5
 49
7.5
 49
-7.5
  0
LTYPE
  2
dashed
 70
   64
  3
-------   -------------   ------
 72
   65
 73
    2
 40
7.5
 49
6
 49
-1.5
  0
LTYPE
  2
dashed_spaced
 70
   64
  3
----        --------        ----
 72
   65
 73
    2
 40
12
 49
6
 49
-6
  0
LTYPE
  2
long_dashed_dotted
 70
   64
  3
------------- --- --------------
 72
   65
 73
    4
 40
15.25
 49
12
 49
-1.5
 49
0.25
 49
-1.5
  0
LTYPE
  2
long_dashed_double-dotted
 70
   64
  3
----------- --- --- ------------
 72
   65
 73
    6
 40
17
 49
12
 49
-1.5
 49
0.25
 49
-1.5
 49
0.25
 49
-1.5
  0
LTYPE
  2
long_dashed_triplicate-dotted
 70
   64
  3
--------- --- --- --- ----------
 72
   65
 73
    8
 40
18.75
 49
12
 49
-1.5
 49
0.25
 49
-1.5
 49
0.25
 49
-1.5
 49
0.25
 49
-1.5
  0
LTYPE
  2
dotted
 70
   64
  3
   -       -       -       -    
 72
   65
 73
    2
 40
1.75
 49
0.25
 49
-1.5
  0
LTYPE
  2
chain
 70
   64
  3
-------------- -- --------------
 72
   65
 73
    4
 40
18.5
 49
12
 49
-1.5
 49
3.5
 49
-1.5
  0
LTYPE
  2
chain_double_dash
 70
   64
  3
------------ -- -- -------------
 72
   65
 73
    6
 40
23.5
 49
12
 49
-1.5
 49
3.5
 49
-1.5
 49
3.5
 49
-1.5
  0
LTYPE
  2
dashed_dotted
 70
   64
  3
-----------     -     ----------
 72
   65
 73
    4
 40
9.25
 49
6
 49
-1.5
 49
0.25
 49
-1.5
  0
LTYPE
  2
double-dashed_dotted
 70
   64
  3
------   -----------   -   -----
 72
   65
 73
    6
 40
16.75
 49
6
 49
-1.5
 49
6
 49
-1.5
 49
0.25
 49
-1.5
  0
LTYPE
  2
dashed_double-dotted
 70
   64
  3
---------    -    -    ---------
 72
   65
 73
    6
 40
11
 49
6
 49
-1.5
 49
0.25
 49
-1.5
 49
0.25
 49
-1.5
  0
LTYPE
  2
double-dashed_double-dotted
 70
   64
  3
-----   ---------   -   -   ----
 72
   65
 73
    8
 40
18.5
 49
6
 49
-1.5
 49
6
 49
-1.5
 49
0.25
 49
-1.5
 49
0.25
 49
-1.5
  0
LTYPE
  2
dashed_triplicate-dotted
 70
   64
  3
-------    -    -    -    ------
 72
   65
 73
    8
 40
12.75
 49
6
 49
-1.5
 49
0.25
 49
-1.5
 49
0.25
 49
-1.5
 49
0.25
 49
-1.5
  0
LTYPE
  2
double-dashed_triplicate-dotted
 70
   64
  3
-----  ---------  -  -  -  -----
 72
   65
 73
   10
 40
20.25
 49
6
 49
-1.5
 49
6
 49
-1.5
 49
0.25
 49
-1.5
 49
0.25
 49
-1.5
 49
0.25
 49
-1.5
  0
LTYPE
  2
undefined
 70
   64
  3
--------------------------------
 72
   65
 73
    0
 40
0
  0
LTYPE
  2
_
 70
   64
  3
                                
 72
   65
 73
    0
 40
0
  0
LTYPE
  2
__18
 70
   64
  3
                                
 72
   65
 73
    0
 40
0
  0
LTYPE
  2
__19
 70
   64
  3
                                
 72
   65
 73
    0
 40
0
  0
LTYPE
  2
__20
 70
   64
  3
                                
 72
   65
 73
    0
 40
0
  0
LTYPE
  2
__21
 70
   64
  3
                                
 72
   65
 73
    0
 40
0
  0
LTYPE
  2
__22
 70
   64
  3
                                
 72
   65
 73
    0
 40
0
  0
LTYPE
  2
__23
 70
   64
  3
                                
 72
   65
 73
    0
 40
0
  0
LTYPE
  2
__24
 70
   64
  3
                                
 72
   65
 73
    0
 40
0
  0
LTYPE
  2
__25
 70
   64
  3
                                
 72
   65
 73
    0
 40
0
  0
LTYPE
  2
__26
 70
   64
  3
                                
 72
   65
 73
    0
 40
0
  0
LTYPE
  2
__27
 70
   64
  3
                                
 72
   65
 73
    0
 40
0
  0
LTYPE
  2
__28
 70
   64
  3
                                
 72
   65
 73
    0
 40
0
  0
LTYPE
  2
__29
 70
   64
  3
                                
 72
   65
 73
    0
 40
0
  0
LTYPE
  2
__30
 70
   64
  3
                                
 72
   65
 73
    0
 40
0
  0
LTYPE
  2
__31
 70
   64
  3
                                
 72
   65
 73
    0
 40
0
  0
LTYPE
  2
__32
 70
   64
  3
                                
 72
   65
 73
    0
 40
0
  0
ENDTAB
  0
TABLE
  2
STYLE
  5
3
100
AcDbSymbolTable
 70
     1
  0
STYLE
  5
10
100
AcDbSymbolTableRecord
100
AcDbTextStyleTableRecord
  2
STANDARD
 70
     0
 40
0.0
 41
1.0
 50
0.0
 71
     0
 42
0.2
  3
txt
  4
bigfont.shx
  0
STYLE
  5
26
100
AcDbSymbolTableRecord
100
AcDbTextStyleTableRecord
  2
TATEGAKI
 70
    68
 40
0.0
 41
1.0
 50
0.0
 71
     0
 42
1.0
  3
txt
  4
bigfont.shx
  0
ENDTAB
  0
TABLE
  2
LAYER
 70
    2
  0
LAYER
  2
_0-0_
 70
   64
 62
    7
  6
CONTINUOUS
  0
LAYER
  2
ADD_LINE
 70
   64
 62
    7
  6
CONTINUOUS
  0
ENDTAB
  0
ENDSEC
  0
SECTION
  2
BLOCKS
  0
ENDSEC
  0
SECTION
  2
ENTITIES
  0
LINE
  8
_0-0_
  6
CONTINUOUS
 62
    4
 10
818.50000000000022
 20
179.49784692049598
 11
818.50000000000022
 21
228.2884611590984
  0
LINE
  8
_0-0_
  6
CONTINUOUS
 62
    4
 10
863.50000000000022
 20
179.49784692049598
 11
863.50000000000022
 21
228.2884611590984
  0
LINE
  8
_0-0_
  6
CONTINUOUS
 62
    7
 10
882.84988707558864
 20
258.7247434476597
 11
881.21239171501497
 21
258.29389786480896
  0
LINE
  8
_0-0_
  6
CONTINUOUS
 62
    4
 10
1136.0000000000002
 20
966.09347163963639
 11
1131.5182871386016
 21
1000.6494589950252
  0
LINE
  8
_0-0_
  6
CONTINUOUS
 62
    4
 10
1131.5182871386016
 20
1000.6494589950252
 11
1118.2093231318431
 21
1034.1554801607946
  0
LINE
  8
_0-0_
  6
CONTINUOUS
 62
    4
 10
1118.2093231318431
 20
1034.1554801607946
 11
1096.4774941164096
 21
1065.5934716386864
  0
LINE
  8
_0-0_
  6
CONTINUOUS
 62
    4
 10
1096.4774941164096
 20
1065.5934716386864
 11
1066.9831107200986
 21
1094.0082059660364
  0
LINE
  8
_0-0_
  6
CONTINUOUS
 62
    4
 10
1066.9831107200986
 20
1094.0082059660364
 11
1030.6223448575292
 21
1118.5363158188574
  0
LINE
  8
_0-0_
  6
CONTINUOUS
 62
    4
 10
1030.6223448575292
 20
1118.5363158188574
 11
988.50000000000022
 21
1138.4325269910941
  0
LINE
  8
_0-0_
  6
CONTINUOUS
 62
    4
 10
988.50000000000022
 20
1138.4325269910941
 11
941.89594228107262
 21
1153.0923031742468
  0
LINE
  8
_0-0_
  6
CONTINUOUS
 62
    4
 10
941.89594228107262
 20
1153.0923031742468
 11
892.22621241174465
 21
1162.0702144871945
  0
LINE
  8
_0-0_
  6
CONTINUOUS
 62
    4
 10
892.22621241174465
 20
1162.0702144871945
 11
841.00000000000022
 21
1165.0934716377364
  0
LINE
  8
_0-0_
  6
CONTINUOUS
 62
    4
 10
841.00000000000022
 20
1165.0934716377364
 11
789.7737875882558
 21
1162.0702144871945
  0
LINE
  8
_0-0_
  6
CONTINUOUS
 62
    4
 10
789.7737875882558
 20
1162.0702144871945
 11
740.10405771892794
 21
1153.0923031742468
  0
LINE
  8
_0-0_
  6
CONTINUOUS
 62
    4
 10
740.10405771892794
 20
1153.0923031742468
 11
693.50000000000022
 21
1138.4325269910941
  0
LINE
  8
_0-0_
  6
CONTINUOUS
 62
    4
 10
693.50000000000022
 20
1138.4325269910941
 11
651.37765514247121
 21
1118.5363158188577
  0
LINE
  8
_0-0_
  6
CONTINUOUS
 62
    4
 10
651.37765514247121
 20
1118.5363158188577
 11
615.01688927990176
 21
1094.0082059660364
  0
LINE
  8
_0-0_
  6
CONTINUOUS
 62
    4
 10
615.01688927990176
 20
1094.0082059660364
 11
585.52250588359095
 21
1065.5934716386866
  0
LINE
  8
_0-0_
  6
CONTINUOUS
 62
    4
 10
585.52250588359095
 20
1065.5934716386866
 11
563.79067686815733
 21
1034.1554801607949
  0
LINE
  8
_0-0_
  6
CONTINUOUS
 62
    4
 10
563.79067686815733
 20
1034.1554801607949
 11
550.48171286139893
 21
1000.6494589950259
  0
LINE
  8
_0-0_
  6
CONTINUOUS
 62
    4
 10
550.48171286139893
 20
1000.6494589950259
 11
546.00000000000022
 21
966.09347163963661
  0
LINE
  8
_0-0_
  6
CONTINUOUS
 62
    4
 10
546.00000000000022
 20
966.09347163963661
 11
550.48171286139881
 21
931.53748428424751
  0
LINE
  8
_0-0_
  6
CONTINUOUS
 62
    4
 10
550.48171286139881
 20
931.53748428424751
 11
563.7906768681571
 21
898.03146311847854
  0
LINE
  8
_0-0_
  6
CONTINUOUS
 62
    4
 10
563.7906768681571
 20
898.03146311847854
 11
585.52250588359049
 21
866.59347164058658
  0
LINE
  8
_0-0_
  6
CONTINUOUS
 62
    4
 10
585.52250588359049
 20
866.59347164058658
 11
615.0168892799013
 21
838.17873731323675
  0
LINE
  8
_0-0_
  6
CONTINUOUS
 62
    4
 10
615.0168892799013
 20
838.17873731323675
 11
651.37765514247064
 21
813.65062746041553
  0
LINE
  8
_0-0_
  6
CONTINUOUS
 62
    4
 10
651.37765514247064
 20
813.65062746041553
 11
693.49999999999965
 21
793.75441628817873
  0
LINE
  8
_0-0_
  6
CONTINUOUS
 62
    4
 10
693.49999999999965
 20
793.75441628817873
 11
740.10405771892726
 21
779.0946401050262
  0
LINE
  8
_0-0_
  6
CONTINUOUS
 62
    4
 10
740.10405771892726
 20
779.0946401050262
 11
789.773787588255
 21
770.11672879207822
  0
LINE
  8
_0-0_
  6
CONTINUOUS
 62
    4
 10
789.773787588255
 20
770.11672879207822
 11
840.99999999999931
 21
767.09347164153632
  0
LINE
  8
_0-0_
  6
CONTINUOUS
 62
    4
 10
840.99999999999931
 20
767.09347164153632
 11
892.22621241174374
 21
770.11672879207799
  0
LINE
  8
_0-0_
  6
CONTINUOUS
 62
    4
 10
892.22621241174374
 20
770.11672879207799
 11
941.89594228107171
 21
779.09464010502574
  0
LINE
  8
_0-0_
  6
CONTINUOUS
 62
    4
 10
941.89594228107171
 20
779.09464010502574
 11
988.49999999999931
 21
793.75441628817816
  0
LINE
  8
_0-0_
  6
CONTINUOUS
 62
    4
 10
988.49999999999931
 20
793.75441628817816
 11
1030.6223448575285
 21
813.65062746041473
  0
LINE
  8
_0-0_
  6
CONTINUOUS
 62
    4
 10
1030.6223448575285
 20
813.65062746041473
 11
1066.983110720098
 21
838.17873731323572
  0
LINE
  8
_0-0_
  6
CONTINUOUS
 62
    4
 10
1066.983110720098
 20
838.17873731323572
 11
1096.4774941164089
 21
866.59347164058556
  0
LINE
  8
_0-0_
  6
CONTINUOUS
 62
    4
 10
1096.4774941164089
 20
866.59347164058556
 11
1118.2093231318426
 21
898.0314631184774
  0
LINE
  8
_0-0_
  6
CONTINUOUS
 62
    4
 10
1118.2093231318426
 20
898.0314631184774
 11
1131.5182871386014
 21
931.53748428424637
  0
LINE
  8
_0-0_
  6
CONTINUOUS
 62
    4
 10
1131.5182871386014
 20
931.53748428424637
 11
1136.0000000000002
 21
966.09347163963548
  0
LINE
  8
_0-0_
  6
CONTINUOUS
 62
    7
 10
1175.0000000000002
 20
966.09347163963639
 11
1169.9257895060777
 21
1007.4217379238205
  0
LINE
  8
_0-0_
  6
CONTINUOUS
 62
    7
 10
1169.9257895060777
 20
1007.4217379238205
 11
1154.8573353424935
 21
1047.4942657500716
  0
LINE
  8
_0-0_
  6
CONTINUOUS
 62
    7
 10
1154.8573353424935
 20
1047.4942657500716
 11
1130.2524848640027
 21
1085.0934716380663
  0
LINE
  8
_0-0_
  6
CONTINUOUS
 62
    7
 10
1130.2524848640027
 20
1085.0934716380663
 11
1096.8588440017388
 21
1119.0769227430143
  0
LINE
  8
_0-0_
  6
CONTINUOUS
 62
    7
 10
1096.8588440017388
 20
1119.0769227430143
 11
1055.6910616353043
 21
1148.4120490995478
  0
LINE
  8
_0-0_
  6
CONTINUOUS
 62
    7
 10
1055.6910616353043
 20
1148.4120490995478
 11
1008.0000000000002
 21
1172.2075177376134
  0
LINE
  8
_0-0_
  6
CONTINUOUS
 62
    7
 10
1008.0000000000002
 20
1172.2075177376134
 11
955.23472787077366
 21
1189.7403153837319
  0
LINE
  8
_0-0_
  6
CONTINUOUS
 62
    7
 10
955.23472787077366
 20
1189.7403153837319
 11
898.99849134075498
 21
1200.4777168534496
  0
LINE
  8
_0-0_
  6
CONTINUOUS
 62
    7
 10
898.99849134075498
 20
1200.4777168534496
 11
841.00000000000022
 21
1204.0934716364963
  0
LINE
  8
_0-0_
  6
CONTINUOUS
 62
    7
 10
841.00000000000022
 20
1204.0934716364963
 11
783.00150865924547
 21
1200.4777168534496
  0
LINE
  8
_0-0_
  6
CONTINUOUS
 62
    7
 10
783.00150865924547
 20
1200.4777168534496
 11
726.7652721292269
 21
1189.7403153837319
  0
LINE
  8
_0-0_
  6
CONTINUOUS
 62
    7
 10
726.7652721292269
 20
1189.7403153837319
 11
674.00000000000034
 21
1172.2075177376134
  0
LINE
  8
_0-0_
  6
CONTINUOUS
 62
    7
 10
674.00000000000034
 20
1172.2075177376134
 11
626.30893836469613
 21
1148.4120490995478
  0
LINE
  8
_0-0_
  6
CONTINUOUS
 62
    7
 10
626.30893836469613
 20
1148.4120490995478
 11
585.14115599826163
 21
1119.0769227430146
  0
LINE
  8
_0-0_
  6
CONTINUOUS
 62
    7
 10
585.14115599826163
 20
1119.0769227430146
 11
551.7475151359979
 21
1085.0934716380666
  0
LINE
  8
_0-0_
  6
CONTINUOUS
 62
    7
 10
551.7475151359979
 20
1085.0934716380666
 11
527.14266465750688
 21
1047.4942657500719
  0
LINE
  8
_0-0_
  6
CONTINUOUS
 62
    7
 10
527.14266465750688
 20
1047.4942657500719
 11
512.0742104939228
 21
1007.4217379238209
  0
LINE
  8
_0-0_
  6
CONTINUOUS
 62
    7
 10
512.0742104939228
 20
1007.4217379238209
 11
507.00000000000022
 21
966.09347163963684
  0
LINE
  8
_0-0_
  6
CONTINUOUS
 62
    7
 10
507.00000000000022
 20
966.09347163963684
 11
512.07421049392269
 21
924.7652053554525
  0
LINE
  8
_0-0_
  6
CONTINUOUS
 62
    7
 10
512.07421049392269
 20
924.7652053554525
 11
527.14266465750665
 21
884.69267752920154
  0
LINE
  8
_0-0_
  6
CONTINUOUS
 62
    7
 10
527.14266465750665
 20
884.69267752920154
 11
551.74751513599744
 21
847.09347164120686
  0
LINE
  8
_0-0_
  6
CONTINUOUS
 62
    7
 10
551.74751513599744
 20
847.09347164120686
 11
585.14115599826106
 21
813.11002053625884
  0
LINE
  8
_0-0_
  6
CONTINUOUS
 62
    7
 10
585.14115599826106
 20
813.11002053625884
 11
626.30893836469556
 21
783.77489417972526
  0
LINE
  8
_0-0_
  6
CONTINUOUS
 62
    7
 10
626.30893836469556
 20
783.77489417972526
 11
673.99999999999954
 21
759.97942554165956
  0
LINE
  8
_0-0_
  6
CONTINUOUS
 62
    7
 10
673.99999999999954
 20
759.97942554165956
 11
726.7652721292261
 21
742.44662789554104
  0
LINE
  8
_0-0_
  6
CONTINUOUS
 62
    7
 10
726.7652721292261
 20
742.44662789554104
 11
783.00150865924467
 21
731.70922642582331
  0
LINE
  8
_0-0_
  6
CONTINUOUS
 62
    7
 10
783.00150865924467
 20
731.70922642582331
 11
840.99999999999931
 21
728.09347164277642
  0
LINE
  8
_0-0_
  6
CONTINUOUS
 62
    7
 10
840.99999999999931
 20
728.09347164277642
 11
898.99849134075384
 21
731.70922642582308
  0
LINE
  8
_0-0_
  6
CONTINUOUS
 62
    7
 10
898.99849134075384
 20
731.70922642582308
 11
955.23472787077253
 21
742.44662789554058
  0
LINE
  8
_0-0_
  6
CONTINUOUS
 62
    7
 10
955.23472787077253
 20
742.44662789554058
 11
1007.9999999999993
 21
759.97942554165888
  0
LINE
  8
_0-0_
  6
CONTINUOUS
 62
    7
 10
1007.9999999999993
 20
759.97942554165888
 11
1055.6910616353034
 21
783.77489417972446
  0
LINE
  8
_0-0_
  6
CONTINUOUS
 62
    7
 10
1055.6910616353034
 20
783.77489417972446
 11
1096.8588440017381
 21
813.1100205362577
  0
LINE
  8
_0-0_
  6
CONTINUOUS
 62
    7
 10
1096.8588440017381
 20
813.1100205362577
 11
1130.252484864002
 21
847.09347164120549
  0
LINE
  8
_0-0_
  6
CONTINUOUS
 62
    7
 10
1130.252484864002
 20
847.09347164120549
 11
1154.8573353424931
 21
884.69267752920018
  0
LINE
  8
_0-0_
  6
CONTINUOUS
 62
    7
 10
1154.8573353424931
 20
884.69267752920018
 11
1169.9257895060773
 21
924.76520535545114
  0
LINE
  8
_0-0_
  6
CONTINUOUS
 62
    7
 10
1169.9257895060773
 20
924.76520535545114
 11
1175.0000000000002
 21
966.09347163963525
  0
CIRCLE
  8
_0-0_
  6
CONTINUOUS
 62
    7
 10
841.00000000000022
 20
966.09347163963639
 40
22.5
  0
CIRCLE
  8
_0-0_
  6
CONTINUOUS
 62
    4
 10
841.00000000000022
 20
966.09347163963639
 40
34.999999999999992
  0
LINE
  8
_0-0_
  6
CONTINUOUS
 62
    4
 10
940.78117336145396
 20
988.59346771240234
 11
940.78117336145396
 21
943.59346771240234
  0
LINE
  8
_0-0_
  6
CONTINUOUS
 62
    7
 10
940.78117336145396
 20
988.59346771240234
 11
942.72231619972285
 21
981.34902401523413
  0
LINE
  8
_0-0_
  6
CONTINUOUS
 62
    7
 10
940.78117336145396
 20
988.59346771240234
 11
938.84003052318507
 21
981.34902401523413
  0
LINE
  8
_0-0_
  6
CONTINUOUS
 62
    7
 10
940.78117336145396
 20
943.59346771240234
 11
938.84003052318507
 21
950.83791140957032
  0
LINE
  8
_0-0_
  6
CONTINUOUS
 62
    7
 10
940.78117336145396
 20
943.59346771240234
 11
942.72231619972285
 21
950.83791140957032
  0
LINE
  8
_0-0_
  6
CONTINUOUS
 62
    4
 10
731.88296282674605
 20
1001.0934677124023
 11
731.88296282674605
 21
931.09346771240234
  0
LINE
  8
_0-0_
  6
CONTINUOUS
 62
    7
 10
731.88296282674605
 20
1001.0934677124023
 11
733.82410566501482
 21
993.84902401523413
  0
LINE
  8
_0-0_
  6
CONTINUOUS
 62
    7
 10
731.88296282674605
 20
1001.0934677124023
 11
729.94181998847727
 21
993.84902401523413
  0
LINE
  8
_0-0_
  6
CONTINUOUS
 62
    7
 10
731.88296282674605
 20
931.09346771240234
 11
729.94181998847727
 21
938.33791140957032
  0
LINE
  8
_0-0_
  6
CONTINUOUS
 62
    7
 10
731.88296282674605
 20
931.09346771240234
 11
733.82410566501482
 21
938.33791140957032
  0
LINE
  8
_0-0_
  6
CONTINUOUS
 62
    4
 10
1404.4456556315149
 20
728.09347534179687
 11
1404.4456556315149
 21
1204.0934791564941
  0
LINE
  8
_0-0_
  6
CONTINUOUS
 62
    7
 10
1404.4456556315149
 20
728.09347534179687
 11
1402.5045127932462
 21
735.33791903896485
  0
LINE
  8
_0-0_
  6
CONTINUOUS
 62
    7
 10
1404.4456556315149
 20
728.09347534179687
 11
1406.3867984697835
 21
735.33791903896485
  0
LINE
  8
_0-0_
  6
CONTINUOUS
 62
    7
 10
1404.4456556315149
 20
1204.0934791564941
 11
1406.3867984697835
 21
1196.8490354593259
  0
LINE
  8
_0-0_
  6
CONTINUOUS
 62
    7
 10
1404.4456556315149
 20
1204.0934791564941
 11
1402.5045127932462
 21
1196.8490354593259
  0
LINE
  8
_0-0_
  6
CONTINUOUS
 62
    4
 10
939.95939175543776
 20
1204.0934791564941
 11
1404.4456556315149
 21
1204.0934791564941
  0
LINE
  8
_0-0_
  6
CONTINUOUS
 62
    4
 10
939.95939175543776
 20
728.09347534179687
 11
1404.4456556315149
 21
728.09347534179687
  0
LINE
  8
_0-0_
  6
CONTINUOUS
 62
    4
 10
1313.3038814331885
 20
767.0934715270996
 11
1313.3038814331885
 21
1165.093463897705
  0
LINE
  8
_0-0_
  6
CONTINUOUS
 62
    7
 10
1313.3038814331885
 20
767.0934715270996
 11
1311.3627385949198
 21
774.33791522426759
  0
LINE
  8
_0-0_
  6
CONTINUOUS
 62
    7
 10
1313.3038814331885
 20
767.0934715270996
 11
1315.2450242714573
 21
774.33791522426759
  0
LINE
  8
_0-0_
  6
CONTINUOUS
 62
    7
 10
1313.3038814331885
 20
1165.093463897705
 11
1315.2450242714573
 21
1157.8490202005368
  0
LINE
  8
_0-0_
  6
CONTINUOUS
 62
    7
 10
1313.3038814331885
 20
1165.093463897705
 11
1311.3627385949198
 21
1157.8490202005368
  0
LINE
  8
_0-0_
  6
CONTINUOUS
 62
    4
 10
939.95939175543776
 20
1165.093463897705
 11
1313.3038814331885
 21
1165.093463897705
  0
LINE
  8
_0-0_
  6
CONTINUOUS
 62
    4
 10
939.95939175543776
 20
767.0934715270996
 11
1313.3038814331885
 21
767.0934715270996
  0
TEXT
  8
_0-0_
 62
    7
 10
939.53117336145396
 20
949.21846771240234
 40
15
 41
1
 50
90
  1
φ45
  0
TEXT
  8
_0-0_
 62
    7
 10
730.63296282674605
 20
949.21846771240234
 40
15
 41
1
 50
90
  1
φ70
  0
TEXT
  8
_0-0_
 62
    7
 10
1403.1956556315149
 20
944.8434772491455
 40
15
 41
1
 50
90
  1
φ476
  0
TEXT
  8
_0-0_
 62
    7
 10
1312.0538814331885
 20
944.84346771240234
 40
15
 41
1
 50
90
  1
φ398
  0
LINE
  8
_0-0_
  6
CONTINUOUS
 62
    4
 10
824.91555245257723
 20
1001.0934677124023
 11
731.88296282674605
 21
1001.0934677124023
  0
LINE
  8
_0-0_
  6
CONTINUOUS
 62
    4
 10
824.91555245257723
 20
931.09346771240234
 11
731.88296282674605
 21
931.09346771240234
  0
LINE
  8
_0-0_
  6
CONTINUOUS
 62
    4
 10
859.42407663362359
 20
988.59346771240234
 11
940.78117336145396
 21
988.59346771240234
  0
LINE
  8
_0-0_
  6
CONTINUOUS
 62
    4
 10
859.42407663362359
 20
943.59346771240234
 11
940.78117336145396
 21
943.59346771240234
  0
LINE
  8
_0-0_
  6
CONTINUOUS
 62
    4
 10
546.00000352409415
 20
640.79632465370536
 11
1136.0000035240941
 21
640.79632465370536
  0
LINE
  8
_0-0_
  6
CONTINUOUS
 62
    7
 10
546.00000352409415
 20
640.79632465370536
 11
553.24444722126236
 21
642.73746749197403
  0
LINE
  8
_0-0_
  6
CONTINUOUS
 62
    7
 10
546.00000352409415
 20
640.79632465370536
 11
553.24444722126236
 21
638.85518181543625
  0
LINE
  8
_0-0_
  6
CONTINUOUS
 62
    7
 10
1136.0000035240941
 20
640.79632465370536
 11
1128.7555598269259
 21
638.85518181543625
  0
LINE
  8
_0-0_
  6
CONTINUOUS
 62
    7
 10
1136.0000035240941
 20
640.79632465370536
 11
1128.7555598269259
 21
642.73746749197403
  0
LINE
  8
_0-0_
  6
CONTINUOUS
 62
    4
 10
1174.9999997093968
 20
549.74197291611631
 11
507.00000733879141
 21
549.74197291611631
  0
LINE
  8
_0-0_
  6
CONTINUOUS
 62
    7
 10
1174.9999997093968
 20
549.74197291611631
 11
1167.7555560122286
 21
547.80083007784742
  0
LINE
  8
_0-0_
  6
CONTINUOUS
 62
    7
 10
1174.9999997093968
 20
549.74197291611631
 11
1167.7555560122286
 21
551.68311575438497
  0
LINE
  8
_0-0_
  6
CONTINUOUS
 62
    7
 10
507.00000733879141
 20
549.74197291611631
 11
514.24445103595962
 21
551.68311575438497
  0
LINE
  8
_0-0_
  6
CONTINUOUS
 62
    7
 10
507.00000733879141
 20
549.74197291611631
 11
514.24445103595962
 21
547.80083007784742
  0
LINE
  8
_0-0_
  6
CONTINUOUS
 62
    4
 10
546.00000352409415
 20
912.15941170053429
 11
546.00000352409415
 21
640.79632465370536
  0
LINE
  8
_0-0_
  6
CONTINUOUS
 62
    4
 10
1136.0000035240941
 20
912.15941170053429
 11
1136.0000035240941
 21
640.79632465370536
  0
LINE
  8
_0-0_
  6
CONTINUOUS
 62
    4
 10
507.00000733879141
 20
912.15941170053429
 11
507.00000733879141
 21
549.74197291611631
  0
LINE
  8
_0-0_
  6
CONTINUOUS
 62
    4
 10
1174.9999997093968
 20
912.15941170053429
 11
1174.9999997093968
 21
549.74197291611631
  0
TEXT
  8
_0-0_
 62
    7
 10
819.75000352409392
 20
642.04632465370536
 40
15
 41
1
 50
0
  1
φ590
  0
TEXT
  8
_0-0_
 62
    7
 10
819.75000352409392
 20
550.99197291611631
 40
15
 41
1
 50
0
  1
φ668
  0
LINE
  8
_0-0_
  6
CONTINUOUS
 62
    7
 10
1264.6231906136299
 20
195.18238457532982
 11
1444.4626435644254
 21
195.18238457532982
  0
LINE
  8
_0-0_
  6
CONTINUOUS
 62
    7
 10
1444.4626435644254
 20
195.18238457532982
 11
1444.4626435644254
 21
164.22101355449694
  0
LINE
  8
_0-0_
  6
CONTINUOUS
 62
    7
 10
1444.4626435644254
 20
164.22101355449694
 11
1264.6231906136299
 21
164.22101355449694
  0
LINE
  8
_0-0_
  6
CONTINUOUS
 62
    7
 10
1264.6231906136299
 20
164.22101355449694
 11
1264.6231906136299
 21
195.18238457532982
  0
LINE
  8
_0-0_
  6
CONTINUOUS
 62
    7
 10
1264.6231906136299
 20
607.48708271057466
 11
1444.4626435644254
 21
607.48708271057466
  0
LINE
  8
_0-0_
  6
CONTINUOUS
 62
    7
 10
1444.4626435644254
 20
607.48708271057466
 11
1444.4626435644254
 21
576.52571168974156
  0
LINE
  8
_0-0_
  6
CONTINUOUS
 62
    7
 10
1444.4626435644254
 20
576.52571168974156
 11
1264.6231906136299
 21
576.52571168974156
  0
LINE
  8
_0-0_
  6
CONTINUOUS
 62
    7
 10
1264.6231906136299
 20
576.52571168974156
 11
1264.6231906136299
 21
607.48708271057466
  0
LINE
  8
_0-0_
  6
CONTINUOUS
 62
    7
 10
801.00000000000011
 20
257.50892733736264
 11
881.00000000000022
 21
257.50892733736287
  0
LINE
  8
_0-0_
  6
CONTINUOUS
 62
    7
 10
507.00000000000022
 20
367.50892733736282
 11
1174.9999999999997
 21
367.50892733736282
  0
LINE
  8
_0-0_
  6
CONTINUOUS
 62
    7
 10
507.00000000000022
 20
367.50892733736282
 11
507.05917159763293
 21
369.43200426043972
  0
LINE
  8
_0-0_
  6
CONTINUOUS
 62
    7
 10
507.05917159763293
 20
369.43200426043972
 11
507.23668639053278
 21
371.20123502967055
  0
LINE
  8
_0-0_
  6
CONTINUOUS
 62
    7
 10
507.23668639053278
 20
371.20123502967055
 11
507.53254437869804
 21
372.81661964505519
  0
LINE
  8
_0-0_
  6
CONTINUOUS
 62
    7
 10
507.94674556212987
 20
374.27815810659353
 11
508.47928994082826
 21
375.5858504142858
  0
LINE
  8
_0-0_
  6
CONTINUOUS
 62
    7
 10
508.47928994082826
 20
375.5858504142858
 11
509.13017751479264
 21
376.73969656813187
  0
LINE
  8
_0-0_
  6
CONTINUOUS
 62
    7
 10
509.13017751479264
 20
376.73969656813187
 11
509.89940828402359
 21
377.7396965681321
  0
LINE
  8
_0-0_
  6
CONTINUOUS
 62
    7
 10
509.89940828402359
 20
377.7396965681321
 11
510.78698224852053
 21
378.58585041428591
  0
LINE
  8
_0-0_
  6
CONTINUOUS
 62
    7
 10
510.78698224852053
 20
378.58585041428591
 11
511.79289940828402
 21
379.27815810659353
  0
LINE
  8
_0-0_
  6
CONTINUOUS
 62
    7
 10
511.79289940828402
 20
379.27815810659353
 11
512.91715976331352
 21
379.81661964505519
  0
LINE
  8
_0-0_
  6
CONTINUOUS
 62
    7
 10
512.91715976331352
 20
379.81661964505519
 11
514.15976331360957
 21
380.20123502967066
  0
LINE
  8
_0-0_
  6
CONTINUOUS
 62
    7
 10
514.15976331360957
 20
380.20123502967066
 11
515.52071005917161
 21
380.43200426043961
  0
LINE
  8
_0-0_
  6
CONTINUOUS
 62
    7
 10
515.52071005917161
 20
380.43200426043961
 11
517.00000000000022
 21
380.5089273373627
  0
LINE
  8
_0-0_
  6
CONTINUOUS
 62
    7
 10
1174.9999999999997
 20
367.50892733736282
 11
1174.940828402367
 21
369.43200426043972
  0
LINE
  8
_0-0_
  6
CONTINUOUS
 62
    7
 10
1174.940828402367
 20
369.43200426043972
 11
1174.7633136094673
 21
371.20123502967055
  0
LINE
  8
_0-0_
  6
CONTINUOUS
 62
    7
 10
1174.7633136094673
 20
371.20123502967055
 11
1174.4674556213019
 21
372.81661964505519
  0
LINE
  8
_0-0_
  6
CONTINUOUS
 62
    7
 10
1174.4674556213019
 20
372.81661964505519
 11
1174.0532544378702
 21
374.27815810659353
  0
LINE
  8
_0-0_
  6
CONTINUOUS
 62
    7
 10
1174.0532544378702
 20
374.27815810659353
 11
1173.5207100591717
 21
375.5858504142858
  0
LINE
  8
_0-0_
  6
CONTINUOUS
 62
    7
 10
1173.5207100591717
 20
375.5858504142858
 11
1172.8698224852073
 21
376.73969656813187
  0
LINE
  8
_0-0_
  6
CONTINUOUS
 62
    7
 10
1172.8698224852073
 20
376.73969656813187
 11
1172.1005917159764
 21
377.7396965681321
  0
LINE
  8
_0-0_
  6
CONTINUOUS
 62
    7
 10
1172.1005917159764
 20
377.7396965681321
 11
1171.2130177514795
 21
378.58585041428591
  0
LINE
  8
_0-0_
  6
CONTINUOUS
 62
    7
 10
1171.2130177514795
 20
378.58585041428591
 11
1170.2071005917159
 21
379.27815810659353
  0
LINE
  8
_0-0_
  6
CONTINUOUS
 62
    7
 10
1170.2071005917159
 20
379.27815810659353
 11
1169.0828402366864
 21
379.81661964505519
  0
LINE
  8
_0-0_
  6
CONTINUOUS
 62
    7
 10
1169.0828402366864
 20
379.81661964505519
 11
1167.8402366863904
 21
380.20123502967066
  0
LINE
  8
_0-0_
  6
CONTINUOUS
 62
    7
 10
1167.8402366863904
 20
380.20123502967066
 11
1166.4792899408284
 21
380.43200426043961
  0
LINE
  8
_0-0_
  6
CONTINUOUS
 62
    7
 10
1166.4792899408284
 20
380.43200426043961
 11
1164.9999999999997
 21
380.5089273373627
  0
LINE
  8
_0-0_
  6
CONTINUOUS
 62
    7
 10
517.00000000000022
 20
380.5089273373627
 11
1166.4792899408284
 21
380.5089273373627
  0
LINE
  8
_0-0_
  6
CONTINUOUS
 62
    4
 10
818.50000000000022
 20
179.49784692049598
 11
863.50000000000022
 21
179.49784692049598
  0
LINE
  8
_0-0_
  6
CONTINUOUS
 62
    7
 10
818.50000000000022
 20
179.49784692049598
 11
825.74444369716798
 21
181.43898975876493
  0
LINE
  8
_0-0_
  6
CONTINUOUS
 62
    7
 10
818.50000000000022
 20
179.49784692049598
 11
825.74444369716798
 21
177.55670408222698
  0
LINE
  8
_0-0_
  6
CONTINUOUS
 62
    7
 10
863.50000000000022
 20
179.49784692049598
 11
856.25555630283201
 21
177.55670408222698
  0
LINE
  8
_0-0_
  6
CONTINUOUS
 62
    7
 10
863.50000000000022
 20
179.49784692049598
 11
856.25555630283201
 21
181.43898975876493
  0
LINE
  8
_0-0_
  6
CONTINUOUS
 62
    4
 10
803.50000000000011
 20
116.76705718514966
 11
878.50000000000022
 21
116.76705718514966
  0
LINE
  8
_0-0_
  6
CONTINUOUS
 62
    7
 10
803.50000000000011
 20
116.76705718514966
 11
810.74444369716798
 21
118.70820002341866
  0
LINE
  8
_0-0_
  6
CONTINUOUS
 62
    7
 10
803.50000000000011
 20
116.76705718514966
 11
810.74444369716798
 21
114.82591434688083
  0
LINE
  8
_0-0_
  6
CONTINUOUS
 62
    7
 10
878.50000000000022
 20
116.76705718514966
 11
871.25555630283201
 21
114.82591434688083
  0
LINE
  8
_0-0_
  6
CONTINUOUS
 62
    7
 10
878.50000000000022
 20
116.76705718514966
 11
871.25555630283201
 21
118.70820002341866
  0
LINE
  8
_0-0_
  6
CONTINUOUS
 62
    4
 10
878.50000000000022
 20
116.76705718514966
 11
878.50000000000022
 21
228.2884611590984
  0
LINE
  8
_0-0_
  6
CONTINUOUS
 62
    4
 10
803.50000000000011
 20
116.76705718514966
 11
803.50000000000011
 21
228.2884611590984
  0
LINE
  8
_0-0_
  6
CONTINUOUS
 62
    4
 10
1404.4456556315149
 20
245.50892733736276
 11
1404.4456556315149
 21
380.5089273373627
  0
LINE
  8
_0-0_
  6
CONTINUOUS
 62
    7
 10
1404.4456556315149
 20
245.50892733736276
 11
1402.5045127932462
 21
252.75337103453091
  0
LINE
  8
_0-0_
  6
CONTINUOUS
 62
    7
 10
1404.4456556315149
 20
245.50892733736276
 11
1406.3867984697835
 21
252.75337103453091
  0
LINE
  8
_0-0_
  6
CONTINUOUS
 62
    7
 10
1404.4456556315149
 20
380.5089273373627
 11
1406.3867984697835
 21
373.26448364019483
  0
LINE
  8
_0-0_
  6
CONTINUOUS
 62
    7
 10
1404.4456556315149
 20
380.5089273373627
 11
1402.5045127932462
 21
373.26448364019483
  0
LINE
  8
_0-0_
  6
CONTINUOUS
 62
    4
 10
1404.4456556315149
 20
245.50892733736276
 11
901.81428056858339
 21
245.50892733736276
  0
LINE
  8
_0-0_
  6
CONTINUOUS
 62
    4
 10
1315.2450242714573
 20
405.5089273373627
 11
1315.2450242714573
 21
342.50892733736287
  0
LINE
  8
_0-0_
  6
CONTINUOUS
 62
    7
 10
1315.2450242714573
 20
367.50892733736282
 11
1317.1861671097262
 21
360.26448364019495
  0
LINE
  8
_0-0_
  6
CONTINUOUS
 62
    7
 10
1315.2450242714573
 20
367.50892733736282
 11
1313.3038814331885
 21
360.26448364019495
  0
LINE
  8
_0-0_
  6
CONTINUOUS
 62
    7
 10
1315.2450242714573
 20
380.5089273373627
 11
1313.3038814331885
 21
387.75337103453091
  0
LINE
  8
_0-0_
  6
CONTINUOUS
 62
    7
 10
1315.2450242714573
 20
380.5089273373627
 11
1317.1861671097262
 21
387.75337103453091
  0
LINE
  8
_0-0_
  6
CONTINUOUS
 62
    4
 10
1404.4456556315149
 20
380.5089273373627
 11
1213.1507054591086
 21
380.5089273373627
  0
LINE
  8
_0-0_
  6
CONTINUOUS
 62
    4
 10
1315.2450242714573
 20
367.50892733736282
 11
1213.1507054591086
 21
367.50892733736282
  0
TEXT
  8
_0-0_
 62
    7
 10
1403.1956556315149
 20
300.50892733736282
 40
15
 41
1
 50
90
  1
135
  0
TEXT
  8
_0-0_
 62
    7
 10
1313.9950242714573
 20
365.88392733736293
 40
15
 41
1
 50
90
  1
13
  0
LINE
  8
_0-0_
  6
CONTINUOUS
 62
    4
 10
507.00000733879141
 20
282.50892733736287
 11
507.00000733879141
 21
220.50892733736276
  0
LINE
  8
_0-0_
  6
CONTINUOUS
 62
    7
 10
507.00000733879141
 20
245.50892733736276
 11
508.94115017706019
 21
238.26448364019495
  0
LINE
  8
_0-0_
  6
CONTINUOUS
 62
    7
 10
507.00000733879141
 20
245.50892733736276
 11
505.05886450052264
 21
238.26448364019495
  0
LINE
  8
_0-0_
  6
CONTINUOUS
 62
    7
 10
507.00000733879141
 20
257.50892733736287
 11
505.05886450052264
 21
264.75337103453085
  0
LINE
  8
_0-0_
  6
CONTINUOUS
 62
    7
 10
507.00000733879141
 20
257.50892733736287
 11
508.94115017706019
 21
264.75337103453085
  0
LINE
  8
_0-0_
  6
CONTINUOUS
 62
    4
 10
507.00000733879141
 20
245.50892733736276
 11
783.44275189351003
 21
245.50892733736276
  0
LINE
  8
_0-0_
  6
CONTINUOUS
 62
    4
 10
507.00000733879141
 20
257.50892733736287
 11
663.12951189222565
 21
257.50892733736287
  0
TEXT
  8
_0-0_
 62
    7
 10
505.75000733879141
 20
243.38392733736293
 40
15
 41
1
 50
90
  1
12
  0
TEXT
  8
_0-0_
 62
    7
 10
824.12500000000022
 20
180.74784692049598
 40
15
 41
1
 50
0
  1
φ45
  0
TEXT
  8
_0-0_
 62
    7
 10
824.12500000000022
 20
118.01705718514966
 40
15
 41
1
 50
0
  1
φ75
  0
TEXT
  8
_0-0_
 62
    7
 10
801.75741146042093
 20
88.748557533051211
 40
15
 41
1
 50
0
  1
（±3mm）
  0
TEXT
  8
_0-0_
 62
    7
 10
1309.8274813779794
 20
993.40534626604744
 40
15
 41
1
 50
90
  1
（±5mm）
  0
TEXT
  8
_0-0_
 62
    7
 10
1398.8766935997646
 20
995.00503271314482
 40
15
 41
1
 50
90
  1
（±5mm）
  0
TEXT
  8
_0-0_
 62
    7
 10
866.23342450451241
 20
643.62143035535177
 40
15
 41
1
 50
0
  1
（±5mm）
  0
TEXT
  8
_0-0_
 62
    7
 10
866.76102536630719
 20
552.6982151726886
 40
15
 41
1
 50
0
  1
（±5mm）
  0
TEXT
  8
_0-0_
 62
    7
 10
1426.8458687772899
 20
264.3806855954985
 40
15
 41
1
 50
90
  1
（±10mm）
  0
TEXT
  8
_0-0_
 62
    7
 10
1335.2854937917127
 20
309.83829678581929
 40
15
 41
1
 50
90
  1
（±5mm）
  0
TEXT
  8
_0-0_
 62
    7
 10
1636.8044206847
 20
100.5281731993719
 40
15
 41
1
 50
0
  1
PBO.24.9% クリスタル
  0
TEXT
  8
_0-0_
 62
    7
 10
1636.8044206847
 20
75.528173199371849
 40
15
 41
1
 50
0
  1
容量　12.1L
  0
TEXT
  8
_0-0_
 62
    7
 10
1636.8044206847
 20
50.528173199371849
 40
15
 41
1
 50
0
  1
重量　7～9ｋｇ
  0
LINE
  8
_0-0_
  6
CONTINUOUS
 62
    7
 10
753.28248300839197
 20
261.94254462039992
 11
756.28851351388652
 21
261.96967672565631
  0
LINE
  8
_0-0_
  6
CONTINUOUS
 62
    7
 10
756.28851351388652
 20
261.96967672565631
 11
759.26831117379867
 21
261.98082317551734
  0
LINE
  8
_0-0_
  6
CONTINUOUS
 62
    7
 10
759.26831117379867
 20
261.98082317551734
 11
762.21873955479259
 21
261.97363938196485
  0
LINE
  8
_0-0_
  6
CONTINUOUS
 62
    7
 10
762.21873955479259
 20
261.97363938196485
 11
765.13601484316814
 21
261.94594206892446
  0
LINE
  8
_0-0_
  6
CONTINUOUS
 62
    7
 10
765.13601484316814
 20
261.94594206892446
 11
768.01574237843715
 21
261.89572785250362
  0
LINE
  8
_0-0_
  6
CONTINUOUS
 62
    7
 10
768.01574237843715
 20
261.89572785250362
 11
770.85295318690702
 21
261.82119182123125
  0
LINE
  8
_0-0_
  6
CONTINUOUS
 62
    7
 10
770.85295318690702
 20
261.82119182123125
 11
773.64214051525812
 21
261.72074611629426
  0
LINE
  8
_0-0_
  6
CONTINUOUS
 62
    7
 10
773.64214051525812
 20
261.72074611629426
 11
776.37729636412495
 21
261.59303851177782
  0
LINE
  8
_0-0_
  6
CONTINUOUS
 62
    7
 10
776.37729636412495
 20
261.59303851177782
 11
779.05194802167488
 21
261.4369709949031
  0
LINE
  8
_0-0_
  6
CONTINUOUS
 62
    7
 10
779.05194802167488
 20
261.4369709949031
 11
781.65919459718986
 21
261.25171834626564
  0
LINE
  8
_0-0_
  6
CONTINUOUS
 62
    7
 10
781.65919459718986
 20
261.25171834626564
 11
784.19174355464338
 21
261.03674672007412
  0
LINE
  8
_0-0_
  6
CONTINUOUS
 62
    7
 10
784.19174355464338
 20
261.03674672007412
 11
786.64194724628339
 21
260.79183222438865
  0
LINE
  8
_0-0_
  6
CONTINUOUS
 62
    7
 10
786.64194724628339
 20
260.79183222438865
 11
789.00183944620994
 21
260.51707950135943
  0
LINE
  8
_0-0_
  6
CONTINUOUS
 62
    7
 10
789.00183944620994
 20
260.51707950135943
 11
791.26317188395591
 21
260.21294030746497
  0
LINE
  8
_0-0_
  6
CONTINUOUS
 62
    7
 10
791.26317188395591
 20
260.21294030746497
 11
793.41745077806695
 21
259.88023209375086
  0
LINE
  8
_0-0_
  6
CONTINUOUS
 62
    7
 10
793.41745077806695
 20
259.88023209375086
 11
795.45597336968103
 21
259.52015658606825
  0
LINE
  8
_0-0_
  6
CONTINUOUS
 62
    7
 10
795.45597336968103
 20
259.52015658606825
 11
797.36986445610841
 21
259.13431836531225
  0
LINE
  8
_0-0_
  6
CONTINUOUS
 62
    7
 10
797.36986445610841
 20
259.13431836531225
 11
799.15011292441181
 21
258.7247434476597
  0
LINE
  8
_0-0_
  6
CONTINUOUS
 62
    7
 10
799.15011292441181
 20
258.7247434476597
 11
800.78760828498525
 21
258.29389786480896
  0
LINE
  8
_0-0_
  6
CONTINUOUS
 62
    7
 10
800.78760828498525
 20
258.29389786480896
 11
802.27317720513542
 21
257.84470624421743
  0
LINE
  8
_0-0_
  6
CONTINUOUS
 62
    7
 10
802.27317720513542
 20
257.84470624421743
 11
803.50000000000011
 21
257.50892733736287
  0
TEXT
  8
_0-0_
 62
    7
 10
-156.76442995114985
 20
902.87167817961903
 40
20
 41
1
 50
0
  1
SC-WB010 MARGHERITA
  0
TEXT
  8
_0-0_
 62
    7
 10
-156.76442995114985
 20
935.37167817961903
 40
20
 41
1
 50
0
  1
SC-WB009 ROSANNA
  0
TEXT
  8
_0-0_
 62
    7
 10
-156.76442995114985
 20
967.87167817961903
 40
20
 41
1
 50
0
  1
SC-WB008 RITA
  0
TEXT
  8
_0-0_
 62
    7
 10
-156.76442995114985
 20
1000.3716781796188
 40
20
 41
1
 50
0
  1
SC-WB007 DORA
  0
TEXT
  8
_0-0_
 62
    7
 10
-156.76442995114985
 20
1032.8716781796188
 40
20
 41
1
 50
0
  1
SC-WB006  SAKURA
  0
TEXT
  8
_0-0_
 62
    7
 10
-156.76442995114985
 20
1065.3716781796188
 40
20
 41
1
 50
0
  1
SC-WB005 VINEA
  0
TEXT
  8
_0-0_
 62
    7
 10
-156.76442995114985
 20
1097.8716781796188
 40
20
 41
1
 50
0
  1
SC-WB004 VIERA
  0
TEXT
  8
_0-0_
 62
    7
 10
-156.76442995114985
 20
1130.3716781796188
 40
20
 41
1
 50
0
  1
SC-WB003 JULIA
  0
TEXT
  8
_0-0_
 62
    7
 10
-156.76442995114985
 20
1162.8716781796188
 40
20
 41
1
 50
0
  1
SC-WB002 ELIZABETH Decor500
  0
TEXT
  8
_0-0_
 62
    7
 10
-156.76442995114985
 20
1195.3716781796188
 40
20
 41
1
 50
0
  1
SC-WB001 VICTORIA Decor160
  0
LINE
  8
_0-0_
  6
CONTINUOUS
 62
    7
 10
721.9333695918508
 20
261.38596228734979
 11
725.19776990977538
 21
261.42179484847315
  0
LINE
  8
_0-0_
  6
CONTINUOUS
 62
    7
 10
725.19776990977538
 20
261.42179484847315
 11
728.42365840778859
 21
261.46987213881766
  0
LINE
  8
_0-0_
  6
CONTINUOUS
 62
    7
 10
728.42365840778859
 20
261.46987213881766
 11
731.61638180310524
 21
261.52725836404511
  0
LINE
  8
_0-0_
  6
CONTINUOUS
 62
    7
 10
731.61638180310524
 20
261.52725836404511
 11
734.78027409677486
 21
261.59099323937607
  0
LINE
  8
_0-0_
  6
CONTINUOUS
 62
    7
 10
734.78027409677486
 20
261.59099323937607
 11
737.9186931072619
 21
261.65811056982812
  0
LINE
  8
_0-0_
  6
CONTINUOUS
 62
    7
 10
737.9186931072619
 20
261.65811056982812
 11
741.03405700402652
 21
261.7256568304557
  0
LINE
  8
_0-0_
  6
CONTINUOUS
 62
    7
 10
741.03405700402652
 20
261.7256568304557
 11
744.12788084110593
 21
261.79070974658611
  0
LINE
  8
_0-0_
  6
CONTINUOUS
 62
    7
 10
744.12788084110593
 20
261.79070974658611
 11
747.20081309069007
 21
261.85039687406089
  0
LINE
  8
_0-0_
  6
CONTINUOUS
 62
    7
 10
747.20081309069007
 20
261.85039687406089
 11
750.25267217670466
 21
261.9019141794713
  0
LINE
  8
_0-0_
  6
CONTINUOUS
 62
    7
 10
750.25267217670466
 20
261.9019141794713
 11
753.28248300839197
 21
261.94254462039992
  0
LINE
  8
_0-0_
  6
CONTINUOUS
 62
    7
 10
580.2007598316519
 20
323.70216131022777
 11
581.98571044838195
 21
321.47034163862383
  0
LINE
  8
_0-0_
  6
CONTINUOUS
 62
    7
 10
581.98571044838195
 20
321.47034163862383
 11
585.07924359150968
 21
317.63983604418069
  0
LINE
  8
_0-0_
  6
CONTINUOUS
 62
    7
 10
585.07924359150968
 20
317.63983604418069
 11
588.21731028963745
 21
313.85782866251042
  0
LINE
  8
_0-0_
  6
CONTINUOUS
 62
    7
 10
588.21731028963745
 20
313.85782866251042
 11
591.42809633706929
 21
310.15501456498816
  0
LINE
  8
_0-0_
  6
CONTINUOUS
 62
    7
 10
591.42809633706929
 20
310.15501456498816
 11
594.73978752810876
 21
306.56208882298921
  0
LINE
  8
_0-0_
  6
CONTINUOUS
 62
    7
 10
594.73978752810876
 20
306.56208882298921
 11
598.18056965706011
 21
303.10974650788875
  0
LINE
  8
_0-0_
  6
CONTINUOUS
 62
    7
 10
598.18056965706011
 20
303.10974650788875
 11
600.24647942822025
 21
301.18389874560091
  0
LINE
  8
_0-0_
  6
CONTINUOUS
 62
    7
 10
600.24647942822025
 20
301.18389874560091
 11
602.97520405695172
 21
298.80819125635662
  0
LINE
  8
_0-0_
  6
CONTINUOUS
 62
    7
 10
602.97520405695172
 20
298.80819125635662
 11
607.88358224966555
 21
294.94163612395209
  0
LINE
  8
_0-0_
  6
CONTINUOUS
 62
    7
 10
607.88358224966555
 20
294.94163612395209
 11
613.01758764198393
 21
291.34212488787318
  0
LINE
  8
_0-0_
  6
CONTINUOUS
 62
    7
 10
613.01758764198393
 20
291.34212488787318
 11
618.33978268712712
 21
287.98238703774791
  0
LINE
  8
_0-0_
  6
CONTINUOUS
 62
    7
 10
618.33978268712712
 20
287.98238703774791
 11
623.81272983831536
 21
284.83515206320441
  0
LINE
  8
_0-0_
  6
CONTINUOUS
 62
    7
 10
623.81272983831536
 20
284.83515206320441
 11
629.39899154876889
 21
281.87314945387049
  0
LINE
  8
_0-0_
  6
CONTINUOUS
 62
    7
 10
629.39899154876889
 20
281.87314945387049
 11
632.67619173170328
 21
280.22931541104264
  0
LINE
  8
_0-0_
  6
CONTINUOUS
 62
    7
 10
632.67619173170328
 20
280.22931541104264
 11
635.2112739048573
 21
278.99825582272376
  0
LINE
  8
_0-0_
  6
CONTINUOUS
 62
    7
 10
635.2112739048573
 20
278.99825582272376
 11
639.6093738977604
 21
276.95182985086103
  0
LINE
  8
_0-0_
  6
CONTINUOUS
 62
    7
 10
639.6093738977604
 20
276.95182985086103
 11
644.04491761230565
 21
275.01624605010852
  0
LINE
  8
_0-0_
  6
CONTINUOUS
 62
    7
 10
644.04491761230565
 20
275.01624605010852
 11
648.52130787483849
 21
273.20839396337999
  0
LINE
  8
_0-0_
  6
CONTINUOUS
 62
    7
 10
648.52130787483849
 20
273.20839396337999
 11
653.04194751170371
 21
271.54516313358908
  0
LINE
  8
_0-0_
  6
CONTINUOUS
 62
    7
 10
653.04194751170371
 20
271.54516313358908
 11
657.61023934924651
 21
270.0434431036495
  0
LINE
  8
_0-0_
  6
CONTINUOUS
 62
    7
 10
657.61023934924651
 20
270.0434431036495
 11
660.28302374389886
 21
269.25310509294064
  0
LINE
  8
_0-0_
  6
CONTINUOUS
 62
    7
 10
660.28302374389886
 20
269.25310509294064
 11
663.08926557547988
 21
268.4945951539774
  0
LINE
  8
_0-0_
  6
CONTINUOUS
 62
    7
 10
663.08926557547988
 20
268.4945951539774
 11
667.96785806866728
 21
267.3296452887572
  0
LINE
  8
_0-0_
  6
CONTINUOUS
 62
    7
 10
667.96785806866728
 20
267.3296452887572
 11
672.88933958020868
 21
266.31690656081985
  0
LINE
  8
_0-0_
  6
CONTINUOUS
 62
    7
 10
690.95012949599868
 20
263.67028871992141
 11
699.03018209368758
 21
262.76550609956922
  0
LINE
  8
_0-0_
  6
CONTINUOUS
 62
    7
 10
699.03018209368758
 20
262.76550609956922
 11
707.13850299723992
 21
262.00022806320214
  0
LINE
  8
_0-0_
  6
CONTINUOUS
 62
    7
 10
707.13850299723992
 20
262.00022806320214
 11
715.26236384511582
 21
261.36254059648274
  0
LINE
  8
_0-0_
  6
CONTINUOUS
 62
    7
 10
715.26236384511582
 20
261.36254059648274
 11
718.62406148705849
 21
261.36526717910606
  0
LINE
  8
_0-0_
  6
CONTINUOUS
 62
    7
 10
718.62406148705849
 20
261.36526717910606
 11
721.9333695918508
 21
261.38596228734979
  0
LINE
  8
_0-0_
  6
CONTINUOUS
 62
    7
 10
558.68736793151788
 20
356.55344836751703
 11
562.39208106777857
 21
349.12393934794772
  0
LINE
  8
_0-0_
  6
CONTINUOUS
 62
    7
 10
562.39208106777857
 20
349.12393934794772
 11
566.39330024580067
 21
342.1561691665621
  0
LINE
  8
_0-0_
  6
CONTINUOUS
 62
    7
 10
566.39330024580067
 20
342.1561691665621
 11
570.69602442034386
 21
335.61619246001521
  0
LINE
  8
_0-0_
  6
CONTINUOUS
 62
    7
 10
570.69602442034386
 20
335.61619246001521
 11
575.30003806073216
 21
329.47379015241148
  0
LINE
  8
_0-0_
  6
CONTINUOUS
 62
    7
 10
575.30003806073216
 20
329.47379015241148
 11
580.2007598316519
 21
323.70216131022777
  0
LINE
  8
_0-0_
  6
CONTINUOUS
 62
    7
 10
547.89310835364153
 20
366.89078089420229
 11
546
 21
367.50892733736282
  0
LINE
  8
_0-0_
  6
CONTINUOUS
 62
    7
 10
558.34010958284272
 20
357.35872102673022
 11
558.68736793151788
 21
356.55344836751703
  0
LINE
  8
_0-0_
  6
CONTINUOUS
 62
    7
 10
558.34010958284272
 20
357.35872102673016
 11
557.69460803810454
 21
358.63236882195337
  0
LINE
  8
_0-0_
  6
CONTINUOUS
 62
    7
 10
557.69460803810454
 20
358.63236882195337
 11
556.84463625643604
 21
359.94048623980313
  0
LINE
  8
_0-0_
  6
CONTINUOUS
 62
    7
 10
556.84463625643604
 20
359.94048623980313
 11
555.81602020031675
 21
361.24332679447746
  0
LINE
  8
_0-0_
  6
CONTINUOUS
 62
    7
 10
555.81602020031675
 20
361.24332679447746
 11
554.64001384810705
 21
362.50130433499174
  0
LINE
  8
_0-0_
  6
CONTINUOUS
 62
    7
 10
554.64001384810705
 20
362.50130433499174
 11
553.35234955773091
 21
363.67619585034481
  0
LINE
  8
_0-0_
  6
CONTINUOUS
 62
    7
 10
553.35234955773091
 20
363.67619585034481
 11
551.99215235706185
 21
364.73230285636634
  0
LINE
  8
_0-0_
  6
CONTINUOUS
 62
    7
 10
551.99215235706185
 20
364.73230285636634
 11
550.60075114974915
 21
365.63753607609442
  0
LINE
  8
_0-0_
  6
CONTINUOUS
 62
    7
 10
550.60075114974915
 20
365.63753607609442
 11
549.22042295739413
 21
366.36439045621762
  0
LINE
  8
_0-0_
  6
CONTINUOUS
 62
    7
 10
549.22042295739413
 20
366.36439045621762
 11
547.89310835364153
 21
366.89078089420218
  0
LINE
  8
_0-0_
  6
CONTINUOUS
 62
    7
 10
672.88933958020868
 20
266.31690656081985
 11
690.95012949599868
 21
263.67028871992141
  0
LINE
  8
_0-0_
  6
CONTINUOUS
 62
    7
 10
928.71751699160836
 20
261.94254462039992
 11
925.71148648611369
 21
261.96967672565631
  0
LINE
  8
_0-0_
  6
CONTINUOUS
 62
    7
 10
925.71148648611369
 20
261.96967672565631
 11
922.73168882620166
 21
261.98082317551734
  0
LINE
  8
_0-0_
  6
CONTINUOUS
 62
    7
 10
922.73168882620166
 20
261.98082317551734
 11
919.78126044520763
 21
261.97363938196485
  0
LINE
  8
_0-0_
  6
CONTINUOUS
 62
    7
 10
919.78126044520763
 20
261.97363938196485
 11
916.86398515683208
 21
261.94594206892446
  0
LINE
  8
_0-0_
  6
CONTINUOUS
 62
    7
 10
916.86398515683208
 20
261.94594206892446
 11
913.98425762156307
 21
261.89572785250362
  0
LINE
  8
_0-0_
  6
CONTINUOUS
 62
    7
 10
913.98425762156307
 20
261.89572785250362
 11
911.14704681309331
 21
261.82119182123125
  0
LINE
  8
_0-0_
  6
CONTINUOUS
 62
    7
 10
911.14704681309331
 20
261.82119182123125
 11
908.35785948474222
 21
261.72074611629426
  0
LINE
  8
_0-0_
  6
CONTINUOUS
 62
    7
 10
908.35785948474222
 20
261.72074611629426
 11
905.62270363587526
 21
261.59303851177782
  0
LINE
  8
_0-0_
  6
CONTINUOUS
 62
    7
 10
905.62270363587526
 20
261.59303851177782
 11
902.94805197832556
 21
261.4369709949031
  0
LINE
  8
_0-0_
  6
CONTINUOUS
 62
    7
 10
902.94805197832556
 20
261.4369709949031
 11
900.34080540281024
 21
261.25171834626564
  0
LINE
  8
_0-0_
  6
CONTINUOUS
 62
    7
 10
900.34080540281024
 20
261.25171834626564
 11
897.80825644535707
 21
261.03674672007412
  0
LINE
  8
_0-0_
  6
CONTINUOUS
 62
    7
 10
897.80825644535707
 20
261.03674672007412
 11
895.35805275371671
 21
260.79183222438865
  0
LINE
  8
_0-0_
  6
CONTINUOUS
 62
    7
 10
895.35805275371671
 20
260.79183222438865
 11
892.99816055379051
 21
260.51707950135943
  0
LINE
  8
_0-0_
  6
CONTINUOUS
 62
    7
 10
892.99816055379051
 20
260.51707950135943
 11
890.73682811604453
 21
260.21294030746497
  0
LINE
  8
_0-0_
  6
CONTINUOUS
 62
    7
 10
890.73682811604453
 20
260.21294030746497
 11
888.5825492219335
 21
259.88023209375086
  0
LINE
  8
_0-0_
  6
CONTINUOUS
 62
    7
 10
888.5825492219335
 20
259.88023209375086
 11
886.54402663031942
 21
259.52015658606825
  0
LINE
  8
_0-0_
  6
CONTINUOUS
 62
    7
 10
886.54402663031942
 20
259.52015658606825
 11
884.63013554389203
 21
259.13431836531225
  0
LINE
  8
_0-0_
  6
CONTINUOUS
 62
    7
 10
884.63013554389203
 20
259.13431836531225
 11
882.84988707558864
 21
258.7247434476597
  0
LINE
  8
_0-0_
  6
CONTINUOUS
 62
    7
 10
881.21239171501497
 20
258.29389786480896
 11
879.72682279486502
 21
257.84470624421743
  0
LINE
  8
_0-0_
  6
CONTINUOUS
 62
    7
 10
879.72682279486502
 20
257.84470624421743
 11
878.50000000000022
 21
257.50892733736287
  0
LINE
  8
_0-0_
  6
CONTINUOUS
 62
    7
 10
960.06663040814942
 20
261.38596228734979
 11
956.80223009022483
 21
261.42179484847315
  0
LINE
  8
_0-0_
  6
CONTINUOUS
 62
    7
 10
956.80223009022483
 20
261.42179484847315
 11
953.57634159221174
 21
261.46987213881766
  0
LINE
  8
_0-0_
  6
CONTINUOUS
 62
    7
 10
953.57634159221174
 20
261.46987213881766
 11
950.38361819689498
 21
261.52725836404511
  0
LINE
  8
_0-0_
  6
CONTINUOUS
 62
    7
 10
950.38361819689498
 20
261.52725836404511
 11
947.21972590322548
 21
261.59099323937607
  0
LINE
  8
_0-0_
  6
CONTINUOUS
 62
    7
 10
947.21972590322548
 20
261.59099323937607
 11
944.08130689273843
 21
261.65811056982812
  0
LINE
  8
_0-0_
  6
CONTINUOUS
 62
    7
 10
944.08130689273843
 20
261.65811056982812
 11
940.96594299597381
 21
261.7256568304557
  0
LINE
  8
_0-0_
  6
CONTINUOUS
 62
    7
 10
940.96594299597381
 20
261.7256568304557
 11
937.87211915889429
 21
261.79070974658611
  0
LINE
  8
_0-0_
  6
CONTINUOUS
 62
    7
 10
937.87211915889429
 20
261.79070974658611
 11
934.79918690931026
 21
261.85039687406089
  0
LINE
  8
_0-0_
  6
CONTINUOUS
 62
    7
 10
934.79918690931026
 20
261.85039687406089
 11
931.74732782329556
 21
261.9019141794713
  0
LINE
  8
_0-0_
  6
CONTINUOUS
 62
    7
 10
931.74732782329556
 20
261.9019141794713
 11
928.71751699160836
 21
261.94254462039992
  0
LINE
  8
_0-0_
  6
CONTINUOUS
 62
    7
 10
1101.7992401683484
 20
323.70216131022777
 11
1100.0142895516182
 21
321.47034163862383
  0
LINE
  8
_0-0_
  6
CONTINUOUS
 62
    7
 10
1100.0142895516182
 20
321.47034163862383
 11
1096.9207564084906
 21
317.63983604418069
  0
LINE
  8
_0-0_
  6
CONTINUOUS
 62
    7
 10
1096.9207564084906
 20
317.63983604418069
 11
1093.7826897103627
 21
313.85782866251042
  0
LINE
  8
_0-0_
  6
CONTINUOUS
 62
    7
 10
1093.7826897103627
 20
313.85782866251042
 11
1090.5719036629311
 21
310.15501456498816
  0
LINE
  8
_0-0_
  6
CONTINUOUS
 62
    7
 10
1090.5719036629311
 20
310.15501456498816
 11
1087.2602124718914
 21
306.56208882298921
  0
LINE
  8
_0-0_
  6
CONTINUOUS
 62
    7
 10
1087.2602124718914
 20
306.56208882298921
 11
1083.8194303429402
 21
303.10974650788887
  0
LINE
  8
_0-0_
  6
CONTINUOUS
 62
    7
 10
1083.8194303429402
 20
303.10974650788887
 11
1081.7535205717799
 21
301.18389874560102
  0
LINE
  8
_0-0_
  6
CONTINUOUS
 62
    7
 10
1081.7535205717799
 20
301.18389874560102
 11
1079.0247959430485
 21
298.80819125635673
  0
LINE
  8
_0-0_
  6
CONTINUOUS
 62
    7
 10
1079.0247959430485
 20
298.80819125635673
 11
1074.1164177503346
 21
294.94163612395209
  0
LINE
  8
_0-0_
  6
CONTINUOUS
 62
    7
 10
1074.1164177503346
 20
294.94163612395209
 11
1068.9824123580165
 21
291.34212488787318
  0
LINE
  8
_0-0_
  6
CONTINUOUS
 62
    7
 10
1068.9824123580165
 20
291.34212488787318
 11
1063.6602173128731
 21
287.98238703774808
  0
LINE
  8
_0-0_
  6
CONTINUOUS
 62
    7
 10
1063.6602173128731
 20
287.98238703774808
 11
1058.1872701616848
 21
284.83515206320453
  0
LINE
  8
_0-0_
  6
CONTINUOUS
 62
    7
 10
1058.1872701616848
 20
284.83515206320453
 11
1052.6010084512313
 21
281.87314945387049
  0
LINE
  8
_0-0_
  6
CONTINUOUS
 62
    7
 10
1052.6010084512313
 20
281.87314945387049
 11
1049.3238082682969
 21
280.22931541104276
  0
LINE
  8
_0-0_
  6
CONTINUOUS
 62
    7
 10
1049.3238082682969
 20
280.22931541104276
 11
1046.7887260951429
 21
278.99825582272393
  0
LINE
  8
_0-0_
  6
CONTINUOUS
 62
    7
 10
1046.7887260951429
 20
278.99825582272393
 11
1042.3906261022398
 21
276.95182985086114
  0
LINE
  8
_0-0_
  6
CONTINUOUS
 62
    7
 10
1042.3906261022398
 20
276.95182985086114
 11
1037.9550823876945
 21
275.01624605010852
  0
LINE
  8
_0-0_
  6
CONTINUOUS
 62
    7
 10
1037.9550823876945
 20
275.01624605010852
 11
1033.4786921251618
 21
273.2083939633801
  0
LINE
  8
_0-0_
  6
CONTINUOUS
 62
    7
 10
1033.4786921251618
 20
273.2083939633801
 11
1028.9580524882965
 21
271.54516313358919
  0
LINE
  8
_0-0_
  6
CONTINUOUS
 62
    7
 10
1028.9580524882965
 20
271.54516313358919
 11
1024.3897606507537
 21
270.04344310364967
  0
LINE
  8
_0-0_
  6
CONTINUOUS
 62
    7
 10
1024.3897606507537
 20
270.04344310364967
 11
1021.7169762561012
 21
269.25310509294087
  0
LINE
  8
_0-0_
  6
CONTINUOUS
 62
    7
 10
1021.7169762561012
 20
269.25310509294087
 11
1018.9107344245203
 21
268.49459515397762
  0
LINE
  8
_0-0_
  6
CONTINUOUS
 62
    7
 10
1018.9107344245203
 20
268.49459515397762
 11
1014.0321419313329
 21
267.32964528875726
  0
LINE
  8
_0-0_
  6
CONTINUOUS
 62
    7
 10
1014.0321419313329
 20
267.32964528875726
 11
1009.1106604197916
 21
266.31690656081985
  0
LINE
  8
_0-0_
  6
CONTINUOUS
 62
    7
 10
991.04987050400154
 20
263.67028871992141
 11
982.96981790631275
 21
262.76550609956922
  0
LINE
  8
_0-0_
  6
CONTINUOUS
 62
    7
 10
982.96981790631275
 20
262.76550609956922
 11
974.86149700276041
 21
262.00022806320214
  0
LINE
  8
_0-0_
  6
CONTINUOUS
 62
    7
 10
974.86149700276041
 20
262.00022806320214
 11
966.73763615488451
 21
261.36254059648274
  0
LINE
  8
_0-0_
  6
CONTINUOUS
 62
    7
 10
966.73763615488451
 20
261.36254059648274
 11
963.37593851294172
 21
261.36526717910606
  0
LINE
  8
_0-0_
  6
CONTINUOUS
 62
    7
 10
963.37593851294172
 20
261.36526717910606
 11
960.06663040814942
 21
261.38596228734979
  0
LINE
  8
_0-0_
  6
CONTINUOUS
 62
    7
 10
1123.3126320684823
 20
356.55344836751703
 11
1119.6079189322217
 21
349.12393934794772
  0
LINE
  8
_0-0_
  6
CONTINUOUS
 62
    7
 10
1119.6079189322217
 20
349.12393934794772
 11
1115.6066997541995
 21
342.1561691665621
  0
LINE
  8
_0-0_
  6
CONTINUOUS
 62
    7
 10
1115.6066997541995
 20
342.1561691665621
 11
1111.3039755796564
 21
335.61619246001521
  0
LINE
  8
_0-0_
  6
CONTINUOUS
 62
    7
 10
1111.3039755796564
 20
335.61619246001521
 11
1106.6999619392681
 21
329.47379015241148
  0
LINE
  8
_0-0_
  6
CONTINUOUS
 62
    7
 10
1106.6999619392681
 20
329.47379015241148
 11
1101.7992401683484
 21
323.70216131022777
  0
LINE
  8
_0-0_
  6
CONTINUOUS
 62
    7
 10
1134.1068916463586
 20
366.89078089420229
 11
1136.0000000000002
 21
367.50892733736282
  0
LINE
  8
_0-0_
  6
CONTINUOUS
 62
    7
 10
1123.6598904171576
 20
357.35872102673022
 11
1123.3126320684823
 21
356.55344836751703
  0
LINE
  8
_0-0_
  6
CONTINUOUS
 62
    7
 10
1134.1068916463586
 20
366.89078089420218
 11
1132.7795770426062
 21
366.36439045621762
  0
LINE
  8
_0-0_
  6
CONTINUOUS
 62
    7
 10
1132.7795770426062
 20
366.36439045621762
 11
1131.399248850251
 21
365.63753607609442
  0
LINE
  8
_0-0_
  6
CONTINUOUS
 62
    7
 10
1131.399248850251
 20
365.63753607609442
 11
1130.0078476429384
 21
364.73230285636634
  0
LINE
  8
_0-0_
  6
CONTINUOUS
 62
    7
 10
1130.0078476429384
 20
364.73230285636634
 11
1128.6476504422694
 21
363.67619585034481
  0
LINE
  8
_0-0_
  6
CONTINUOUS
 62
    7
 10
1128.6476504422694
 20
363.67619585034481
 11
1127.3599861518932
 21
362.50130433499174
  0
LINE
  8
_0-0_
  6
CONTINUOUS
 62
    7
 10
1127.3599861518932
 20
362.50130433499174
 11
1126.1839797996835
 21
361.24332679447746
  0
LINE
  8
_0-0_
  6
CONTINUOUS
 62
    7
 10
1126.1839797996835
 20
361.24332679447746
 11
1125.1553637435642
 21
359.94048623980313
  0
LINE
  8
_0-0_
  6
CONTINUOUS
 62
    7
 10
1125.1553637435642
 20
359.94048623980313
 11
1124.3053919618957
 21
358.63236882195337
  0
LINE
  8
_0-0_
  6
CONTINUOUS
 62
    7
 10
1124.3053919618957
 20
358.63236882195337
 11
1123.6598904171576
 21
357.35872102673016
  0
LINE
  8
_0-0_
  6
CONTINUOUS
 62
    7
 10
1009.1106604197916
 20
266.31690656081985
 11
991.04987050400154
 21
263.67028871992141
  0
LINE
  8
_0-0_
  6
DASHED1
 62
    4
 10
818.50000000000022
 20
247.50892733736264
 11
808.50000000000011
 21
257.50892733736264
  0
LINE
  8
_0-0_
  6
DASHED1
 62
    4
 10
863.50000000000022
 20
247.50892733736264
 11
873.50000000000022
 21
257.50892733736264
  0
LINE
  8
_0-0_
  6
CONTINUOUS
 62
    7
 10
801.00000000000011
 20
257.44508809724749
 11
801.00000000000011
 21
247.50892733736264
  0
LINE
  8
_0-0_
  6
CONTINUOUS
 62
    7
 10
801.00000000000011
 20
247.50892733736264
 11
881.00000000000022
 21
247.50892733736287
  0
LINE
  8
_0-0_
  6
CONTINUOUS
 62
    7
 10
881.00000000000022
 20
257.44508809724749
 11
881.00000000000022
 21
247.50892733736287
  0
TEXT
  8
_0-0_
 62
    7
 10
-156.76442995114985
 20
1244.7466781796188
 40
30
 41
1
 50
0
  1
MAJESTICシリーズ
  0
TEXT
  8
_0-0_
 62
    7
 10
1282.0429170890279
 20
582.00639720015828
 40
20
 41
1
 50
0
  1
上面図　S=1/2
  0
TEXT
  8
_0-0_
 62
    7
 10
1282.0429170890279
 20
169.70169906491344
 40
20
 41
1
 50
0
  1
側面図　S=1/2
  0
TEXT
  8
_0-0_
 62
    7
 10
-138.32938689217758
 20
15.079069767441865
 40
15
 41
1
 50
0
  1
※本製品は吹きガラスによる一品生産品ですので、サイズ、彫刻（エングレビング）は同じ品番であっても多少の違いが生じます。また、製品の特性上小さな気泡が入る場合もございます。
  0
ENDSEC
  0
EOF
