  0
SECTION
  2
HEADER
  9
$ACADVER
  1
AC1032
  9
$ACADMAINTVER
 90
      197
  9
$DWGCODEPAGE
  3
ANSI_932
  9
$REQUIREDVERSIONS
160
                 0
  9
$INSBASE
 10
0.0
 20
0.0
 30
0.0
  9
$EXTMIN
 10
1.000000000000000E+20
 20
1.000000000000000E+20
 30
1.000000000000000E+20
  9
$EXTMAX
 10
-1.000000000000000E+20
 20
-1.000000000000000E+20
 30
-1.000000000000000E+20
  9
$LIMMIN
 10
0.0
 20
0.0
  9
$LIMMAX
 10
12.0
 20
9.0
  9
$ORTHOMODE
 70
     0
  9
$REGENMODE
 70
     1
  9
$FILLMODE
 70
     1
  9
$QTEXTMODE
 70
     0
  9
$MIRRTEXT
 70
     0
  9
$LTSCALE
 40
1.0
  9
$ATTMODE
 70
     1
  9
$TEXTSIZE
 40
0.2
  9
$TRACEWID
 40
0.05
  9
$TEXTSTYLE
  7
Standard
  9
$CLAYER
  8
0
  9
$CELTYPE
  6
ByLayer
  9
$CECOLOR
 62
   256
  9
$CELTSCALE
 40
1.0
  9
$DISPSILH
 70
     0
  9
$DIMSCALE
 40
1.0
  9
$DIMASZ
 40
0.18
  9
$DIMEXO
 40
0.0625
  9
$DIMDLI
 40
0.38
  9
$DIMRND
 40
0.0
  9
$DIMDLE
 40
0.0
  9
$DIMEXE
 40
0.18
  9
$DIMTP
 40
0.0
  9
$DIMTM
 40
0.0
  9
$DIMTXT
 40
0.18
  9
$DIMCEN
 40
0.09
  9
$DIMTSZ
 40
0.0
  9
$DIMTOL
 70
     0
  9
$DIMLIM
 70
     0
  9
$DIMTIH
 70
     1
  9
$DIMTOH
 70
     1
  9
$DIMSE1
 70
     0
  9
$DIMSE2
 70
     0
  9
$DIMTAD
 70
     0
  9
$DIMZIN
 70
     0
  9
$DIMBLK
  1

  9
$DIMASO
 70
     1
  9
$DIMSHO
 70
     1
  9
$DIMPOST
  1

  9
$DIMAPOST
  1

  9
$DIMALT
 70
     0
  9
$DIMALTD
 70
     2
  9
$DIMALTF
 40
25.4
  9
$DIMLFAC
 40
1.0
  9
$DIMTOFL
 70
     0
  9
$DIMTVP
 40
0.0
  9
$DIMTIX
 70
     0
  9
$DIMSOXD
 70
     0
  9
$DIMSAH
 70
     0
  9
$DIMBLK1
  1

  9
$DIMBLK2
  1

  9
$DIMSTYLE
  2
Standard
  9
$DIMCLRD
 70
     0
  9
$DIMCLRE
 70
     0
  9
$DIMCLRT
 70
     0
  9
$DIMTFAC
 40
1.0
  9
$DIMGAP
 40
0.09
  9
$DIMJUST
 70
     0
  9
$DIMSD1
 70
     0
  9
$DIMSD2
 70
     0
  9
$DIMTOLJ
 70
     1
  9
$DIMTZIN
 70
     0
  9
$DIMALTZ
 70
     0
  9
$DIMALTTZ
 70
     0
  9
$DIMUPT
 70
     0
  9
$DIMDEC
 70
     4
  9
$DIMTDEC
 70
     4
  9
$DIMALTU
 70
     2
  9
$DIMALTTD
 70
     2
  9
$DIMTXSTY
  7
Standard
  9
$DIMAUNIT
 70
     0
  9
$DIMADEC
 70
     0
  9
$DIMALTRND
 40
0.0
  9
$DIMAZIN
 70
     0
  9
$DIMDSEP
 70
    46
  9
$DIMATFIT
 70
     3
  9
$DIMFRAC
 70
     0
  9
$DIMLDRBLK
  1

  9
$DIMLUNIT
 70
     2
  9
$DIMLWD
 70
    -2
  9
$DIMLWE
 70
    -2
  9
$DIMTMOVE
 70
     0
  9
$DIMFXL
 40
1.0
  9
$DIMFXLON
 70
     0
  9
$DIMJOGANG
 40
0.7853981633974483
  9
$DIMTFILL
 70
     0
  9
$DIMTFILLCLR
 70
     0
  9
$DIMARCSYM
 70
     0
  9
$DIMLTYPE
  6

  9
$DIMLTEX1
  6

  9
$DIMLTEX2
  6

  9
$DIMTXTDIRECTION
 70
     0
  9
$LUNITS
 70
     2
  9
$LUPREC
 70
     4
  9
$SKETCHINC
 40
0.1
  9
$FILLETRAD
 40
0.0
  9
$AUNITS
 70
     0
  9
$AUPREC
 70
     0
  9
$MENU
  1
.
  9
$ELEVATION
 40
0.0
  9
$PELEVATION
 40
0.0
  9
$THICKNESS
 40
0.0
  9
$LIMCHECK
 70
     0
  9
$CHAMFERA
 40
0.0
  9
$CHAMFERB
 40
0.0
  9
$CHAMFERC
 40
0.0
  9
$CHAMFERD
 40
0.0
  9
$SKPOLY
 70
     0
  9
$TDCREATE
 40
2459677.608055556
  9
$TDUCREATE
 40
2459677.233055556
  9
$TDUPDATE
 40
2459677.608055556
  9
$TDUUPDATE
 40
2459677.233055556
  9
$TDINDWG
 40
0.0000000000
  9
$TDUSRTIMER
 40
0.0000000000
  9
$USRTIMER
 70
     1
  9
$ANGBASE
 50
0.0
  9
$ANGDIR
 70
     0
  9
$PDMODE
 70
     0
  9
$PDSIZE
 40
0.0
  9
$PLINEWID
 40
0.0
  9
$SPLFRAME
 70
     0
  9
$SPLINETYPE
 70
     6
  9
$SPLINESEGS
 70
     8
  9
$HANDSEED
  5
38B
  9
$SURFTAB1
 70
     6
  9
$SURFTAB2
 70
     6
  9
$SURFTYPE
 70
     6
  9
$SURFU
 70
     6
  9
$SURFV
 70
     6
  9
$UCSBASE
  2

  9
$UCSNAME
  2

  9
$UCSORG
 10
0.0
 20
0.0
 30
0.0
  9
$UCSXDIR
 10
1.0
 20
0.0
 30
0.0
  9
$UCSYDIR
 10
0.0
 20
1.0
 30
0.0
  9
$UCSORTHOREF
  2

  9
$UCSORTHOVIEW
 70
     0
  9
$UCSORGTOP
 10
0.0
 20
0.0
 30
0.0
  9
$UCSORGBOTTOM
 10
0.0
 20
0.0
 30
0.0
  9
$UCSORGLEFT
 10
0.0
 20
0.0
 30
0.0
  9
$UCSORGRIGHT
 10
0.0
 20
0.0
 30
0.0
  9
$UCSORGFRONT
 10
0.0
 20
0.0
 30
0.0
  9
$UCSORGBACK
 10
0.0
 20
0.0
 30
0.0
  9
$PUCSBASE
  2

  9
$PUCSNAME
  2

  9
$PUCSORG
 10
0.0
 20
0.0
 30
0.0
  9
$PUCSXDIR
 10
1.0
 20
0.0
 30
0.0
  9
$PUCSYDIR
 10
0.0
 20
1.0
 30
0.0
  9
$PUCSORTHOREF
  2

  9
$PUCSORTHOVIEW
 70
     0
  9
$PUCSORGTOP
 10
0.0
 20
0.0
 30
0.0
  9
$PUCSORGBOTTOM
 10
0.0
 20
0.0
 30
0.0
  9
$PUCSORGLEFT
 10
0.0
 20
0.0
 30
0.0
  9
$PUCSORGRIGHT
 10
0.0
 20
0.0
 30
0.0
  9
$PUCSORGFRONT
 10
0.0
 20
0.0
 30
0.0
  9
$PUCSORGBACK
 10
0.0
 20
0.0
 30
0.0
  9
$USERI1
 70
     0
  9
$USERI2
 70
     0
  9
$USERI3
 70
     0
  9
$USERI4
 70
     0
  9
$USERI5
 70
     0
  9
$USERR1
 40
0.0
  9
$USERR2
 40
0.0
  9
$USERR3
 40
0.0
  9
$USERR4
 40
0.0
  9
$USERR5
 40
0.0
  9
$WORLDVIEW
 70
     1
  9
$SHADEDGE
 70
     3
  9
$SHADEDIF
 70
    70
  9
$TILEMODE
 70
     1
  9
$MAXACTVP
 70
    64
  9
$PINSBASE
 10
0.0
 20
0.0
 30
0.0
  9
$PLIMCHECK
 70
     0
  9
$PEXTMIN
 10
1.000000000000000E+20
 20
1.000000000000000E+20
 30
1.000000000000000E+20
  9
$PEXTMAX
 10
-1.000000000000000E+20
 20
-1.000000000000000E+20
 30
-1.000000000000000E+20
  9
$PLIMMIN
 10
0.0
 20
0.0
  9
$PLIMMAX
 10
12.0
 20
9.0
  9
$UNITMODE
 70
     0
  9
$VISRETAIN
 70
     1
  9
$PLINEGEN
 70
     0
  9
$PSLTSCALE
 70
     1
  9
$TREEDEPTH
 70
  3020
  9
$CMLSTYLE
  2
Standard
  9
$CMLJUST
 70
     0
  9
$CMLSCALE
 40
1.0
  9
$PROXYGRAPHICS
 70
     1
  9
$MEASUREMENT
 70
     0
  9
$CELWEIGHT
370
    -1
  9
$ENDCAPS
280
     0
  9
$JOINSTYLE
280
     0
  9
$LWDISPLAY
290
     1
  9
$INSUNITS
 70
     4
  9
$HYPERLINKBASE
  1

  9
$STYLESHEET
  1

  9
$XEDIT
290
     1
  9
$CEPSNTYPE
380
     0
  9
$PSTYLEMODE
290
     1
  9
$FINGERPRINTGUID
  2
{52D2523A-216B-BE4C-BC84-26530F5F0647}
  9
$VERSIONGUID
  2
{34955068-36B1-E24D-9E44-9FF46C919207}
  9
$EXTNAMES
290
     1
  9
$PSVPSCALE
 40
0.0
  9
$OLESTARTUP
290
     0
  9
$SORTENTS
280
   127
  9
$INDEXCTL
280
     0
  9
$HIDETEXT
280
     1
  9
$XCLIPFRAME
280
     2
  9
$HALOGAP
280
     0
  9
$OBSCOLOR
 70
   257
  9
$OBSLTYPE
280
     0
  9
$INTERSECTIONDISPLAY
280
     0
  9
$INTERSECTIONCOLOR
 70
   257
  9
$DIMASSOC
280
     2
  9
$PROJECTNAME
  1

  9
$CAMERADISPLAY
290
     0
  9
$LENSLENGTH
 40
50.0
  9
$CAMERAHEIGHT
 40
0.0
  9
$STEPSPERSEC
 40
2.0
  9
$STEPSIZE
 40
6.0
  9
$3DDWFPREC
 40
2.0
  9
$PSOLWIDTH
 40
0.25
  9
$PSOLHEIGHT
 40
4.0
  9
$LOFTANG1
 40
1.570796326794896
  9
$LOFTANG2
 40
1.570796326794896
  9
$LOFTMAG1
 40
0.0
  9
$LOFTMAG2
 40
0.0
  9
$LOFTPARAM
 70
     7
  9
$LOFTNORMALS
280
     1
  9
$LATITUDE
 40
37.795
  9
$LONGITUDE
 40
-122.394
  9
$NORTHDIRECTION
 40
0.0
  9
$TIMEZONE
 70
 -8000
  9
$LIGHTGLYPHDISPLAY
280
     1
  9
$TILEMODELIGHTSYNCH
280
     1
  9
$CMATERIAL
347
11
  9
$SOLIDHIST
280
     0
  9
$SHOWHIST
280
     1
  9
$DWFFRAME
280
     2
  9
$DGNFRAME
280
     0
  9
$REALWORLDSCALE
290
     1
  9
$INTERFERECOLOR
 62
     1
  9
$INTERFEREOBJVS
345
33
  9
$INTERFEREVPVS
346
30
  9
$CSHADOW
280
     0
  9
$SHADOWPLANELOCATION
 40
0.0
  0
ENDSEC
  0
SECTION
  2
CLASSES
  0
CLASS
  1
ACDBDICTIONARYWDFLT
  2
AcDbDictionaryWithDefault
  3
ObjectDBX Classes
 90
        0
 91
        1
280
     0
281
     0
  0
CLASS
  1
MATERIAL
  2
AcDbMaterial
  3
ObjectDBX Classes
 90
     1153
 91
        3
280
     0
281
     0
  0
CLASS
  1
VISUALSTYLE
  2
AcDbVisualStyle
  3
ObjectDBX Classes
 90
     4095
 91
       24
280
     0
281
     0
  0
CLASS
  1
SCALE
  2
AcDbScale
  3
ObjectDBX Classes
 90
     1153
 91
       17
280
     0
281
     0
  0
CLASS
  1
TABLESTYLE
  2
AcDbTableStyle
  3
ObjectDBX Classes
 90
     4095
 91
        1
280
     0
281
     0
  0
CLASS
  1
MLEADERSTYLE
  2
AcDbMLeaderStyle
  3
ACDB_MLEADERSTYLE_CLASS
 90
     4095
 91
        1
280
     0
281
     0
  0
CLASS
  1
ACDBSECTIONVIEWSTYLE
  2
AcDbSectionViewStyle
  3
ObjectDBX Classes
 90
     1025
 91
        1
280
     0
281
     0
  0
CLASS
  1
ACDBDETAILVIEWSTYLE
  2
AcDbDetailViewStyle
  3
ObjectDBX Classes
 90
     1025
 91
        1
280
     0
281
     0
  0
CLASS
  1
DICTIONARYVAR
  2
AcDbDictionaryVar
  3
ObjectDBX Classes
 90
        0
 91
        5
280
     0
281
     0
  0
CLASS
  1
CELLSTYLEMAP
  2
AcDbCellStyleMap
  3
ObjectDBX Classes
 90
     1152
 91
        1
280
     0
281
     0
  0
ENDSEC
  0
SECTION
  2
TABLES
  0
TABLE
  2
VPORT
  5
8
330
0
100
AcDbSymbolTable
 70
     1
  0
VPORT
  5
57
330
8
100
AcDbSymbolTableRecord
100
AcDbViewportTableRecord
  2
*Active
 70
     0
 10
0.0
 20
0.0
 11
1.0
 21
1.0
 12
0.0
 22
0.0
 13
0.0
 23
0.0
 14
1.0
 24
1.0
 15
0.0
 25
0.0
 16
0.0
 26
0.0
 36
1.0
 17
148.5000119155984
 27
-209.9999940135198
 37
0.0
 40
428.3999877875802
 41
0.7076190677911788
 42
50.0
 43
0.0
 44
0.0
 50
0.0
 51
0.0
 71
     0
 72
   100
 73
     1
 74
     1
 75
     0
 76
     0
 77
     0
 78
     0
281
     0
 65
     1
110
0.0
120
0.0
130
0.0
111
1.0
121
0.0
131
0.0
112
0.0
122
1.0
132
0.0
 79
     0
146
0.0
 60
     3
 61
     5
292
     1
282
     1
141
0.0
142
0.0
 63
   250
421
  3355443
  0
ENDTAB
  0
TABLE
  2
LTYPE
  5
5
330
0
100
AcDbSymbolTable
 70
    15
  0
LTYPE
  5
5B
330
5
100
AcDbSymbolTableRecord
100
AcDbLinetypeTableRecord
  2
ByBlock
 70
     0
  3

 72
    65
 73
     0
 40
0.0
  0
LTYPE
  5
5C
330
5
100
AcDbSymbolTableRecord
100
AcDbLinetypeTableRecord
  2
ByLayer
 70
     0
  3

 72
    65
 73
     0
 40
0.0
  0
LTYPE
  5
5D
330
5
100
AcDbSymbolTableRecord
100
AcDbLinetypeTableRecord
  2
Continuous
 70
     0
  3
Solid line
 72
    65
 73
     0
 40
0.0
  0
LTYPE
  5
88
330
5
100
AcDbSymbolTableRecord
100
AcDbLinetypeTableRecord
  2
AI-Linetype-0
 70
     0
  3
Adobe Illustrator Linetype No. 0
 72
    65
 73
     2
 40
3.99999994204445
 49
2.999999914478949
 74
     0
 49
-1.0000000275655
 74
     0
  0
LTYPE
  5
8A
330
5
100
AcDbSymbolTableRecord
100
AcDbLinetypeTableRecord
  2
AI-Linetype-1
 70
     0
  3
Adobe Illustrator Linetype No. 1
 72
    65
 73
     2
 40
3.99999994204445
 49
2.999999914478949
 74
     0
 49
-1.0000000275655
 74
     0
  0
LTYPE
  5
8D
330
5
100
AcDbSymbolTableRecord
100
AcDbLinetypeTableRecord
  2
AI-Linetype-2
 70
     0
  3
Adobe Illustrator Linetype No. 2
 72
    65
 73
     4
 40
7.499999870306151
 49
5.999999828957899
 74
     0
 49
-0.5000000137827505
 74
     0
 49
0.5000000137827505
 74
     0
 49
-0.5000000137827505
 74
     0
  0
LTYPE
  5
92
330
5
100
AcDbSymbolTableRecord
100
AcDbLinetypeTableRecord
  2
AI-Linetype-3
 70
     0
  3
Adobe Illustrator Linetype No. 3
 72
    65
 73
     4
 40
7.499999870306151
 49
5.999999828957899
 74
     0
 49
-0.5000000137827505
 74
     0
 49
0.5000000137827505
 74
     0
 49
-0.5000000137827505
 74
     0
  0
LTYPE
  5
94
330
5
100
AcDbSymbolTableRecord
100
AcDbLinetypeTableRecord
  2
AI-Linetype-4
 70
     0
  3
Adobe Illustrator Linetype No. 4
 72
    65
 73
     4
 40
7.499999870306151
 49
5.999999828957899
 74
     0
 49
-0.5000000137827505
 74
     0
 49
0.5000000137827505
 74
     0
 49
-0.5000000137827505
 74
     0
  0
LTYPE
  5
F3
330
5
100
AcDbSymbolTableRecord
100
AcDbLinetypeTableRecord
  2
AI-Linetype-5
 70
     0
  3
Adobe Illustrator Linetype No. 5
 72
    65
 73
     2
 40
3.99999994204445
 49
2.999999914478949
 74
     0
 49
-1.0000000275655
 74
     0
  0
LTYPE
  5
F5
330
5
100
AcDbSymbolTableRecord
100
AcDbLinetypeTableRecord
  2
AI-Linetype-6
 70
     0
  3
Adobe Illustrator Linetype No. 6
 72
    65
 73
     2
 40
3.99999994204445
 49
2.999999914478949
 74
     0
 49
-1.0000000275655
 74
     0
  0
LTYPE
  5
233
330
5
100
AcDbSymbolTableRecord
100
AcDbLinetypeTableRecord
  2
AI-Linetype-7
 70
     0
  3
Adobe Illustrator Linetype No. 7
 72
    65
 73
     2
 40
3.99999994204445
 49
2.999999914478949
 74
     0
 49
-1.0000000275655
 74
     0
  0
LTYPE
  5
235
330
5
100
AcDbSymbolTableRecord
100
AcDbLinetypeTableRecord
  2
AI-Linetype-8
 70
     0
  3
Adobe Illustrator Linetype No. 8
 72
    65
 73
     2
 40
3.99999994204445
 49
2.999999914478949
 74
     0
 49
-1.0000000275655
 74
     0
  0
LTYPE
  5
238
330
5
100
AcDbSymbolTableRecord
100
AcDbLinetypeTableRecord
  2
AI-Linetype-9
 70
     0
  3
Adobe Illustrator Linetype No. 9
 72
    65
 73
     4
 40
7.499999870306151
 49
5.999999828957899
 74
     0
 49
-0.5000000137827505
 74
     0
 49
0.5000000137827505
 74
     0
 49
-0.5000000137827505
 74
     0
  0
LTYPE
  5
23D
330
5
100
AcDbSymbolTableRecord
100
AcDbLinetypeTableRecord
  2
AI-Linetype-10
 70
     0
  3
Adobe Illustrator Linetype No. 10
 72
    65
 73
     4
 40
7.499999870306151
 49
5.999999828957899
 74
     0
 49
-0.5000000137827505
 74
     0
 49
0.5000000137827505
 74
     0
 49
-0.5000000137827505
 74
     0
  0
LTYPE
  5
23F
330
5
100
AcDbSymbolTableRecord
100
AcDbLinetypeTableRecord
  2
AI-Linetype-11
 70
     0
  3
Adobe Illustrator Linetype No. 11
 72
    65
 73
     4
 40
7.499999870306151
 49
5.999999828957899
 74
     0
 49
-0.5000000137827505
 74
     0
 49
0.5000000137827505
 74
     0
 49
-0.5000000137827505
 74
     0
  0
LTYPE
  5
299
330
5
100
AcDbSymbolTableRecord
100
AcDbLinetypeTableRecord
  2
AI-Linetype-12
 70
     0
  3
Adobe Illustrator Linetype No. 12
 72
    65
 73
     2
 40
3.99999994204445
 49
2.999999914478949
 74
     0
 49
-1.0000000275655
 74
     0
  0
LTYPE
  5
29B
330
5
100
AcDbSymbolTableRecord
100
AcDbLinetypeTableRecord
  2
AI-Linetype-13
 70
     0
  3
Adobe Illustrator Linetype No. 13
 72
    65
 73
     2
 40
3.99999994204445
 49
2.999999914478949
 74
     0
 49
-1.0000000275655
 74
     0
  0
ENDTAB
  0
TABLE
  2
LAYER
  5
2
330
0
100
AcDbSymbolTable
 70
     2
  0
LAYER
  5
54
330
2
100
AcDbSymbolTableRecord
100
AcDbLayerTableRecord
  2
0
 70
     0
 62
     7
  6
Continuous
370
    -3
390
F
347
21
348
0
  0
LAYER
  5
78
330
2
100
AcDbSymbolTableRecord
100
AcDbLayerTableRecord
  2
レイヤー 1
 70
     0
 62
     7
  6
Continuous
370
     0
390
F
347
21
348
0
  0
ENDTAB
  0
TABLE
  2
STYLE
  5
3
330
0
100
AcDbSymbolTable
 70
     2
  0
STYLE
  5
55
330
3
100
AcDbSymbolTableRecord
100
AcDbTextStyleTableRecord
  2
Standard
 70
     0
 40
0.0
 41
1.0
 50
0.0
 71
     0
 42
0.2
  3
txt
  4

  0
STYLE
  5
5A
330
3
100
AcDbSymbolTableRecord
100
AcDbTextStyleTableRecord
  2
Annotative
 70
     0
 40
0.0
 41
1.0
 50
0.0
 71
     0
 42
0.2
  3
txt
  4

1001
AcadAnnotative
1000
AnnotativeData
1002
{
1070
     1
1070
     1
1002
}
  0
ENDTAB
  0
TABLE
  2
VIEW
  5
6
330
0
100
AcDbSymbolTable
 70
     0
  0
ENDTAB
  0
TABLE
  2
UCS
  5
7
330
0
100
AcDbSymbolTable
 70
     0
  0
ENDTAB
  0
TABLE
  2
APPID
  5
9
330
0
100
AcDbSymbolTable
 70
     2
  0
APPID
  5
56
330
9
100
AcDbSymbolTableRecord
100
AcDbRegAppTableRecord
  2
ACAD
 70
     0
  0
APPID
  5
5E
330
9
100
AcDbSymbolTableRecord
100
AcDbRegAppTableRecord
  2
AcadAnnotative
 70
     0
  0
ENDTAB
  0
TABLE
  2
DIMSTYLE
  5
A
330
0
100
AcDbSymbolTable
 70
     2
100
AcDbDimStyleTable
 71
     0
  0
DIMSTYLE
105
58
330
A
100
AcDbSymbolTableRecord
100
AcDbDimStyleTableRecord
  2
Standard
 70
     0
340
55
  0
DIMSTYLE
105
59
330
A
100
AcDbSymbolTableRecord
100
AcDbDimStyleTableRecord
  2
Annotative
 70
     0
340
55
1001
AcadAnnotative
1000
AnnotativeData
1002
{
1070
     1
1070
     1
1002
}
  0
ENDTAB
  0
TABLE
  2
BLOCK_RECORD
  5
1
330
0
100
AcDbSymbolTable
 70
    31
  0
BLOCK_RECORD
  5
70
330
1
100
AcDbSymbolTableRecord
100
AcDbBlockTableRecord
  2
*Model_Space
340
73
 70
     0
280
     1
281
     0
  0
BLOCK_RECORD
  5
6C
330
1
100
AcDbSymbolTableRecord
100
AcDbBlockTableRecord
  2
*Paper_Space
340
6F
 70
     0
280
     1
281
     0
  0
BLOCK_RECORD
  5
74
330
1
100
AcDbSymbolTableRecord
100
AcDbBlockTableRecord
  2
*Paper_Space0
340
77
 70
     0
280
     1
281
     0
  0
BLOCK_RECORD
  5
79
330
1
100
AcDbSymbolTableRecord
100
AcDbBlockTableRecord
  2
Block_0
340
0
102
{BLKREFS
331
7A
102
}
 70
     0
280
     1
281
     0
  0
BLOCK_RECORD
  5
95
330
1
100
AcDbSymbolTableRecord
100
AcDbBlockTableRecord
  2
Block_1
340
0
102
{BLKREFS
331
96
102
}
 70
     0
280
     1
281
     0
  0
BLOCK_RECORD
  5
A9
330
1
100
AcDbSymbolTableRecord
100
AcDbBlockTableRecord
  2
Block_2
340
0
102
{BLKREFS
331
AA
102
}
 70
     0
280
     1
281
     0
  0
BLOCK_RECORD
  5
BD
330
1
100
AcDbSymbolTableRecord
100
AcDbBlockTableRecord
  2
Block_3
340
0
102
{BLKREFS
331
BE
102
}
 70
     0
280
     1
281
     0
  0
BLOCK_RECORD
  5
C8
330
1
100
AcDbSymbolTableRecord
100
AcDbBlockTableRecord
  2
Block_4
340
0
102
{BLKREFS
331
C9
102
}
 70
     0
280
     1
281
     0
  0
BLOCK_RECORD
  5
DC
330
1
100
AcDbSymbolTableRecord
100
AcDbBlockTableRecord
  2
Block_5
340
0
102
{BLKREFS
331
DD
102
}
 70
     0
280
     1
281
     0
  0
BLOCK_RECORD
  5
F7
330
1
100
AcDbSymbolTableRecord
100
AcDbBlockTableRecord
  2
Block_6
340
0
102
{BLKREFS
331
F8
102
}
 70
     0
280
     1
281
     0
  0
BLOCK_RECORD
  5
FF
330
1
100
AcDbSymbolTableRecord
100
AcDbBlockTableRecord
  2
Block_7
340
0
102
{BLKREFS
331
100
102
}
 70
     0
280
     1
281
     0
  0
BLOCK_RECORD
  5
109
330
1
100
AcDbSymbolTableRecord
100
AcDbBlockTableRecord
  2
Block_8
340
0
102
{BLKREFS
331
10A
102
}
 70
     0
280
     1
281
     0
  0
BLOCK_RECORD
  5
11E
330
1
100
AcDbSymbolTableRecord
100
AcDbBlockTableRecord
  2
Block_9
340
0
102
{BLKREFS
331
11F
102
}
 70
     0
280
     1
281
     0
  0
BLOCK_RECORD
  5
124
330
1
100
AcDbSymbolTableRecord
100
AcDbBlockTableRecord
  2
Block_10
340
0
102
{BLKREFS
331
125
102
}
 70
     0
280
     1
281
     0
  0
BLOCK_RECORD
  5
131
330
1
100
AcDbSymbolTableRecord
100
AcDbBlockTableRecord
  2
Block_11
340
0
102
{BLKREFS
331
132
102
}
 70
     0
280
     1
281
     0
  0
BLOCK_RECORD
  5
141
330
1
100
AcDbSymbolTableRecord
100
AcDbBlockTableRecord
  2
Block_12
340
0
102
{BLKREFS
331
142
102
}
 70
     0
280
     1
281
     0
  0
BLOCK_RECORD
  5
1A4
330
1
100
AcDbSymbolTableRecord
100
AcDbBlockTableRecord
  2
Block_13
340
0
102
{BLKREFS
331
1A5
102
}
 70
     0
280
     1
281
     0
  0
BLOCK_RECORD
  5
1B4
330
1
100
AcDbSymbolTableRecord
100
AcDbBlockTableRecord
  2
Block_14
340
0
102
{BLKREFS
331
1B5
102
}
 70
     0
280
     1
281
     0
  0
BLOCK_RECORD
  5
1C4
330
1
100
AcDbSymbolTableRecord
100
AcDbBlockTableRecord
  2
Block_15
340
0
102
{BLKREFS
331
1C5
102
}
 70
     0
280
     1
281
     0
  0
BLOCK_RECORD
  5
240
330
1
100
AcDbSymbolTableRecord
100
AcDbBlockTableRecord
  2
Block_16
340
0
102
{BLKREFS
331
241
102
}
 70
     0
280
     1
281
     0
  0
BLOCK_RECORD
  5
254
330
1
100
AcDbSymbolTableRecord
100
AcDbBlockTableRecord
  2
Block_17
340
0
102
{BLKREFS
331
255
102
}
 70
     0
280
     1
281
     0
  0
BLOCK_RECORD
  5
268
330
1
100
AcDbSymbolTableRecord
100
AcDbBlockTableRecord
  2
Block_18
340
0
102
{BLKREFS
331
269
102
}
 70
     0
280
     1
281
     0
  0
BLOCK_RECORD
  5
273
330
1
100
AcDbSymbolTableRecord
100
AcDbBlockTableRecord
  2
Block_19
340
0
102
{BLKREFS
331
274
102
}
 70
     0
280
     1
281
     0
  0
BLOCK_RECORD
  5
287
330
1
100
AcDbSymbolTableRecord
100
AcDbBlockTableRecord
  2
Block_20
340
0
102
{BLKREFS
331
288
102
}
 70
     0
280
     1
281
     0
  0
BLOCK_RECORD
  5
29E
330
1
100
AcDbSymbolTableRecord
100
AcDbBlockTableRecord
  2
Block_21
340
0
102
{BLKREFS
331
29F
102
}
 70
     0
280
     1
281
     0
  0
BLOCK_RECORD
  5
2B3
330
1
100
AcDbSymbolTableRecord
100
AcDbBlockTableRecord
  2
Block_22
340
0
102
{BLKREFS
331
2B4
102
}
 70
     0
280
     1
281
     0
  0
BLOCK_RECORD
  5
2B9
330
1
100
AcDbSymbolTableRecord
100
AcDbBlockTableRecord
  2
Block_23
340
0
102
{BLKREFS
331
2BA
102
}
 70
     0
280
     1
281
     0
  0
BLOCK_RECORD
  5
2C5
330
1
100
AcDbSymbolTableRecord
100
AcDbBlockTableRecord
  2
Block_24
340
0
102
{BLKREFS
331
2C6
102
}
 70
     0
280
     1
281
     0
  0
BLOCK_RECORD
  5
2CD
330
1
100
AcDbSymbolTableRecord
100
AcDbBlockTableRecord
  2
Block_25
340
0
102
{BLKREFS
331
2CE
102
}
 70
     0
280
     1
281
     0
  0
BLOCK_RECORD
  5
2DC
330
1
100
AcDbSymbolTableRecord
100
AcDbBlockTableRecord
  2
Block_26
340
0
102
{BLKREFS
331
2DD
102
}
 70
     0
280
     1
281
     0
  0
BLOCK_RECORD
  5
2EC
330
1
100
AcDbSymbolTableRecord
100
AcDbBlockTableRecord
  2
Block_27
340
0
102
{BLKREFS
331
2ED
102
}
 70
     0
280
     1
281
     0
  0
BLOCK_RECORD
  5
355
330
1
100
AcDbSymbolTableRecord
100
AcDbBlockTableRecord
  2
Block_28
340
0
102
{BLKREFS
331
356
102
}
 70
     0
280
     1
281
     0
  0
BLOCK_RECORD
  5
365
330
1
100
AcDbSymbolTableRecord
100
AcDbBlockTableRecord
  2
Block_29
340
0
102
{BLKREFS
331
366
102
}
 70
     0
280
     1
281
     0
  0
ENDTAB
  0
ENDSEC
  0
SECTION
  2
BLOCKS
  0
BLOCK
  5
71
330
70
100
AcDbEntity
  8
0
100
AcDbBlockBegin
  2
*Model_Space
 70
     0
 10
0.0
 20
0.0
 30
0.0
  3
*Model_Space
  1

  0
ENDBLK
  5
72
330
70
100
AcDbEntity
  8
0
100
AcDbBlockEnd
  0
BLOCK
  5
6D
330
6C
100
AcDbEntity
 67
     1
  8
0
100
AcDbBlockBegin
  2
*Paper_Space
 70
     0
 10
0.0
 20
0.0
 30
0.0
  3
*Paper_Space
  1

  0
ENDBLK
  5
6E
330
6C
100
AcDbEntity
 67
     1
  8
0
100
AcDbBlockEnd
  0
BLOCK
  5
75
330
74
100
AcDbEntity
 67
     1
  8
0
100
AcDbBlockBegin
  2
*Paper_Space0
 70
     0
 10
0.0
 20
0.0
 30
0.0
  3
*Paper_Space0
  1

  0
ENDBLK
  5
76
330
74
100
AcDbEntity
 67
     1
  8
0
100
AcDbBlockEnd
  0
BLOCK
  5
7B
330
79
100
AcDbEntity
  8
0
100
AcDbBlockBegin
  2
Block_0
 70
     0
 10
0.0
 20
0.0
 30
0.0
  3
Block_0
  1

  0
SPLINE
  5
7D
330
79
100
AcDbEntity
  8
レイヤー 1
 62
   137
420
  5146495
370
    20
100
AcDbSpline
210
0.0
220
0.0
230
1.0
 70
    24
 71
     3
 72
     8
 73
     4
 74
     0
 42
0.0000000001
 43
0.0000000001
 40
0.0
 40
0.0
 40
0.0
 40
0.0
 40
1.0
 40
1.0
 40
1.0
 40
1.0
 10
0.0000119155984491
 20
-231.0225490659066
 30
0.0
 10
0.0000119155984491
 20
-228.3215887799503
 30
0.0
 10
0.0000119155984491
 20
-225.6206284939939
 30
0.0
 10
0.0000119155984491
 20
-222.9196682080376
 30
0.0
  0
SPLINE
  5
7E
330
79
100
AcDbEntity
  8
レイヤー 1
 62
   137
420
  5146495
370
    20
100
AcDbSpline
210
0.0
220
0.0
230
1.0
 70
    24
 71
     3
 72
     8
 73
     4
 74
     0
 42
0.0000000001
 43
0.0000000001
 40
0.0
 40
0.0
 40
0.0
 40
0.0
 40
1.0
 40
1.0
 40
1.0
 40
1.0
 10
297.0000119155987
 20
-26.70117414906346
 30
0.0
 10
297.0000119155993
 20
-28.77400550205485
 30
0.0
 10
297.0000119155987
 20
-30.84683685504592
 30
0.0
 10
297.0000119155987
 20
-32.91966820803731
 30
0.0
  0
SPLINE
  5
7F
330
79
100
AcDbEntity
  8
レイヤー 1
 62
   137
420
  5146495
370
    20
100
AcDbSpline
210
0.0
220
0.0
230
1.0
 70
    24
 71
     3
 72
     8
 73
     4
 74
     0
 42
0.0000000001
 43
0.0000000001
 40
0.0
 40
0.0
 40
0.0
 40
0.0
 40
1.0
 40
1.0
 40
1.0
 40
1.0
 10
0.0000119155984491
 20
-32.91966820803731
 30
0.0
 10
0.0000119155984491
 20
-30.39045504335261
 30
0.0
 10
0.0000119155984491
 20
-27.8612418786676
 30
0.0
 10
0.0000119155984491
 20
-25.33202871398291
 30
0.0
  0
SPLINE
  5
80
330
79
100
AcDbEntity
  8
レイヤー 1
 62
   137
420
  5146495
370
    20
100
AcDbSpline
210
0.0
220
0.0
230
1.0
 70
    24
 71
     3
 72
     8
 73
     4
 74
     0
 42
0.0000000001
 43
0.0000000001
 40
0.0
 40
0.0
 40
0.0
 40
0.0
 40
1.0
 40
1.0
 40
1.0
 40
1.0
 10
297.0000119155987
 20
-222.9196682080376
 30
0.0
 10
297.000011915598
 20
-225.6853181963623
 30
0.0
 10
297.0000119155987
 20
-228.4509681846877
 30
0.0
 10
297.0000119155987
 20
-231.2166181730124
 30
0.0
  0
LINE
  5
81
330
79
100
AcDbEntity
  8
レイヤー 1
 62
    75
420
  6921064
370
    20
100
AcDbLine
 10
94.97113778438643
 20
-61.81911837235856
 30
0.0
 11
94.97113778438643
 21
-68.71911837235848
 31
0.0
  0
LINE
  5
82
330
79
100
AcDbEntity
  8
レイヤー 1
 62
    75
420
  6921064
370
    20
100
AcDbLine
 10
104.9711377843864
 20
-109.1191183723583
 30
0.0
 11
104.9711377843864
 21
-81.66911837235845
 31
0.0
  0
LINE
  5
83
330
79
100
AcDbEntity
  8
レイヤー 1
 62
    75
420
  6921064
370
    20
100
AcDbLine
 10
95.17113778438645
 20
-61.61911837235855
 30
0.0
 11
99.97113778438661
 21
-61.61911837235855
 31
0.0
  0
LINE
  5
84
330
79
100
AcDbEntity
  8
レイヤー 1
 62
    75
420
  6921064
370
    20
100
AcDbLine
 10
104.9711377843864
 20
-109.1191183723583
 30
0.0
 11
104.9711377843864
 21
-136.5691183723581
 31
0.0
  0
LINE
  5
85
330
79
100
AcDbEntity
  8
レイヤー 1
 62
    75
420
  6921064
370
    20
100
AcDbLine
 10
95.17113778438645
 20
-156.6191183723583
 30
0.0
 11
99.97113778438661
 21
-156.6191183723583
 31
0.0
  0
LINE
  5
86
330
79
100
AcDbEntity
  8
レイヤー 1
 62
    75
420
  6921064
370
    20
100
AcDbLine
 10
94.97113778438643
 20
-131.6191183723588
 30
0.0
 11
94.97113778438643
 21
-146.4191183723587
 31
0.0
  0
LINE
  5
87
330
79
100
AcDbEntity
  8
レイヤー 1
  6
AI-Linetype-0
 62
    75
420
  6921064
370
    20
100
AcDbLine
 10
94.97113778438643
 20
-131.6191183723588
 30
0.0
 11
104.9711377843864
 21
-131.6191183723588
 31
0.0
  0
LINE
  5
89
330
79
100
AcDbEntity
  8
レイヤー 1
  6
AI-Linetype-1
 62
    75
420
  6921064
370
    20
100
AcDbLine
 10
94.97113778438643
 20
-86.61911837235846
 30
0.0
 11
104.9711377843864
 21
-86.61911837235846
 31
0.0
  0
LINE
  5
8B
330
79
100
AcDbEntity
  8
レイヤー 1
 62
    75
420
  6921064
370
    20
100
AcDbLine
 10
94.97113778438643
 20
-86.61911837235846
 30
0.0
 11
94.97113778438643
 21
-131.6191183723588
 31
0.0
  0
LINE
  5
8C
330
79
100
AcDbEntity
  8
レイヤー 1
  6
AI-Linetype-2
 62
    75
420
  6921064
370
    20
100
AcDbLine
 10
107.8343346537286
 20
-109.1191183723583
 30
0.0
 11
89.78757261024062
 21
-109.1191183723583
 31
0.0
  0
ELLIPSE
  5
8E
330
79
100
AcDbEntity
  8
レイヤー 1
 62
    75
420
  6921064
370
    20
100
AcDbEllipse
 10
205.6722489160705
 20
-109.1191146577788
 30
0.0
 11
-33.58757368643136
 21
33.58757368643136
 31
0.0
210
0.0
220
0.0
230
1.0
 40
0.9999998866744764
 41
0.0
 42
6.283185307179586
  0
CIRCLE
  5
8F
330
79
100
AcDbEntity
  8
レイヤー 1
 62
    75
420
  6921064
370
    20
100
AcDbCircle
 10
205.6722435331089
 20
-109.1191146577788
 30
0.0
 40
33.5000008393355
  0
CIRCLE
  5
90
330
79
100
AcDbEntity
  8
レイヤー 1
 62
    75
420
  6921064
370
    20
100
AcDbCircle
 10
205.6722481618923
 20
-109.1191183723583
 30
0.0
 40
22.49999999999999
  0
LINE
  5
91
330
79
100
AcDbEntity
  8
レイヤー 1
  6
AI-Linetype-3
 62
    75
420
  6921064
370
    20
100
AcDbLine
 10
156.1722481618931
 20
-109.1191183723583
 30
0.0
 11
255.1722481618921
 21
-109.1191183723583
 31
0.0
  0
LINE
  5
93
330
79
100
AcDbEntity
  8
レイヤー 1
  6
AI-Linetype-4
 62
    75
420
  6921064
370
    20
100
AcDbLine
 10
205.6722481618919
 20
-172.4983815114666
 30
0.0
 11
205.6722481618919
 21
-46.39896564761438
 31
0.0
  0
INSERT
  5
96
330
79
100
AcDbEntity
  8
レイヤー 1
100
AcDbBlockReference
  2
Block_1
 10
0.0
 20
0.0
 30
0.0
  0
INSERT
  5
AA
330
79
100
AcDbEntity
  8
レイヤー 1
100
AcDbBlockReference
  2
Block_2
 10
0.0
 20
0.0
 30
0.0
  0
INSERT
  5
BE
330
79
100
AcDbEntity
  8
レイヤー 1
100
AcDbBlockReference
  2
Block_3
 10
0.0
 20
0.0
 30
0.0
  0
LINE
  5
C6
330
79
100
AcDbEntity
  8
レイヤー 1
 62
    75
420
  6921064
370
    20
100
AcDbLine
 10
94.97113778438643
 20
-156.4191183723584
 30
0.0
 11
95.17113778438645
 21
-156.6191183723583
 31
0.0
  0
LINE
  5
C7
330
79
100
AcDbEntity
  8
レイヤー 1
 62
    75
420
  6921064
370
    20
100
AcDbLine
 10
95.17113778438645
 20
-61.61911837235855
 30
0.0
 11
94.97113778438643
 21
-61.81911837235856
 31
0.0
  0
INSERT
  5
C9
330
79
100
AcDbEntity
  8
レイヤー 1
100
AcDbBlockReference
  2
Block_4
 10
0.0
 20
0.0
 30
0.0
  0
INSERT
  5
DD
330
79
100
AcDbEntity
  8
レイヤー 1
100
AcDbBlockReference
  2
Block_5
 10
0.0
 20
0.0
 30
0.0
  0
LINE
  5
EC
330
79
100
AcDbEntity
  8
レイヤー 1
 62
    75
420
  6921064
370
    20
100
AcDbLine
 10
99.97113778438661
 20
-61.61911837235855
 30
0.0
 11
104.9711377843864
 21
-75.61911837235841
 31
0.0
  0
LINE
  5
ED
330
79
100
AcDbEntity
  8
レイヤー 1
 62
    75
420
  6921064
370
    20
100
AcDbLine
 10
99.97113778438661
 20
-156.6191183723583
 30
0.0
 11
104.9711377843864
 21
-142.6191183723585
 31
0.0
  0
LINE
  5
EE
330
79
100
AcDbEntity
  8
レイヤー 1
 62
    75
420
  6921064
370
    20
100
AcDbLine
 10
104.9711377843864
 20
-78.16911837235834
 30
0.0
 11
104.9711377843864
 21
-75.61911837235841
 31
0.0
  0
LINE
  5
EF
330
79
100
AcDbEntity
  8
レイヤー 1
 62
    75
420
  6921064
370
    20
100
AcDbLine
 10
94.97113778438643
 20
-71.81911837235858
 30
0.0
 11
94.97113778438643
 21
-86.61911837235846
 31
0.0
  0
LINE
  5
F0
330
79
100
AcDbEntity
  8
レイヤー 1
 62
    75
420
  6921064
370
    20
100
AcDbLine
 10
94.97113778438643
 20
-149.5191183723584
 30
0.0
 11
94.97113778438643
 21
-156.4191183723584
 31
0.0
  0
LINE
  5
F1
330
79
100
AcDbEntity
  8
レイヤー 1
 62
    75
420
  6921064
370
    20
100
AcDbLine
 10
104.9711377843864
 20
-140.0691183723585
 30
0.0
 11
104.9711377843864
 21
-142.6191183723585
 31
0.0
  0
CIRCLE
  5
F2
330
79
100
AcDbEntity
  8
レイヤー 1
  6
AI-Linetype-5
 62
    75
420
  6921064
370
    20
100
AcDbCircle
 10
205.6722435331089
 20
-109.1191146577788
 30
0.0
 40
40.2000010072026
  0
ELLIPSE
  5
F4
330
79
100
AcDbEntity
  8
レイヤー 1
  6
AI-Linetype-6
 62
    75
420
  6921064
370
    20
100
AcDbEllipse
 10
205.6722489160705
 20
-109.1191146577788
 30
0.0
 11
-26.51650353858937
 21
26.51650353858938
 31
0.0
210
0.0
220
0.0
230
1.0
 40
0.9999998564543609
 41
0.0
 42
6.283185307179586
  0
MTEXT
  5
F6
330
79
100
AcDbEntity
  8
レイヤー 1
100
AcDbMText
 10
83.53852168219969
 20
-185.2759002222357
 30
0.0
 40
0.2
 41
0.0
 46
0.0
 71
     7
 72
     1
  1
\C251;\c4868939;\FMS Gothic|b0|i0|c128;\H6.000000;\W1.026667;AA断面
 73
     1
 44
1.0
  0
INSERT
  5
F8
330
79
100
AcDbEntity
  8
レイヤー 1
100
AcDbBlockReference
  2
Block_6
 10
0.0
 20
0.0
 30
0.0
  0
MTEXT
  5
FE
330
79
100
AcDbEntity
  8
レイヤー 1
100
AcDbMText
 10
192.8284538634682
 20
-47.96503091248791
 30
0.0
 40
0.2
 41
0.0
 46
0.0
 71
     7
 72
     1
  1
\C251;\c4868939;\FMS Gothic|b0|i0|c128;\H4.000000;\W1.155000;A
 73
     1
 44
1.0
  0
INSERT
  5
100
330
79
100
AcDbEntity
  8
レイヤー 1
100
AcDbBlockReference
  2
Block_7
 10
0.0
 20
0.0
 30
0.0
  0
MTEXT
  5
106
330
79
100
AcDbEntity
  8
レイヤー 1
100
AcDbMText
 10
192.8284538634682
 20
-167.3227325021146
 30
0.0
 40
0.2
 41
0.0
 46
0.0
 71
     7
 72
     1
  1
\C251;\c4868939;\FMS Gothic|b0|i0|c128;\H4.000000;\W1.155000;A
 73
     1
 44
1.0
  0
LINE
  5
107
330
79
100
AcDbEntity
  8
レイヤー 1
 62
    75
420
  6921064
370
    20
100
AcDbLine
 10
104.8211377843866
 20
-81.51911837235862
 30
0.0
 11
103.2711377843864
 21
-81.51911837235862
 31
0.0
  0
LINE
  5
108
330
79
100
AcDbEntity
  8
レイヤー 1
 62
    75
420
  6921064
370
    20
100
AcDbLine
 10
103.2711377843864
 20
-78.3191183723585
 30
0.0
 11
104.8211377843866
 21
-78.3191183723585
 31
0.0
  0
INSERT
  5
10A
330
79
100
AcDbEntity
  8
レイヤー 1
100
AcDbBlockReference
  2
Block_8
 10
0.0
 20
0.0
 30
0.0
  0
SPLINE
  5
11D
330
79
100
AcDbEntity
  8
レイヤー 1
 62
    75
420
  6921064
370
    20
100
AcDbSpline
210
0.0
220
0.0
230
1.0
 70
     8
 71
     3
 72
     8
 73
     4
 74
     0
 42
0.0000000001
 43
0.0000000001
 40
0.0
 40
0.0
 40
0.0
 40
0.0
 40
1.0
 40
1.0
 40
1.0
 40
1.0
 10
104.9711377843864
 20
-81.66911837235845
 30
0.0
 10
104.9711377843864
 20
-81.58627565988366
 30
0.0
 10
104.9039804968611
 20
-81.51911837235829
 30
0.0
 10
104.8211377843866
 20
-81.51911837235829
 30
0.0
  0
INSERT
  5
11F
330
79
100
AcDbEntity
  8
レイヤー 1
100
AcDbBlockReference
  2
Block_9
 10
0.0
 20
0.0
 30
0.0
  0
INSERT
  5
125
330
79
100
AcDbEntity
  8
レイヤー 1
100
AcDbBlockReference
  2
Block_10
 10
0.0
 20
0.0
 30
0.0
  0
SPLINE
  5
12A
330
79
100
AcDbEntity
  8
レイヤー 1
 62
    75
420
  6921064
370
    20
100
AcDbSpline
210
0.0
220
0.0
230
1.0
 70
     8
 71
     3
 72
     8
 73
     4
 74
     0
 42
0.0000000001
 43
0.0000000001
 40
0.0
 40
0.0
 40
0.0
 40
0.0
 40
1.0
 40
1.0
 40
1.0
 40
1.0
 10
104.8211377843866
 20
-78.3191183723585
 30
0.0
 10
104.9039804968611
 20
-78.3191183723585
 30
0.0
 10
104.9711377843864
 20
-78.25196108483314
 30
0.0
 10
104.9711377843864
 20
-78.16911837235834
 30
0.0
  0
LINE
  5
12B
330
79
100
AcDbEntity
  8
レイヤー 1
 62
    75
420
  6921064
370
    20
100
AcDbLine
 10
104.8211377843866
 20
-136.7191183723586
 30
0.0
 11
103.2711377843864
 21
-136.7191183723586
 31
0.0
  0
SPLINE
  5
12C
330
79
100
AcDbEntity
  8
レイヤー 1
 62
    75
420
  6921064
370
    20
100
AcDbSpline
210
0.0
220
0.0
230
1.0
 70
     8
 71
     3
 72
     8
 73
     4
 74
     0
 42
0.0000000001
 43
0.0000000001
 40
0.0
 40
0.0
 40
0.0
 40
0.0
 40
1.0
 40
1.0
 40
1.0
 40
1.0
 10
104.8211377843866
 20
-136.7191183723586
 30
0.0
 10
104.9039804968611
 20
-136.7191183723586
 30
0.0
 10
104.9711377843864
 20
-136.6519610848329
 30
0.0
 10
104.9711377843864
 20
-136.5691183723581
 30
0.0
  0
LINE
  5
12D
330
79
100
AcDbEntity
  8
レイヤー 1
 62
    75
420
  6921064
370
    20
100
AcDbLine
 10
103.2711377843864
 20
-78.3191183723585
 30
0.0
 11
103.2711377843864
 21
-81.51911837235862
 31
0.0
  0
LINE
  5
12E
330
79
100
AcDbEntity
  8
レイヤー 1
 62
    75
420
  6921064
370
    20
100
AcDbLine
 10
103.2711377843864
 20
-139.9191183723587
 30
0.0
 11
104.8211377843866
 21
-139.9191183723587
 31
0.0
  0
SPLINE
  5
12F
330
79
100
AcDbEntity
  8
レイヤー 1
 62
    75
420
  6921064
370
    20
100
AcDbSpline
210
0.0
220
0.0
230
1.0
 70
     8
 71
     3
 72
     8
 73
     4
 74
     0
 42
0.0000000001
 43
0.0000000001
 40
0.0
 40
0.0
 40
0.0
 40
0.0
 40
1.0
 40
1.0
 40
1.0
 40
1.0
 10
104.9711377843864
 20
-140.0691183723585
 30
0.0
 10
104.9711377843864
 20
-139.9862756598838
 30
0.0
 10
104.9039804968611
 20
-139.9191183723587
 30
0.0
 10
104.8211377843866
 20
-139.9191183723587
 30
0.0
  0
LINE
  5
130
330
79
100
AcDbEntity
  8
レイヤー 1
 62
    75
420
  6921064
370
    20
100
AcDbLine
 10
103.2711377843864
 20
-139.9191183723587
 30
0.0
 11
103.2711377843864
 21
-136.7191183723586
 31
0.0
  0
INSERT
  5
132
330
79
100
AcDbEntity
  8
レイヤー 1
100
AcDbBlockReference
  2
Block_11
 10
0.0
 20
0.0
 30
0.0
  0
INSERT
  5
142
330
79
100
AcDbEntity
  8
レイヤー 1
100
AcDbBlockReference
  2
Block_12
 10
0.0
 20
0.0
 30
0.0
  0
ELLIPSE
  5
151
330
79
100
AcDbEntity
  8
レイヤー 1
 62
    75
420
  6921064
370
    20
100
AcDbEllipse
 10
205.6722489160705
 20
-109.1191146577788
 30
0.0
 11
-21.7788879859396
 21
21.7788879859396
 31
0.0
210
0.0
220
0.0
230
1.0
 40
0.9999998252285246
 41
0.0
 42
6.283185307179586
  0
CIRCLE
  5
152
330
79
100
AcDbEntity
  8
レイヤー 1
 62
    75
420
  6921064
370
    20
100
AcDbCircle
 10
205.6722435331089
 20
-109.1191146577788
 30
0.0
 40
27.59999490683699
  0
LINE
  5
153
330
79
100
AcDbEntity
  8
レイヤー 1
 62
   251
420
  4934474
370
    20
100
AcDbLine
 10
93.9711377843864
 20
-146.6191183723586
 30
0.0
 11
62.14980902022264
 21
-146.6191183723586
 31
0.0
  0
LINE
  5
154
330
79
100
AcDbEntity
  8
レイヤー 1
 62
   251
420
  4934474
370
    20
100
AcDbLine
 10
94.32442958266758
 20
-71.61911837235859
 30
0.0
 11
62.14980902022264
 21
-71.61911837235859
 31
0.0
  0
LINE
  5
155
330
79
100
AcDbEntity
  8
レイヤー 1
 62
   251
420
  4934474
370
    20
100
AcDbLine
 10
63.31647568688967
 20
-145.6191183723586
 30
0.0
 11
63.14980902022267
 21
-146.6191183723586
 31
0.0
  0
LINE
  5
156
330
79
100
AcDbEntity
  8
レイヤー 1
 62
   251
420
  4934474
370
    20
100
AcDbLine
 10
62.98314235355568
 20
-145.6191183723586
 30
0.0
 11
63.14980902022267
 21
-146.6191183723586
 31
0.0
  0
LINE
  5
157
330
79
100
AcDbEntity
  8
レイヤー 1
 62
   251
420
  4934474
370
    20
100
AcDbLine
 10
63.14980902022267
 20
-146.6191183723586
 30
0.0
 11
63.14980902022267
 21
-145.6191183723586
 31
0.0
  0
LINE
  5
158
330
79
100
AcDbEntity
  8
レイヤー 1
 62
   251
420
  4934474
370
    20
100
AcDbLine
 10
62.98314235355568
 20
-72.6191183723583
 30
0.0
 11
63.14980902022267
 21
-71.61911837235859
 31
0.0
  0
LINE
  5
159
330
79
100
AcDbEntity
  8
レイヤー 1
 62
   251
420
  4934474
370
    20
100
AcDbLine
 10
63.31647568688967
 20
-72.6191183723583
 30
0.0
 11
63.14980902022267
 21
-71.61911837235859
 31
0.0
  0
LINE
  5
15A
330
79
100
AcDbEntity
  8
レイヤー 1
 62
   251
420
  4934474
370
    20
100
AcDbLine
 10
63.14980902022267
 20
-71.61911837235859
 30
0.0
 11
63.14980902022267
 21
-72.6191183723583
 31
0.0
  0
LINE
  5
15B
330
79
100
AcDbEntity
  8
レイヤー 1
 62
   251
420
  4934474
370
    20
100
AcDbLine
 10
63.31647568688967
 20
-145.6191183723586
 30
0.0
 11
63.14980902022267
 21
-146.6191183723586
 31
0.0
  0
LINE
  5
15C
330
79
100
AcDbEntity
  8
レイヤー 1
 62
   251
420
  4934474
370
    20
100
AcDbLine
 10
62.98314235355568
 20
-145.6191183723586
 30
0.0
 11
63.14980902022267
 21
-146.6191183723586
 31
0.0
  0
LINE
  5
15D
330
79
100
AcDbEntity
  8
レイヤー 1
 62
   251
420
  4934474
370
    20
100
AcDbLine
 10
63.14980902022267
 20
-146.6191183723586
 30
0.0
 11
63.14980902022267
 21
-145.6191183723586
 31
0.0
  0
LINE
  5
15E
330
79
100
AcDbEntity
  8
レイヤー 1
 62
   251
420
  4934474
370
    20
100
AcDbLine
 10
62.98314235355568
 20
-72.6191183723583
 30
0.0
 11
63.14980902022267
 21
-71.61911837235859
 31
0.0
  0
LINE
  5
15F
330
79
100
AcDbEntity
  8
レイヤー 1
 62
   251
420
  4934474
370
    20
100
AcDbLine
 10
63.31647568688967
 20
-72.6191183723583
 30
0.0
 11
63.14980902022267
 21
-71.61911837235859
 31
0.0
  0
LINE
  5
160
330
79
100
AcDbEntity
  8
レイヤー 1
 62
   251
420
  4934474
370
    20
100
AcDbLine
 10
63.14980902022267
 20
-71.61911837235859
 30
0.0
 11
63.14980902022267
 21
-72.6191183723583
 31
0.0
  0
LINE
  5
161
330
79
100
AcDbEntity
  8
レイヤー 1
 62
   251
420
  4934474
370
    20
100
AcDbLine
 10
63.14980902022267
 20
-146.6191183723586
 30
0.0
 11
63.14980902022267
 21
-71.61911837235859
 31
0.0
  0
MTEXT
  5
162
330
79
100
AcDbEntity
  8
レイヤー 1
100
AcDbMText
 10
62.14982399976138
 20
-120.1194552651084
 30
0.0
 40
0.2
 41
0.0
 46
0.0
 71
     7
 72
     1
  1
\C251;\c4868939;\FKozGoPr6N-Regular|b0|i0|c128;\H4.000000;\W0.937500;φ75
 11
-0.0000000000000002
 21
1.0
 31
0.0
 73
     1
 44
1.0
  0
LINE
  5
163
330
79
100
AcDbEntity
  8
レイヤー 1
 62
    75
420
  6921064
370
    20
100
AcDbLine
 10
98.10246710508646
 20
-156.6191183723583
 30
0.0
 11
101.0092881617755
 21
-153.7122973156696
 31
0.0
  0
LINE
  5
164
330
79
100
AcDbEntity
  8
レイヤー 1
 62
    75
420
  6921064
370
    20
100
AcDbLine
 10
94.97113778438643
 20
-156.2266989001452
 30
0.0
 11
102.9669263800604
 21
-148.2309103044716
 31
0.0
  0
LINE
  5
165
330
79
100
AcDbEntity
  8
レイヤー 1
 62
    75
420
  6921064
370
    20
100
AcDbLine
 10
94.97113778438643
 20
-152.7029501072321
 30
0.0
 11
104.9245645983456
 21
-142.7495232932736
 31
0.0
  0
LINE
  5
166
330
79
100
AcDbEntity
  8
レイヤー 1
 62
    75
420
  6921064
370
    20
100
AcDbLine
 10
96.47113778438651
 20
-147.6792013143192
 30
0.0
 11
104.2312207263476
 21
-139.9191183723587
 31
0.0
  0
LINE
  5
167
330
79
100
AcDbEntity
  8
レイヤー 1
 62
    75
420
  6921064
370
    20
100
AcDbLine
 10
94.97113778438643
 20
-145.6554525214065
 30
0.0
 11
103.2711377843864
 21
-137.3554525214065
 31
0.0
  0
LINE
  5
168
330
79
100
AcDbEntity
  8
レイヤー 1
 62
    75
420
  6921064
370
    20
100
AcDbLine
 10
103.9074719334346
 20
-136.7191183723586
 30
0.0
 11
104.9711377843864
 21
-135.6554525214061
 31
0.0
  0
LINE
  5
169
330
79
100
AcDbEntity
  8
レイヤー 1
 62
    75
420
  6921064
370
    20
100
AcDbLine
 10
94.97113778438643
 20
-142.1317037284934
 30
0.0
 11
104.9711377843864
 21
-132.1317037284936
 31
0.0
  0
LINE
  5
16A
330
79
100
AcDbEntity
  8
レイヤー 1
 62
    75
420
  6921064
370
    20
100
AcDbLine
 10
94.97113778438643
 20
-138.6079549355802
 30
0.0
 11
101.9599743476085
 21
-131.6191183723588
 31
0.0
  0
LINE
  5
16B
330
79
100
AcDbEntity
  8
レイヤー 1
 62
    75
420
  6921064
370
    20
100
AcDbLine
 10
94.97113778438643
 20
-135.0842061426677
 30
0.0
 11
98.43622555469671
 21
-131.6191183723588
 31
0.0
  0
LINE
  5
16C
330
79
100
AcDbEntity
  8
レイヤー 1
 62
    75
420
  6921064
370
    20
100
AcDbLine
 10
104.6749888326535
 20
-86.61911837235846
 30
0.0
 11
104.9711377843864
 21
-86.32296942062552
 31
0.0
  0
LINE
  5
16D
330
79
100
AcDbEntity
  8
レイヤー 1
 62
    75
420
  6921064
370
    20
100
AcDbLine
 10
101.1512400397407
 20
-86.61911837235846
 30
0.0
 11
104.9711377843864
 21
-82.79922062771239
 31
0.0
  0
LINE
  5
16E
330
79
100
AcDbEntity
  8
レイヤー 1
 62
    75
420
  6921064
370
    20
100
AcDbLine
 10
97.62749124682757
 20
-86.61911837235846
 30
0.0
 11
103.2711377843864
 21
-80.97547183479932
 31
0.0
  0
LINE
  5
16F
330
79
100
AcDbEntity
  8
レイヤー 1
 62
    75
420
  6921064
370
    20
100
AcDbLine
 10
94.97113778438643
 20
-85.75172304188647
 30
0.0
 11
104.9711377843864
 21
-75.75172304188645
 31
0.0
  0
LINE
  5
170
330
79
100
AcDbEntity
  8
レイヤー 1
 62
    75
420
  6921064
370
    20
100
AcDbLine
 10
94.97113778438643
 20
-82.22797424897335
 30
0.0
 11
104.0787314361276
 21
-73.12038059723246
 31
0.0
  0
LINE
  5
171
330
79
100
AcDbEntity
  8
レイヤー 1
 62
    75
420
  6921064
370
    20
100
AcDbLine
 10
94.97113778438643
 20
-78.70422545606054
 30
0.0
 11
103.1514291222034
 21
-70.52393411824446
 31
0.0
  0
LINE
  5
172
330
79
100
AcDbEntity
  8
レイヤー 1
 62
    75
420
  6921064
370
    20
100
AcDbLine
 10
94.97113778438643
 20
-75.1804766631474
 30
0.0
 11
102.2241268082787
 21
-67.92748763925549
 31
0.0
  0
LINE
  5
173
330
79
100
AcDbEntity
  8
レイヤー 1
 62
    75
420
  6921064
370
    20
100
AcDbLine
 10
96.47113778438651
 20
-70.15672787023453
 30
0.0
 11
101.2968244943545
 21
-65.33104116026748
 31
0.0
  0
LINE
  5
174
330
79
100
AcDbEntity
  8
レイヤー 1
 62
    75
420
  6921064
370
    20
100
AcDbLine
 10
94.97113778438643
 20
-68.13297907732146
 30
0.0
 11
100.3695221804297
 21
-62.73459468127853
 31
0.0
  0
LINE
  5
175
330
79
100
AcDbEntity
  8
レイヤー 1
 62
    75
420
  6921064
370
    20
100
AcDbLine
 10
94.97113778438643
 20
-64.60923028440832
 30
0.0
 11
97.96124969643654
 21
-61.61911837235855
 31
0.0
  0
LINE
  5
176
330
79
100
AcDbEntity
  8
レイヤー 1
 62
    75
420
  6921064
370
    20
100
AcDbLine
 10
94.97113778438643
 20
-86.61911837235846
 30
0.0
 11
104.9711377843864
 21
-86.61911837235846
 31
0.0
  0
LINE
  5
177
330
79
100
AcDbEntity
  8
レイヤー 1
 62
    75
420
  6921064
370
    20
100
AcDbLine
 10
104.9711377843864
 20
-86.61911837235846
 30
0.0
 11
104.9711377843864
 21
-81.66911837235845
 31
0.0
  0
SPLINE
  5
178
330
79
100
AcDbEntity
  8
レイヤー 1
 62
    75
420
  6921064
370
    20
100
AcDbSpline
210
0.0
220
0.0
230
1.0
 70
     8
 71
     3
 72
     8
 73
     4
 74
     0
 42
0.0000000001
 43
0.0000000001
 40
0.0
 40
0.0
 40
0.0
 40
0.0
 40
1.0
 40
1.0
 40
1.0
 40
1.0
 10
104.9711377843864
 20
-81.66911837235845
 30
0.0
 10
104.9711377843864
 20
-81.58627565988366
 30
0.0
 10
104.9039804968611
 20
-81.51911837235829
 30
0.0
 10
104.8211377843866
 20
-81.51911837235829
 30
0.0
  0
LINE
  5
179
330
79
100
AcDbEntity
  8
レイヤー 1
 62
    75
420
  6921064
370
    20
100
AcDbLine
 10
104.8211377843866
 20
-81.51911837235862
 30
0.0
 11
103.2711377843864
 21
-81.51911837235862
 31
0.0
  0
LINE
  5
17A
330
79
100
AcDbEntity
  8
レイヤー 1
 62
    75
420
  6921064
370
    20
100
AcDbLine
 10
103.2711377843864
 20
-81.51911837235862
 30
0.0
 11
103.2711377843864
 21
-78.3191183723585
 31
0.0
  0
LINE
  5
17B
330
79
100
AcDbEntity
  8
レイヤー 1
 62
    75
420
  6921064
370
    20
100
AcDbLine
 10
103.2711377843864
 20
-78.3191183723585
 30
0.0
 11
104.8211377843866
 21
-78.3191183723585
 31
0.0
  0
SPLINE
  5
17C
330
79
100
AcDbEntity
  8
レイヤー 1
 62
    75
420
  6921064
370
    20
100
AcDbSpline
210
0.0
220
0.0
230
1.0
 70
     8
 71
     3
 72
     8
 73
     4
 74
     0
 42
0.0000000001
 43
0.0000000001
 40
0.0
 40
0.0
 40
0.0
 40
0.0
 40
1.0
 40
1.0
 40
1.0
 40
1.0
 10
104.8211377843866
 20
-78.3191183723585
 30
0.0
 10
104.9039804968611
 20
-78.3191183723585
 30
0.0
 10
104.9711377843864
 20
-78.25196108483314
 30
0.0
 10
104.9711377843864
 20
-78.16911837235834
 30
0.0
  0
LINE
  5
17D
330
79
100
AcDbEntity
  8
レイヤー 1
 62
    75
420
  6921064
370
    20
100
AcDbLine
 10
104.9711377843864
 20
-78.16911837235834
 30
0.0
 11
104.9711377843864
 21
-75.61911837235841
 31
0.0
  0
LINE
  5
17E
330
79
100
AcDbEntity
  8
レイヤー 1
 62
    75
420
  6921064
370
    20
100
AcDbLine
 10
104.9711377843864
 20
-75.61911837235841
 30
0.0
 11
99.97113778438661
 21
-61.61911837235855
 31
0.0
  0
LINE
  5
17F
330
79
100
AcDbEntity
  8
レイヤー 1
 62
    75
420
  6921064
370
    20
100
AcDbLine
 10
99.97113778438661
 20
-61.61911837235855
 30
0.0
 11
95.17113778438645
 21
-61.61911837235855
 31
0.0
  0
LINE
  5
180
330
79
100
AcDbEntity
  8
レイヤー 1
 62
    75
420
  6921064
370
    20
100
AcDbLine
 10
95.17113778438645
 20
-61.61911837235855
 30
0.0
 11
94.97113778438643
 21
-61.81911837235856
 31
0.0
  0
LINE
  5
181
330
79
100
AcDbEntity
  8
レイヤー 1
 62
    75
420
  6921064
370
    20
100
AcDbLine
 10
94.97113778438643
 20
-61.81911837235856
 30
0.0
 11
94.97113778438643
 21
-68.71911837235848
 31
0.0
  0
SPLINE
  5
182
330
79
100
AcDbEntity
  8
レイヤー 1
 62
    75
420
  6921064
370
    20
100
AcDbSpline
210
0.0
220
0.0
230
1.0
 70
     8
 71
     3
 72
     8
 73
     4
 74
     0
 42
0.0000000001
 43
0.0000000001
 40
0.0
 40
0.0
 40
0.0
 40
0.0
 40
1.0
 40
1.0
 40
1.0
 40
1.0
 10
94.97113778438643
 20
-68.71911837235848
 30
0.0
 10
94.97113778438643
 20
-68.82957532232467
 30
0.0
 10
95.06068083442025
 20
-68.91911837235849
 30
0.0
 10
95.17113778438645
 20
-68.91911837235849
 30
0.0
  0
LINE
  5
183
330
79
100
AcDbEntity
  8
レイヤー 1
 62
    75
420
  6921064
370
    20
100
AcDbLine
 10
95.17113778438645
 20
-68.91911837235849
 30
0.0
 11
96.47113778438651
 21
-68.91911837235849
 31
0.0
  0
LINE
  5
184
330
79
100
AcDbEntity
  8
レイヤー 1
 62
    75
420
  6921064
370
    20
100
AcDbLine
 10
96.47113778438651
 20
-68.91911837235849
 30
0.0
 11
96.47113778438651
 21
-71.61911837235859
 31
0.0
  0
LINE
  5
185
330
79
100
AcDbEntity
  8
レイヤー 1
 62
    75
420
  6921064
370
    20
100
AcDbLine
 10
96.47113778438651
 20
-71.61911837235859
 30
0.0
 11
95.17113778438645
 21
-71.61911837235859
 31
0.0
  0
SPLINE
  5
186
330
79
100
AcDbEntity
  8
レイヤー 1
 62
    75
420
  6921064
370
    20
100
AcDbSpline
210
0.0
220
0.0
230
1.0
 70
     8
 71
     3
 72
     8
 73
     4
 74
     0
 42
0.0000000001
 43
0.0000000001
 40
0.0
 40
0.0
 40
0.0
 40
0.0
 40
1.0
 40
1.0
 40
1.0
 40
1.0
 10
95.17113778438645
 20
-71.61911837235859
 30
0.0
 10
95.06068083442025
 20
-71.61911837235859
 30
0.0
 10
94.97113778438643
 20
-71.70866142239241
 30
0.0
 10
94.97113778438643
 20
-71.81911837235858
 30
0.0
  0
LINE
  5
187
330
79
100
AcDbEntity
  8
レイヤー 1
 62
    75
420
  6921064
370
    20
100
AcDbLine
 10
94.97113778438643
 20
-71.81911837235858
 30
0.0
 11
94.97113778438643
 21
-86.61911837235846
 31
0.0
  0
LINE
  5
188
330
79
100
AcDbEntity
  8
レイヤー 1
 62
    75
420
  6921064
370
    20
100
AcDbLine
 10
94.97113778438643
 20
-131.6191183723588
 30
0.0
 11
104.9711377843864
 21
-131.6191183723588
 31
0.0
  0
LINE
  5
189
330
79
100
AcDbEntity
  8
レイヤー 1
 62
    75
420
  6921064
370
    20
100
AcDbLine
 10
104.9711377843864
 20
-131.6191183723588
 30
0.0
 11
104.9711377843864
 21
-136.5691183723581
 31
0.0
  0
SPLINE
  5
18A
330
79
100
AcDbEntity
  8
レイヤー 1
 62
    75
420
  6921064
370
    20
100
AcDbSpline
210
0.0
220
0.0
230
1.0
 70
     8
 71
     3
 72
     8
 73
     4
 74
     0
 42
0.0000000001
 43
0.0000000001
 40
0.0
 40
0.0
 40
0.0
 40
0.0
 40
1.0
 40
1.0
 40
1.0
 40
1.0
 10
104.8211377843866
 20
-136.7191183723586
 30
0.0
 10
104.9039804968611
 20
-136.7191183723586
 30
0.0
 10
104.9711377843864
 20
-136.6519610848329
 30
0.0
 10
104.9711377843864
 20
-136.5691183723581
 30
0.0
  0
LINE
  5
18B
330
79
100
AcDbEntity
  8
レイヤー 1
 62
    75
420
  6921064
370
    20
100
AcDbLine
 10
104.8211377843866
 20
-136.7191183723586
 30
0.0
 11
103.2711377843864
 21
-136.7191183723586
 31
0.0
  0
LINE
  5
18C
330
79
100
AcDbEntity
  8
レイヤー 1
 62
    75
420
  6921064
370
    20
100
AcDbLine
 10
103.2711377843864
 20
-136.7191183723586
 30
0.0
 11
103.2711377843864
 21
-139.9191183723587
 31
0.0
  0
LINE
  5
18D
330
79
100
AcDbEntity
  8
レイヤー 1
 62
    75
420
  6921064
370
    20
100
AcDbLine
 10
103.2711377843864
 20
-139.9191183723587
 30
0.0
 11
104.8211377843866
 21
-139.9191183723587
 31
0.0
  0
SPLINE
  5
18E
330
79
100
AcDbEntity
  8
レイヤー 1
 62
    75
420
  6921064
370
    20
100
AcDbSpline
210
0.0
220
0.0
230
1.0
 70
     8
 71
     3
 72
     8
 73
     4
 74
     0
 42
0.0000000001
 43
0.0000000001
 40
0.0
 40
0.0
 40
0.0
 40
0.0
 40
1.0
 40
1.0
 40
1.0
 40
1.0
 10
104.9711377843864
 20
-140.0691183723585
 30
0.0
 10
104.9711377843864
 20
-139.9862756598838
 30
0.0
 10
104.9039804968611
 20
-139.9191183723587
 30
0.0
 10
104.8211377843866
 20
-139.9191183723587
 30
0.0
  0
LINE
  5
18F
330
79
100
AcDbEntity
  8
レイヤー 1
 62
    75
420
  6921064
370
    20
100
AcDbLine
 10
104.9711377843864
 20
-140.0691183723585
 30
0.0
 11
104.9711377843864
 21
-142.6191183723585
 31
0.0
  0
LINE
  5
190
330
79
100
AcDbEntity
  8
レイヤー 1
 62
    75
420
  6921064
370
    20
100
AcDbLine
 10
104.9711377843864
 20
-142.6191183723585
 30
0.0
 11
99.97113778438661
 21
-156.6191183723583
 31
0.0
  0
LINE
  5
191
330
79
100
AcDbEntity
  8
レイヤー 1
 62
    75
420
  6921064
370
    20
100
AcDbLine
 10
99.97113778438661
 20
-156.6191183723583
 30
0.0
 11
95.17113778438645
 21
-156.6191183723583
 31
0.0
  0
LINE
  5
192
330
79
100
AcDbEntity
  8
レイヤー 1
 62
    75
420
  6921064
370
    20
100
AcDbLine
 10
95.17113778438645
 20
-156.6191183723583
 30
0.0
 11
94.97113778438643
 21
-156.4191183723584
 31
0.0
  0
LINE
  5
193
330
79
100
AcDbEntity
  8
レイヤー 1
 62
    75
420
  6921064
370
    20
100
AcDbLine
 10
94.97113778438643
 20
-156.4191183723584
 30
0.0
 11
94.97113778438643
 21
-149.5191183723584
 31
0.0
  0
SPLINE
  5
194
330
79
100
AcDbEntity
  8
レイヤー 1
 62
    75
420
  6921064
370
    20
100
AcDbSpline
210
0.0
220
0.0
230
1.0
 70
     8
 71
     3
 72
     8
 73
     4
 74
     0
 42
0.0000000001
 43
0.0000000001
 40
0.0
 40
0.0
 40
0.0
 40
0.0
 40
1.0
 40
1.0
 40
1.0
 40
1.0
 10
95.17113778438645
 20
-149.3191183723584
 30
0.0
 10
95.06068083442025
 20
-149.3191183723584
 30
0.0
 10
94.97113778438643
 20
-149.4086614223922
 30
0.0
 10
94.97113778438643
 20
-149.5191183723584
 30
0.0
  0
LINE
  5
195
330
79
100
AcDbEntity
  8
レイヤー 1
 62
    75
420
  6921064
370
    20
100
AcDbLine
 10
95.17113778438645
 20
-149.3191183723584
 30
0.0
 11
96.47113778438651
 21
-149.3191183723584
 31
0.0
  0
LINE
  5
196
330
79
100
AcDbEntity
  8
レイヤー 1
 62
    75
420
  6921064
370
    20
100
AcDbLine
 10
96.47113778438651
 20
-149.3191183723584
 30
0.0
 11
96.47113778438651
 21
-146.6191183723586
 31
0.0
  0
LINE
  5
197
330
79
100
AcDbEntity
  8
レイヤー 1
 62
    75
420
  6921064
370
    20
100
AcDbLine
 10
96.47113778438651
 20
-146.6191183723586
 30
0.0
 11
95.17113778438645
 21
-146.6191183723586
 31
0.0
  0
SPLINE
  5
198
330
79
100
AcDbEntity
  8
レイヤー 1
 62
    75
420
  6921064
370
    20
100
AcDbSpline
210
0.0
220
0.0
230
1.0
 70
     8
 71
     3
 72
     8
 73
     4
 74
     0
 42
0.0000000001
 43
0.0000000001
 40
0.0
 40
0.0
 40
0.0
 40
0.0
 40
1.0
 40
1.0
 40
1.0
 40
1.0
 10
94.97113778438643
 20
-146.4191183723587
 30
0.0
 10
94.97113778438643
 20
-146.5295753223248
 30
0.0
 10
95.06068083442025
 20
-146.6191183723586
 30
0.0
 10
95.17113778438645
 20
-146.6191183723586
 30
0.0
  0
LINE
  5
199
330
79
100
AcDbEntity
  8
レイヤー 1
 62
    75
420
  6921064
370
    20
100
AcDbLine
 10
94.97113778438643
 20
-146.4191183723587
 30
0.0
 11
94.97113778438643
 21
-131.6191183723588
 31
0.0
  0
LINE
  5
19A
330
79
100
AcDbEntity
  8
レイヤー 1
 62
    75
420
  6921064
370
    20
100
AcDbLine
 10
95.17113778438645
 20
-71.61911837235859
 30
0.0
 11
96.47113778438651
 21
-71.61911837235859
 31
0.0
  0
LINE
  5
19B
330
79
100
AcDbEntity
  8
レイヤー 1
 62
    75
420
  6921064
370
    20
100
AcDbLine
 10
95.17113778438645
 20
-68.91911837235849
 30
0.0
 11
96.47113778438651
 21
-68.91911837235849
 31
0.0
  0
LINE
  5
19C
330
79
100
AcDbEntity
  8
レイヤー 1
 62
    75
420
  6921064
370
    20
100
AcDbLine
 10
96.47113778438651
 20
-68.91911837235849
 30
0.0
 11
96.47113778438651
 21
-71.61911837235859
 31
0.0
  0
SPLINE
  5
19D
330
79
100
AcDbEntity
  8
レイヤー 1
 62
    75
420
  6921064
370
    20
100
AcDbSpline
210
0.0
220
0.0
230
1.0
 70
     8
 71
     3
 72
     8
 73
     4
 74
     0
 42
0.0000000001
 43
0.0000000001
 40
0.0
 40
0.0
 40
0.0
 40
0.0
 40
1.0
 40
1.0
 40
1.0
 40
1.0
 10
95.17113778438645
 20
-71.61911837235859
 30
0.0
 10
95.06068083442025
 20
-71.61911837235859
 30
0.0
 10
94.97113778438643
 20
-71.70866142239241
 30
0.0
 10
94.97113778438643
 20
-71.81911837235858
 30
0.0
  0
SPLINE
  5
19E
330
79
100
AcDbEntity
  8
レイヤー 1
 62
    75
420
  6921064
370
    20
100
AcDbSpline
210
0.0
220
0.0
230
1.0
 70
     8
 71
     3
 72
     8
 73
     4
 74
     0
 42
0.0000000001
 43
0.0000000001
 40
0.0
 40
0.0
 40
0.0
 40
0.0
 40
1.0
 40
1.0
 40
1.0
 40
1.0
 10
94.97113778438643
 20
-68.71911837235848
 30
0.0
 10
94.97113778438643
 20
-68.82957532232467
 30
0.0
 10
95.06068083442025
 20
-68.91911837235849
 30
0.0
 10
95.17113778438645
 20
-68.91911837235849
 30
0.0
  0
LINE
  5
19F
330
79
100
AcDbEntity
  8
レイヤー 1
 62
    75
420
  6921064
370
    20
100
AcDbLine
 10
95.17113778438645
 20
-146.6191183723586
 30
0.0
 11
96.47113778438651
 21
-146.6191183723586
 31
0.0
  0
LINE
  5
1A0
330
79
100
AcDbEntity
  8
レイヤー 1
 62
    75
420
  6921064
370
    20
100
AcDbLine
 10
95.17113778438645
 20
-149.3191183723584
 30
0.0
 11
96.47113778438651
 21
-149.3191183723584
 31
0.0
  0
LINE
  5
1A1
330
79
100
AcDbEntity
  8
レイヤー 1
 62
    75
420
  6921064
370
    20
100
AcDbLine
 10
96.47113778438651
 20
-149.3191183723584
 30
0.0
 11
96.47113778438651
 21
-146.6191183723586
 31
0.0
  0
SPLINE
  5
1A2
330
79
100
AcDbEntity
  8
レイヤー 1
 62
    75
420
  6921064
370
    20
100
AcDbSpline
210
0.0
220
0.0
230
1.0
 70
     8
 71
     3
 72
     8
 73
     4
 74
     0
 42
0.0000000001
 43
0.0000000001
 40
0.0
 40
0.0
 40
0.0
 40
0.0
 40
1.0
 40
1.0
 40
1.0
 40
1.0
 10
94.97113778438643
 20
-146.4191183723587
 30
0.0
 10
94.97113778438643
 20
-146.5295753223248
 30
0.0
 10
95.06068083442025
 20
-146.6191183723586
 30
0.0
 10
95.17113778438645
 20
-146.6191183723586
 30
0.0
  0
SPLINE
  5
1A3
330
79
100
AcDbEntity
  8
レイヤー 1
 62
    75
420
  6921064
370
    20
100
AcDbSpline
210
0.0
220
0.0
230
1.0
 70
     8
 71
     3
 72
     8
 73
     4
 74
     0
 42
0.0000000001
 43
0.0000000001
 40
0.0
 40
0.0
 40
0.0
 40
0.0
 40
1.0
 40
1.0
 40
1.0
 40
1.0
 10
95.17113778438645
 20
-149.3191183723584
 30
0.0
 10
95.06068083442025
 20
-149.3191183723584
 30
0.0
 10
94.97113778438643
 20
-149.4086614223922
 30
0.0
 10
94.97113778438643
 20
-149.5191183723584
 30
0.0
  0
INSERT
  5
1A5
330
79
100
AcDbEntity
  8
レイヤー 1
100
AcDbBlockReference
  2
Block_13
 10
0.0
 20
0.0
 30
0.0
  0
INSERT
  5
1B5
330
79
100
AcDbEntity
  8
レイヤー 1
100
AcDbBlockReference
  2
Block_14
 10
0.0
 20
0.0
 30
0.0
  0
ENDBLK
  5
7C
330
79
100
AcDbEntity
  8
0
100
AcDbBlockEnd
  0
BLOCK
  5
97
330
95
100
AcDbEntity
  8
0
100
AcDbBlockBegin
  2
Block_1
 70
     0
 10
0.0
 20
0.0
 30
0.0
  3
Block_1
  1

  0
LINE
  5
99
330
95
100
AcDbEntity
  8
レイヤー 1
 62
   251
420
  4934474
370
    20
100
AcDbLine
 10
105.9711377843865
 20
-142.6191183723585
 30
0.0
 11
141.6178691165065
 21
-142.6191183723585
 31
0.0
  0
LINE
  5
9A
330
95
100
AcDbEntity
  8
レイヤー 1
 62
   251
420
  4934474
370
    20
100
AcDbLine
 10
105.9711377843865
 20
-75.61911837235841
 30
0.0
 11
141.6178691165065
 21
-75.61911837235841
 31
0.0
  0
LINE
  5
9B
330
95
100
AcDbEntity
  8
レイヤー 1
 62
   251
420
  4934474
370
     0
100
AcDbLine
 10
140.7845357831735
 20
-141.6191183723585
 30
0.0
 11
140.6178691165065
 21
-142.6191183723585
 31
0.0
  0
LINE
  5
9C
330
95
100
AcDbEntity
  8
レイヤー 1
 62
   251
420
  4934474
370
     0
100
AcDbLine
 10
140.4512024498395
 20
-141.6191183723585
 30
0.0
 11
140.6178691165065
 21
-142.6191183723585
 31
0.0
  0
LINE
  5
9D
330
95
100
AcDbEntity
  8
レイヤー 1
 62
   251
420
  4934474
370
     0
100
AcDbLine
 10
140.6178691165065
 20
-142.6191183723585
 30
0.0
 11
140.6178691165065
 21
-141.6191183723585
 31
0.0
  0
LINE
  5
9E
330
95
100
AcDbEntity
  8
レイヤー 1
 62
   251
420
  4934474
370
     0
100
AcDbLine
 10
140.4512024498395
 20
-76.61911837235845
 30
0.0
 11
140.6178691165065
 21
-75.61911837235841
 31
0.0
  0
LINE
  5
9F
330
95
100
AcDbEntity
  8
レイヤー 1
 62
   251
420
  4934474
370
     0
100
AcDbLine
 10
140.7845357831735
 20
-76.61911837235845
 30
0.0
 11
140.6178691165065
 21
-75.61911837235841
 31
0.0
  0
LINE
  5
A0
330
95
100
AcDbEntity
  8
レイヤー 1
 62
   251
420
  4934474
370
     0
100
AcDbLine
 10
140.6178691165065
 20
-75.61911837235841
 30
0.0
 11
140.6178691165065
 21
-76.61911837235845
 31
0.0
  0
LINE
  5
A1
330
95
100
AcDbEntity
  8
レイヤー 1
 62
   251
420
  4934474
370
     0
100
AcDbLine
 10
140.7845357831735
 20
-141.6191183723585
 30
0.0
 11
140.6178691165065
 21
-142.6191183723585
 31
0.0
  0
LINE
  5
A2
330
95
100
AcDbEntity
  8
レイヤー 1
 62
   251
420
  4934474
370
     0
100
AcDbLine
 10
140.4512024498395
 20
-141.6191183723585
 30
0.0
 11
140.6178691165065
 21
-142.6191183723585
 31
0.0
  0
LINE
  5
A3
330
95
100
AcDbEntity
  8
レイヤー 1
 62
   251
420
  4934474
370
     0
100
AcDbLine
 10
140.6178691165065
 20
-142.6191183723585
 30
0.0
 11
140.6178691165065
 21
-141.6191183723585
 31
0.0
  0
LINE
  5
A4
330
95
100
AcDbEntity
  8
レイヤー 1
 62
   251
420
  4934474
370
     0
100
AcDbLine
 10
140.4512024498395
 20
-76.61911837235845
 30
0.0
 11
140.6178691165065
 21
-75.61911837235841
 31
0.0
  0
LINE
  5
A5
330
95
100
AcDbEntity
  8
レイヤー 1
 62
   251
420
  4934474
370
     0
100
AcDbLine
 10
140.7845357831735
 20
-76.61911837235845
 30
0.0
 11
140.6178691165065
 21
-75.61911837235841
 31
0.0
  0
LINE
  5
A6
330
95
100
AcDbEntity
  8
レイヤー 1
 62
   251
420
  4934474
370
     0
100
AcDbLine
 10
140.6178691165065
 20
-75.61911837235841
 30
0.0
 11
140.6178691165065
 21
-76.61911837235845
 31
0.0
  0
LINE
  5
A7
330
95
100
AcDbEntity
  8
レイヤー 1
 62
   251
420
  4934474
370
    20
100
AcDbLine
 10
140.6178691165065
 20
-142.6191183723585
 30
0.0
 11
140.6178691165065
 21
-75.61911837235841
 31
0.0
  0
MTEXT
  5
A8
330
95
100
AcDbEntity
  8
レイヤー 1
100
AcDbMText
 10
138.9681324929272
 20
-115.5333441551444
 30
0.0
 40
0.2
 41
0.0
 46
0.0
 71
     7
 72
     1
  1
\C251;\c4868939;\FMS Gothic|b0|i0|c128;\H4.000000;\W1.155000;φ67
 11
0.0000000000000001
 21
1.0
 31
0.0
 73
     1
 44
1.0
  0
ENDBLK
  5
98
330
95
100
AcDbEntity
  8
0
100
AcDbBlockEnd
  0
BLOCK
  5
AB
330
A9
100
AcDbEntity
  8
0
100
AcDbBlockBegin
  2
Block_2
 70
     0
 10
0.0
 20
0.0
 30
0.0
  3
Block_2
  1

  0
LINE
  5
AD
330
A9
100
AcDbEntity
  8
レイヤー 1
 62
   251
420
  4934474
370
    20
100
AcDbLine
 10
93.9711377843864
 20
-156.6191183723583
 30
0.0
 11
51.13655540792348
 21
-156.6191183723583
 31
0.0
  0
LINE
  5
AE
330
A9
100
AcDbEntity
  8
レイヤー 1
 62
   251
420
  4934474
370
    20
100
AcDbLine
 10
93.9711377843864
 20
-61.61911837235855
 30
0.0
 11
51.13655540792348
 21
-61.61911837235855
 31
0.0
  0
LINE
  5
AF
330
A9
100
AcDbEntity
  8
レイヤー 1
 62
   251
420
  4934474
370
     0
100
AcDbLine
 10
52.30322207459051
 20
-155.6191183723583
 30
0.0
 11
52.13655540792352
 21
-156.6191183723583
 31
0.0
  0
LINE
  5
B0
330
A9
100
AcDbEntity
  8
レイヤー 1
 62
   251
420
  4934474
370
     0
100
AcDbLine
 10
51.96988874125652
 20
-155.6191183723583
 30
0.0
 11
52.13655540792352
 21
-156.6191183723583
 31
0.0
  0
LINE
  5
B1
330
A9
100
AcDbEntity
  8
レイヤー 1
 62
   251
420
  4934474
370
     0
100
AcDbLine
 10
52.13655540792352
 20
-156.6191183723583
 30
0.0
 11
52.13655540792352
 21
-155.6191183723583
 31
0.0
  0
LINE
  5
B2
330
A9
100
AcDbEntity
  8
レイヤー 1
 62
   251
420
  4934474
370
     0
100
AcDbLine
 10
51.96988874125652
 20
-62.61911837235827
 30
0.0
 11
52.13655540792352
 21
-61.61911837235855
 31
0.0
  0
LINE
  5
B3
330
A9
100
AcDbEntity
  8
レイヤー 1
 62
   251
420
  4934474
370
     0
100
AcDbLine
 10
52.30322207459051
 20
-62.61911837235827
 30
0.0
 11
52.13655540792352
 21
-61.61911837235855
 31
0.0
  0
LINE
  5
B4
330
A9
100
AcDbEntity
  8
レイヤー 1
 62
   251
420
  4934474
370
     0
100
AcDbLine
 10
52.13655540792352
 20
-61.61911837235855
 30
0.0
 11
52.13655540792352
 21
-62.61911837235827
 31
0.0
  0
LINE
  5
B5
330
A9
100
AcDbEntity
  8
レイヤー 1
 62
   251
420
  4934474
370
     0
100
AcDbLine
 10
52.30322207459051
 20
-155.6191183723583
 30
0.0
 11
52.13655540792352
 21
-156.6191183723583
 31
0.0
  0
LINE
  5
B6
330
A9
100
AcDbEntity
  8
レイヤー 1
 62
   251
420
  4934474
370
     0
100
AcDbLine
 10
51.96988874125652
 20
-155.6191183723583
 30
0.0
 11
52.13655540792352
 21
-156.6191183723583
 31
0.0
  0
LINE
  5
B7
330
A9
100
AcDbEntity
  8
レイヤー 1
 62
   251
420
  4934474
370
     0
100
AcDbLine
 10
52.13655540792352
 20
-156.6191183723583
 30
0.0
 11
52.13655540792352
 21
-155.6191183723583
 31
0.0
  0
LINE
  5
B8
330
A9
100
AcDbEntity
  8
レイヤー 1
 62
   251
420
  4934474
370
     0
100
AcDbLine
 10
51.96988874125652
 20
-62.61911837235827
 30
0.0
 11
52.13655540792352
 21
-61.61911837235855
 31
0.0
  0
LINE
  5
B9
330
A9
100
AcDbEntity
  8
レイヤー 1
 62
   251
420
  4934474
370
     0
100
AcDbLine
 10
52.30322207459051
 20
-62.61911837235827
 30
0.0
 11
52.13655540792352
 21
-61.61911837235855
 31
0.0
  0
LINE
  5
BA
330
A9
100
AcDbEntity
  8
レイヤー 1
 62
   251
420
  4934474
370
     0
100
AcDbLine
 10
52.13655540792352
 20
-61.61911837235855
 30
0.0
 11
52.13655540792352
 21
-62.61911837235827
 31
0.0
  0
LINE
  5
BB
330
A9
100
AcDbEntity
  8
レイヤー 1
 62
   251
420
  4934474
370
    20
100
AcDbLine
 10
52.13655540792352
 20
-156.6191183723583
 30
0.0
 11
52.13655540792352
 21
-61.61911837235855
 31
0.0
  0
MTEXT
  5
BC
330
A9
100
AcDbEntity
  8
レイヤー 1
100
AcDbMText
 10
50.486819275844
 20
-115.5567708044441
 30
0.0
 40
0.2
 41
0.0
 46
0.0
 71
     7
 72
     1
  1
\C251;\c4868939;\FMS Gothic|b0|i0|c128;\H4.000000;\W1.155000;φ95
 11
0.0000000000000001
 21
1.0
 31
0.0
 73
     1
 44
1.0
  0
ENDBLK
  5
AC
330
A9
100
AcDbEntity
  8
0
100
AcDbBlockEnd
  0
BLOCK
  5
BF
330
BD
100
AcDbEntity
  8
0
100
AcDbBlockBegin
  2
Block_3
 70
     0
 10
0.0
 20
0.0
 30
0.0
  3
Block_3
  1

  0
LINE
  5
C1
330
BD
100
AcDbEntity
  8
レイヤー 1
 62
   251
420
  4934474
370
     0
100
AcDbLine
 10
225.8611657877367
 20
-97.09059465268749
 30
0.0
 11
224.9194162690133
 21
-97.46594198751649
 31
0.0
  0
LINE
  5
C2
330
BD
100
AcDbEntity
  8
レイヤー 1
 62
   251
420
  4934474
370
     0
100
AcDbLine
 10
225.6885261375909
 20
-96.80545142147055
 30
0.0
 11
224.9194162690133
 21
-97.46594198751649
 31
0.0
  0
LINE
  5
C3
330
BD
100
AcDbEntity
  8
レイヤー 1
 62
   251
420
  4934474
370
     0
100
AcDbLine
 10
224.9194162690133
 20
-97.46594198751649
 30
0.0
 11
225.7748459626638
 21
-96.94802303707886
 31
0.0
  0
LINE
  5
C4
330
BD
100
AcDbEntity
  8
レイヤー 1
 62
   251
420
  4934474
370
    20
100
AcDbLine
 10
224.9194162690133
 20
-97.46594198751649
 30
0.0
 11
259.1637604501541
 21
-76.7327421367586
 31
0.0
  0
MTEXT
  5
C5
330
BD
100
AcDbEntity
  8
レイヤー 1
100
AcDbMText
 10
251.2432294195949
 20
-80.35931256440969
 30
0.0
 40
0.2
 41
0.0
 46
0.0
 71
     7
 72
     1
  1
\C251;\c4868939;\FMS Gothic|b0|i0|c128;\H4.000000;\W1.155000;∅45
 11
0.8554297004490686
 21
0.5179189392073015
 31
0.0
 73
     1
 44
1.0
  0
ENDBLK
  5
C0
330
BD
100
AcDbEntity
  8
0
100
AcDbBlockEnd
  0
BLOCK
  5
CA
330
C8
100
AcDbEntity
  8
0
100
AcDbBlockBegin
  2
Block_4
 70
     0
 10
0.0
 20
0.0
 30
0.0
  3
Block_4
  1

  0
LINE
  5
CC
330
C8
100
AcDbEntity
  8
レイヤー 1
 62
   251
420
  4934474
370
    20
100
AcDbLine
 10
94.97113778438643
 20
-60.81911837235852
 30
0.0
 11
94.97113778438643
 21
-56.26509042454331
 31
0.0
  0
LINE
  5
CD
330
C8
100
AcDbEntity
  8
レイヤー 1
 62
   251
420
  4934474
370
    20
100
AcDbLine
 10
104.9711377843864
 20
-74.61911837235837
 30
0.0
 11
104.9711377843864
 21
-56.26509042454331
 31
0.0
  0
LINE
  5
CE
330
C8
100
AcDbEntity
  8
レイヤー 1
 62
   251
420
  4934474
370
     0
100
AcDbLine
 10
95.97113778438647
 20
-57.43175709121033
 30
0.0
 11
94.97113778438643
 21
-57.26509042454335
 31
0.0
  0
LINE
  5
CF
330
C8
100
AcDbEntity
  8
レイヤー 1
 62
   251
420
  4934474
370
     0
100
AcDbLine
 10
95.97113778438647
 20
-57.09842375787634
 30
0.0
 11
94.97113778438643
 21
-57.26509042454335
 31
0.0
  0
LINE
  5
D0
330
C8
100
AcDbEntity
  8
レイヤー 1
 62
   251
420
  4934474
370
     0
100
AcDbLine
 10
94.97113778438643
 20
-57.26509042454335
 30
0.0
 11
95.97113778438647
 21
-57.26509042454335
 31
0.0
  0
LINE
  5
D1
330
C8
100
AcDbEntity
  8
レイヤー 1
 62
   251
420
  4934474
370
     0
100
AcDbLine
 10
103.9711377843864
 20
-57.09842375787634
 30
0.0
 11
104.9711377843864
 21
-57.26509042454335
 31
0.0
  0
LINE
  5
D2
330
C8
100
AcDbEntity
  8
レイヤー 1
 62
   251
420
  4934474
370
     0
100
AcDbLine
 10
103.9711377843864
 20
-57.43175709121033
 30
0.0
 11
104.9711377843864
 21
-57.26509042454335
 31
0.0
  0
LINE
  5
D3
330
C8
100
AcDbEntity
  8
レイヤー 1
 62
   251
420
  4934474
370
     0
100
AcDbLine
 10
104.9711377843864
 20
-57.26509042454335
 30
0.0
 11
103.9711377843864
 21
-57.26509042454335
 31
0.0
  0
LINE
  5
D4
330
C8
100
AcDbEntity
  8
レイヤー 1
 62
   251
420
  4934474
370
     0
100
AcDbLine
 10
95.97113778438647
 20
-57.43175709121033
 30
0.0
 11
94.97113778438643
 21
-57.26509042454335
 31
0.0
  0
LINE
  5
D5
330
C8
100
AcDbEntity
  8
レイヤー 1
 62
   251
420
  4934474
370
     0
100
AcDbLine
 10
95.97113778438647
 20
-57.09842375787634
 30
0.0
 11
94.97113778438643
 21
-57.26509042454335
 31
0.0
  0
LINE
  5
D6
330
C8
100
AcDbEntity
  8
レイヤー 1
 62
   251
420
  4934474
370
     0
100
AcDbLine
 10
94.97113778438643
 20
-57.26509042454335
 30
0.0
 11
95.97113778438647
 21
-57.26509042454335
 31
0.0
  0
LINE
  5
D7
330
C8
100
AcDbEntity
  8
レイヤー 1
 62
   251
420
  4934474
370
     0
100
AcDbLine
 10
103.9711377843864
 20
-57.09842375787634
 30
0.0
 11
104.9711377843864
 21
-57.26509042454335
 31
0.0
  0
LINE
  5
D8
330
C8
100
AcDbEntity
  8
レイヤー 1
 62
   251
420
  4934474
370
     0
100
AcDbLine
 10
103.9711377843864
 20
-57.43175709121033
 30
0.0
 11
104.9711377843864
 21
-57.26509042454335
 31
0.0
  0
LINE
  5
D9
330
C8
100
AcDbEntity
  8
レイヤー 1
 62
   251
420
  4934474
370
     0
100
AcDbLine
 10
104.9711377843864
 20
-57.26509042454335
 30
0.0
 11
103.9711377843864
 21
-57.26509042454335
 31
0.0
  0
LINE
  5
DA
330
C8
100
AcDbEntity
  8
レイヤー 1
 62
   251
420
  4934474
370
    20
100
AcDbLine
 10
94.97113778438643
 20
-57.26509042454335
 30
0.0
 11
104.9711377843864
 21
-57.26509042454335
 31
0.0
  0
MTEXT
  5
DB
330
C8
100
AcDbEntity
  8
レイヤー 1
100
AcDbMText
 10
96.79342428542621
 20
-56.26508414663252
 30
0.0
 40
0.2
 41
0.0
 46
0.0
 71
     7
 72
     1
  1
\C251;\c4868939;\FMS Gothic|b0|i0|c128;\H4.000000;\W1.155000;10
 73
     1
 44
1.0
  0
ENDBLK
  5
CB
330
C8
100
AcDbEntity
  8
0
100
AcDbBlockEnd
  0
BLOCK
  5
DE
330
DC
100
AcDbEntity
  8
0
100
AcDbBlockBegin
  2
Block_5
 70
     0
 10
0.0
 20
0.0
 30
0.0
  3
Block_5
  1

  0
LINE
  5
E0
330
DC
100
AcDbEntity
  8
レイヤー 1
 62
   251
420
  4934474
370
    20
100
AcDbLine
 10
94.97113778438643
 20
-157.4191183723584
 30
0.0
 11
94.97113778438643
 21
-163.7399303224405
 31
0.0
  0
LINE
  5
E1
330
DC
100
AcDbEntity
  8
レイヤー 1
 62
   251
420
  4934474
370
    20
100
AcDbLine
 10
99.97113778438661
 20
-157.6191183723584
 30
0.0
 11
99.97113778438661
 21
-163.7399303224405
 31
0.0
  0
LINE
  5
E2
330
DC
100
AcDbEntity
  8
レイヤー 1
 62
   251
420
  4934474
370
    20
100
AcDbLine
 10
94.97113778438643
 20
-162.7399303224392
 30
0.0
 11
99.97113778438661
 21
-162.7399303224392
 31
0.0
  0
LINE
  5
E3
330
DC
100
AcDbEntity
  8
レイヤー 1
 62
   251
420
  4934474
370
     0
100
AcDbLine
 10
93.9711377843864
 20
-162.5732636557722
 30
0.0
 11
94.97113778438643
 21
-162.7399303224392
 31
0.0
  0
LINE
  5
E4
330
DC
100
AcDbEntity
  8
レイヤー 1
 62
   251
420
  4934474
370
     0
100
AcDbLine
 10
93.9711377843864
 20
-162.9065969891061
 30
0.0
 11
94.97113778438643
 21
-162.7399303224392
 31
0.0
  0
LINE
  5
E5
330
DC
100
AcDbEntity
  8
レイヤー 1
 62
   251
420
  4934474
370
     0
100
AcDbLine
 10
94.97113778438643
 20
-162.7399303224392
 30
0.0
 11
93.9711377843864
 21
-162.7399303224392
 31
0.0
  0
LINE
  5
E6
330
DC
100
AcDbEntity
  8
レイヤー 1
 62
   251
420
  4934474
370
    20
100
AcDbLine
 10
94.97113778438643
 20
-162.7399303224392
 30
0.0
 11
88.97113778438654
 21
-162.7399303224392
 31
0.0
  0
LINE
  5
E7
330
DC
100
AcDbEntity
  8
レイヤー 1
 62
   251
420
  4934474
370
     0
100
AcDbLine
 10
100.9711377843866
 20
-162.9065969891061
 30
0.0
 11
99.97113778438661
 21
-162.7399303224392
 31
0.0
  0
LINE
  5
E8
330
DC
100
AcDbEntity
  8
レイヤー 1
 62
   251
420
  4934474
370
     0
100
AcDbLine
 10
100.9711377843866
 20
-162.5732636557722
 30
0.0
 11
99.97113778438661
 21
-162.7399303224392
 31
0.0
  0
LINE
  5
E9
330
DC
100
AcDbEntity
  8
レイヤー 1
 62
   251
420
  4934474
370
     0
100
AcDbLine
 10
99.97113778438661
 20
-162.7399303224392
 30
0.0
 11
100.9711377843866
 21
-162.7399303224392
 31
0.0
  0
LINE
  5
EA
330
DC
100
AcDbEntity
  8
レイヤー 1
 62
   251
420
  4934474
370
    20
100
AcDbLine
 10
99.97113778438661
 20
-162.7399303224392
 30
0.0
 11
105.9711377843865
 21
-162.7399303224392
 31
0.0
  0
MTEXT
  5
EB
330
DC
100
AcDbEntity
  8
レイヤー 1
100
AcDbMText
 10
103.3210835516437
 20
-161.7399337364205
 30
0.0
 40
0.2
 41
0.0
 46
0.0
 71
     7
 72
     1
  1
\C251;\c4868939;\FMS Gothic|b0|i0|c128;\H4.000000;\W1.155000;5
 73
     1
 44
1.0
  0
ENDBLK
  5
DF
330
DC
100
AcDbEntity
  8
0
100
AcDbBlockEnd
  0
BLOCK
  5
F9
330
F7
100
AcDbEntity
  8
0
100
AcDbBlockBegin
  2
Block_6
 70
     0
 10
0.0
 20
0.0
 30
0.0
  3
Block_6
  1

  0
LWPOLYLINE
  5
FB
330
F7
100
AcDbEntity
  8
レイヤー 1
100
AcDbPolyline
 90
        3
 70
     1
 43
0.0
 10
203.6722579446874
 20
-49.29836899266673
 10
205.6722435331089
 20
-48.96503447262202
 10
203.6722579446874
 20
-48.63169995257732
  0
HATCH
  5
FC
330
F7
100
AcDbEntity
  8
レイヤー 1
 62
   251
420
  4934474
440
 33554687
100
AcDbHatch
 10
0.0
 20
0.0
 30
0.0
210
0.0
220
0.0
230
1.0
  2
SOLID
 70
     1
 71
     1
 91
        1
 92
        1
 93
        3
 72
     1
 10
203.6722579446874
 20
-49.29836899266673
 11
205.6722435331089
 21
-48.96503447262202
 72
     1
 10
205.6722435331089
 20
-48.96503447262202
 11
203.6722579446874
 21
-48.63169995257732
 72
     1
 10
203.6722579446874
 20
-48.63169995257732
 11
203.6722579446874
 21
-49.29836899266673
 97
        1
330
FB
 75
     2
 76
     1
 98
        1
 10
0.0
 20
0.0
450
        0
451
        0
460
0.0
461
0.0
452
        0
462
0.0
453
        0
470

  0
LWPOLYLINE
  5
FD
330
F7
100
AcDbEntity
  8
レイヤー 1
 62
   251
420
  4934474
370
    20
100
AcDbPolyline
 90
        3
 70
     0
 43
0.0
 10
203.6722481618931
 20
-48.96503428849451
 10
195.9222481618924
 20
-48.96503428849451
 10
192.1080350215836
 20
-48.96503428849451
  0
ENDBLK
  5
FA
330
F7
100
AcDbEntity
  8
0
100
AcDbBlockEnd
  0
BLOCK
  5
101
330
FF
100
AcDbEntity
  8
0
100
AcDbBlockBegin
  2
Block_7
 70
     0
 10
0.0
 20
0.0
 30
0.0
  3
Block_7
  1

  0
LWPOLYLINE
  5
103
330
FF
100
AcDbEntity
  8
レイヤー 1
100
AcDbPolyline
 90
        4
 70
     1
 43
0.0
 10
203.6722481618931
 20
-167.9893888164329
 10
205.6722481618919
 20
-168.3227221497663
 10
203.6722481618931
 20
-168.6560554830997
 10
203.6722481618931
 20
-168.6560554830997
  0
HATCH
  5
104
330
FF
100
AcDbEntity
  8
レイヤー 1
 62
   251
420
  4934474
440
 33554687
100
AcDbHatch
 10
0.0
 20
0.0
 30
0.0
210
0.0
220
0.0
230
1.0
  2
SOLID
 70
     1
 71
     1
 91
        1
 92
        1
 93
        3
 72
     1
 10
203.6722481618931
 20
-167.9893888164329
 11
205.6722481618919
 21
-168.3227221497663
 72
     1
 10
205.6722481618919
 20
-168.3227221497663
 11
203.6722481618931
 21
-168.6560554830997
 72
     1
 10
203.6722481618931
 20
-168.6560554830997
 11
203.6722481618931
 21
-167.9893888164329
 97
        1
330
103
 75
     2
 76
     1
 98
        1
 10
0.0
 20
0.0
450
        0
451
        0
460
0.0
461
0.0
452
        0
462
0.0
453
        0
470

  0
LWPOLYLINE
  5
105
330
FF
100
AcDbEntity
  8
レイヤー 1
 62
   251
420
  4934474
370
    20
100
AcDbPolyline
 90
        3
 70
     0
 43
0.0
 10
203.6722481618931
 20
-168.3227221497663
 10
195.9222481618924
 20
-168.3227221497663
 10
192.1080350215836
 20
-168.3227221497663
  0
ENDBLK
  5
102
330
FF
100
AcDbEntity
  8
0
100
AcDbBlockEnd
  0
BLOCK
  5
10B
330
109
100
AcDbEntity
  8
0
100
AcDbBlockBegin
  2
Block_8
 70
     0
 10
0.0
 20
0.0
 30
0.0
  3
Block_8
  1

  0
LINE
  5
10D
330
109
100
AcDbEntity
  8
レイヤー 1
 62
   251
420
  4934474
370
    20
100
AcDbLine
 10
105.8211377843866
 20
-136.7191183723586
 30
0.0
 11
131.4719044326516
 21
-136.7191183723586
 31
0.0
  0
LINE
  5
10E
330
109
100
AcDbEntity
  8
レイヤー 1
 62
   251
420
  4934474
370
    20
100
AcDbLine
 10
105.8211377843866
 20
-81.51911837235862
 30
0.0
 11
131.4719044326516
 21
-81.51911837235862
 31
0.0
  0
LINE
  5
10F
330
109
100
AcDbEntity
  8
レイヤー 1
 62
   251
420
  4934474
370
     0
100
AcDbLine
 10
130.6385710993186
 20
-135.7191183723586
 30
0.0
 11
130.4719044326516
 21
-136.7191183723586
 31
0.0
  0
LINE
  5
110
330
109
100
AcDbEntity
  8
レイヤー 1
 62
   251
420
  4934474
370
     0
100
AcDbLine
 10
130.3052377659846
 20
-135.7191183723586
 30
0.0
 11
130.4719044326516
 21
-136.7191183723586
 31
0.0
  0
LINE
  5
111
330
109
100
AcDbEntity
  8
レイヤー 1
 62
   251
420
  4934474
370
     0
100
AcDbLine
 10
130.4719044326516
 20
-136.7191183723586
 30
0.0
 11
130.4719044326516
 21
-135.7191183723586
 31
0.0
  0
LINE
  5
112
330
109
100
AcDbEntity
  8
レイヤー 1
 62
   251
420
  4934474
370
     0
100
AcDbLine
 10
130.2719044326512
 20
-82.71911837235833
 30
0.0
 11
130.4719044326516
 21
-81.51911837235862
 31
0.0
  0
LINE
  5
113
330
109
100
AcDbEntity
  8
レイヤー 1
 62
   251
420
  4934474
370
     0
100
AcDbLine
 10
130.6719044326519
 20
-82.71911837235833
 30
0.0
 11
130.4719044326516
 21
-81.51911837235862
 31
0.0
  0
LINE
  5
114
330
109
100
AcDbEntity
  8
レイヤー 1
 62
   251
420
  4934474
370
     0
100
AcDbLine
 10
130.4719044326516
 20
-81.51911837235862
 30
0.0
 11
130.4719044326516
 21
-82.71911837235833
 31
0.0
  0
LINE
  5
115
330
109
100
AcDbEntity
  8
レイヤー 1
 62
   251
420
  4934474
370
     0
100
AcDbLine
 10
130.6385710993186
 20
-135.7191183723586
 30
0.0
 11
130.4719044326516
 21
-136.7191183723586
 31
0.0
  0
LINE
  5
116
330
109
100
AcDbEntity
  8
レイヤー 1
 62
   251
420
  4934474
370
     0
100
AcDbLine
 10
130.3052377659846
 20
-135.7191183723586
 30
0.0
 11
130.4719044326516
 21
-136.7191183723586
 31
0.0
  0
LINE
  5
117
330
109
100
AcDbEntity
  8
レイヤー 1
 62
   251
420
  4934474
370
     0
100
AcDbLine
 10
130.4719044326516
 20
-136.7191183723586
 30
0.0
 11
130.4719044326516
 21
-135.7191183723586
 31
0.0
  0
LINE
  5
118
330
109
100
AcDbEntity
  8
レイヤー 1
 62
   251
420
  4934474
370
     0
100
AcDbLine
 10
130.2719044326512
 20
-82.71911837235833
 30
0.0
 11
130.4719044326516
 21
-81.51911837235862
 31
0.0
  0
LINE
  5
119
330
109
100
AcDbEntity
  8
レイヤー 1
 62
   251
420
  4934474
370
     0
100
AcDbLine
 10
130.6719044326519
 20
-82.71911837235833
 30
0.0
 11
130.4719044326516
 21
-81.51911837235862
 31
0.0
  0
LINE
  5
11A
330
109
100
AcDbEntity
  8
レイヤー 1
 62
   251
420
  4934474
370
     0
100
AcDbLine
 10
130.4719044326516
 20
-81.51911837235862
 30
0.0
 11
130.4719044326516
 21
-82.71911837235833
 31
0.0
  0
LINE
  5
11B
330
109
100
AcDbEntity
  8
レイヤー 1
 62
   251
420
  4934474
370
    20
100
AcDbLine
 10
130.4719044326516
 20
-136.7191183723586
 30
0.0
 11
130.4719044326516
 21
-81.51911837235862
 31
0.0
  0
MTEXT
  5
11C
330
109
100
AcDbEntity
  8
レイヤー 1
100
AcDbMText
 10
128.1859525572004
 20
-122.3635904642007
 30
0.0
 40
0.2
 41
0.0
 46
0.0
 71
     7
 72
     1
  1
\C251;\c4868939;\FMS Gothic|b0|i0|c128;\H4.000000;\W1.155000;φ55.2
 11
0.0000000000000001
 21
1.0
 31
0.0
 73
     1
 44
1.0
  0
ENDBLK
  5
10C
330
109
100
AcDbEntity
  8
0
100
AcDbBlockEnd
  0
BLOCK
  5
120
330
11E
100
AcDbEntity
  8
0
100
AcDbBlockBegin
  2
Block_9
 70
     0
 10
0.0
 20
0.0
 30
0.0
  3
Block_9
  1

  0
LWPOLYLINE
  5
122
330
11E
100
AcDbEntity
  8
レイヤー 1
100
AcDbPolyline
 90
        4
 70
     1
 43
0.0
 10
105.7376558378486
 20
-141.0138141295825
 10
104.9711377843864
 20
-140.0691183723585
 10
106.0026102427071
 20
-140.7141490442856
 10
106.0026102427071
 20
-140.7141490442856
  0
HATCH
  5
123
330
11E
100
AcDbEntity
  8
レイヤー 1
 62
   251
420
  4934474
440
 33554687
100
AcDbHatch
 10
0.0
 20
0.0
 30
0.0
210
0.0
220
0.0
230
1.0
  2
SOLID
 70
     1
 71
     1
 91
        1
 92
        1
 93
        3
 72
     1
 10
105.7376558378486
 20
-141.0138141295825
 11
104.9711377843864
 21
-140.0691183723585
 72
     1
 10
104.9711377843864
 20
-140.0691183723585
 11
106.0026102427071
 21
-140.7141490442856
 72
     1
 10
106.0026102427071
 20
-140.7141490442856
 11
105.7376558378486
 21
-141.0138141295825
 97
        1
330
122
 75
     2
 76
     1
 98
        1
 10
0.0
 20
0.0
450
        0
451
        0
460
0.0
461
0.0
452
        0
462
0.0
453
        0
470

  0
ENDBLK
  5
121
330
11E
100
AcDbEntity
  8
0
100
AcDbBlockEnd
  0
BLOCK
  5
126
330
124
100
AcDbEntity
  8
0
100
AcDbBlockBegin
  2
Block_10
 70
     0
 10
0.0
 20
0.0
 30
0.0
  3
Block_10
  1

  0
LWPOLYLINE
  5
128
330
124
100
AcDbEntity
  8
レイヤー 1
100
AcDbPolyline
 90
        4
 70
     1
 43
0.0
 10
104.2455106761011
 20
-137.4475395883403
 10
103.2711377843864
 20
-136.7191183723586
 10
104.4290865898402
 20
-137.0921526388118
 10
104.4290865898402
 20
-137.0921526388118
  0
HATCH
  5
129
330
124
100
AcDbEntity
  8
レイヤー 1
 62
   251
420
  4934474
440
 33554687
100
AcDbHatch
 10
0.0
 20
0.0
 30
0.0
210
0.0
220
0.0
230
1.0
  2
SOLID
 70
     1
 71
     1
 91
        1
 92
        1
 93
        3
 72
     1
 10
104.2455106761011
 20
-137.4475395883403
 11
103.2711377843864
 21
-136.7191183723586
 72
     1
 10
103.2711377843864
 20
-136.7191183723586
 11
104.4290865898402
 21
-137.0921526388118
 72
     1
 10
104.4290865898402
 20
-137.0921526388118
 11
104.2455106761011
 21
-137.4475395883403
 97
        1
330
128
 75
     2
 76
     1
 98
        1
 10
0.0
 20
0.0
450
        0
451
        0
460
0.0
461
0.0
452
        0
462
0.0
453
        0
470

  0
ENDBLK
  5
127
330
124
100
AcDbEntity
  8
0
100
AcDbBlockEnd
  0
BLOCK
  5
133
330
131
100
AcDbEntity
  8
0
100
AcDbBlockBegin
  2
Block_11
 70
     0
 10
0.0
 20
0.0
 30
0.0
  3
Block_11
  1

  0
LINE
  5
135
330
131
100
AcDbEntity
  8
レイヤー 1
 62
   251
420
  4934474
370
    20
100
AcDbLine
 10
103.2711377843864
 20
-77.31911837235847
 30
0.0
 11
103.2711377843864
 21
-63.42186684025445
 31
0.0
  0
LINE
  5
136
330
131
100
AcDbEntity
  8
レイヤー 1
 62
   251
420
  4934474
370
    20
100
AcDbLine
 10
104.9711377843864
 20
-74.61911837235837
 30
0.0
 11
104.9711377843864
 21
-63.42186684025445
 31
0.0
  0
LINE
  5
137
330
131
100
AcDbEntity
  8
レイヤー 1
 62
   251
420
  4934474
370
    20
100
AcDbLine
 10
103.2711377843864
 20
-64.4218668402545
 30
0.0
 11
104.9711377843864
 21
-64.4218668402545
 31
0.0
  0
LINE
  5
138
330
131
100
AcDbEntity
  8
レイヤー 1
 62
   251
420
  4934474
370
     0
100
AcDbLine
 10
102.0711377843867
 20
-64.22186684025385
 30
0.0
 11
103.2711377843864
 21
-64.4218668402545
 31
0.0
  0
LINE
  5
139
330
131
100
AcDbEntity
  8
レイヤー 1
 62
   251
420
  4934474
370
     0
100
AcDbLine
 10
102.0711377843867
 20
-64.62186684025482
 30
0.0
 11
103.2711377843864
 21
-64.4218668402545
 31
0.0
  0
LINE
  5
13A
330
131
100
AcDbEntity
  8
レイヤー 1
 62
   251
420
  4934474
370
     0
100
AcDbLine
 10
103.2711377843864
 20
-64.4218668402545
 30
0.0
 11
102.0711377843867
 21
-64.4218668402545
 31
0.0
  0
LINE
  5
13B
330
131
100
AcDbEntity
  8
レイヤー 1
 62
   251
420
  4934474
370
    20
100
AcDbLine
 10
103.2711377843864
 20
-64.4218668402545
 30
0.0
 11
101.4976563425484
 21
-64.4218668402545
 31
0.0
  0
LINE
  5
13C
330
131
100
AcDbEntity
  8
レイヤー 1
 62
   251
420
  4934474
370
     0
100
AcDbLine
 10
106.1711377843865
 20
-64.62186684025482
 30
0.0
 11
104.9711377843864
 21
-64.4218668402545
 31
0.0
  0
LINE
  5
13D
330
131
100
AcDbEntity
  8
レイヤー 1
 62
   251
420
  4934474
370
     0
100
AcDbLine
 10
106.1711377843865
 20
-64.22186684025385
 30
0.0
 11
104.9711377843864
 21
-64.4218668402545
 31
0.0
  0
LINE
  5
13E
330
131
100
AcDbEntity
  8
レイヤー 1
 62
   251
420
  4934474
370
     0
100
AcDbLine
 10
104.9711377843864
 20
-64.4218668402545
 30
0.0
 11
106.1711377843865
 21
-64.4218668402545
 31
0.0
  0
LINE
  5
13F
330
131
100
AcDbEntity
  8
レイヤー 1
 62
   251
420
  4934474
370
    20
100
AcDbLine
 10
104.9711377843864
 20
-64.4218668402545
 30
0.0
 11
123.4104057967455
 21
-64.4218668402545
 31
0.0
  0
MTEXT
  5
140
330
131
100
AcDbEntity
  8
レイヤー 1
100
AcDbMText
 10
107.1466037058522
 20
-62.79580093509316
 30
0.0
 40
0.2
 41
0.0
 46
0.0
 71
     7
 72
     1
  1
\C251;\c4868939;\FMS Gothic|b0|i0|c128;\H4.000000;\W1.155000;1.8
 73
     1
 44
1.0
  0
ENDBLK
  5
134
330
131
100
AcDbEntity
  8
0
100
AcDbBlockEnd
  0
BLOCK
  5
143
330
141
100
AcDbEntity
  8
0
100
AcDbBlockBegin
  2
Block_12
 70
     0
 10
0.0
 20
0.0
 30
0.0
  3
Block_12
  1

  0
LINE
  5
145
330
141
100
AcDbEntity
  8
レイヤー 1
 62
   251
420
  4934474
370
    20
100
AcDbLine
 10
105.8211377843866
 20
-81.51911837235862
 30
0.0
 11
123.3783288789785
 21
-81.51911837235862
 31
0.0
  0
LINE
  5
146
330
141
100
AcDbEntity
  8
レイヤー 1
 62
   251
420
  4934474
370
    20
100
AcDbLine
 10
105.8211377843866
 20
-78.3191183723585
 30
0.0
 11
123.3783288789785
 21
-78.3191183723585
 31
0.0
  0
LINE
  5
147
330
141
100
AcDbEntity
  8
レイヤー 1
 62
   251
420
  4934474
370
    20
100
AcDbLine
 10
122.3783288789784
 20
-81.51911837235862
 30
0.0
 11
122.3783288789784
 21
-78.3191183723585
 31
0.0
  0
LINE
  5
148
330
141
100
AcDbEntity
  8
レイヤー 1
 62
   251
420
  4934474
370
     0
100
AcDbLine
 10
122.1449955456448
 20
-82.91911837235835
 30
0.0
 11
122.3783288789784
 21
-81.51911837235862
 31
0.0
  0
LINE
  5
149
330
141
100
AcDbEntity
  8
レイヤー 1
 62
   251
420
  4934474
370
     0
100
AcDbLine
 10
122.6116622123124
 20
-82.91911837235835
 30
0.0
 11
122.3783288789784
 21
-81.51911837235862
 31
0.0
  0
LINE
  5
14A
330
141
100
AcDbEntity
  8
レイヤー 1
 62
   251
420
  4934474
370
     0
100
AcDbLine
 10
122.3783288789784
 20
-81.51911837235862
 30
0.0
 11
122.3783288789784
 21
-82.91911837235835
 31
0.0
  0
LINE
  5
14B
330
141
100
AcDbEntity
  8
レイヤー 1
 62
   251
420
  4934474
370
    20
100
AcDbLine
 10
122.3783288789784
 20
-81.51911837235862
 30
0.0
 11
122.3783288789784
 21
-99.82067851113257
 31
0.0
  0
LINE
  5
14C
330
141
100
AcDbEntity
  8
レイヤー 1
 62
   251
420
  4934474
370
     0
100
AcDbLine
 10
122.5783288789791
 20
-77.11911837235845
 30
0.0
 11
122.3783288789784
 21
-78.3191183723585
 31
0.0
  0
LINE
  5
14D
330
141
100
AcDbEntity
  8
レイヤー 1
 62
   251
420
  4934474
370
     0
100
AcDbLine
 10
122.1783288789781
 20
-77.11911837235845
 30
0.0
 11
122.3783288789784
 21
-78.3191183723585
 31
0.0
  0
LINE
  5
14E
330
141
100
AcDbEntity
  8
レイヤー 1
 62
   251
420
  4934474
370
     0
100
AcDbLine
 10
122.3783288789784
 20
-78.3191183723585
 30
0.0
 11
122.3783288789784
 21
-77.11911837235845
 31
0.0
  0
LINE
  5
14F
330
141
100
AcDbEntity
  8
レイヤー 1
 62
   251
420
  4934474
370
    20
100
AcDbLine
 10
122.3783288789784
 20
-78.3191183723585
 30
0.0
 11
122.3783288789784
 21
-74.57402102654656
 31
0.0
  0
MTEXT
  5
150
330
141
100
AcDbEntity
  8
レイヤー 1
100
AcDbMText
 10
120.7522762420558
 20
-100.0786458083137
 30
0.0
 40
0.2
 41
0.0
 46
0.0
 71
     7
 72
     1
  1
\C251;\c4868939;\FMS Gothic|b0|i0|c128;\H4.000000;\W1.155000;3.2
 11
0.0000000000000001
 21
1.0
 31
0.0
 73
     1
 44
1.0
  0
ENDBLK
  5
144
330
141
100
AcDbEntity
  8
0
100
AcDbBlockEnd
  0
BLOCK
  5
1A6
330
1A4
100
AcDbEntity
  8
0
100
AcDbBlockBegin
  2
Block_13
 70
     0
 10
0.0
 20
0.0
 30
0.0
  3
Block_13
  1

  0
LINE
  5
1A8
330
1A4
100
AcDbEntity
  8
レイヤー 1
 62
   251
420
  4934474
370
    20
100
AcDbLine
 10
94.17113778438642
 20
-71.61911837235859
 30
0.0
 11
89.77403914421168
 21
-71.61911837235859
 31
0.0
  0
LINE
  5
1A9
330
1A4
100
AcDbEntity
  8
レイヤー 1
 62
   251
420
  4934474
370
    20
100
AcDbLine
 10
94.17113778438642
 20
-68.91911837235849
 30
0.0
 11
89.77403914421168
 21
-68.91911837235849
 31
0.0
  0
LINE
  5
1AA
330
1A4
100
AcDbEntity
  8
レイヤー 1
 62
   251
420
  4934474
370
    20
100
AcDbLine
 10
90.7740391442114
 20
-71.61911837235859
 30
0.0
 11
90.7740391442114
 21
-68.91911837235849
 31
0.0
  0
LINE
  5
1AB
330
1A4
100
AcDbEntity
  8
レイヤー 1
 62
   251
420
  4934474
370
     0
100
AcDbLine
 10
90.6073724775444
 20
-72.6191183723583
 30
0.0
 11
90.7740391442114
 21
-71.61911837235859
 31
0.0
  0
LINE
  5
1AC
330
1A4
100
AcDbEntity
  8
レイヤー 1
 62
   251
420
  4934474
370
     0
100
AcDbLine
 10
90.94070581087839
 20
-72.6191183723583
 30
0.0
 11
90.7740391442114
 21
-71.61911837235859
 31
0.0
  0
LINE
  5
1AD
330
1A4
100
AcDbEntity
  8
レイヤー 1
 62
   251
420
  4934474
370
     0
100
AcDbLine
 10
90.7740391442114
 20
-71.61911837235859
 30
0.0
 11
90.7740391442114
 21
-72.6191183723583
 31
0.0
  0
LINE
  5
1AE
330
1A4
100
AcDbEntity
  8
レイヤー 1
 62
   251
420
  4934474
370
    20
100
AcDbLine
 10
90.7740391442114
 20
-71.61911837235859
 30
0.0
 11
90.7740391442114
 21
-96.59137628683332
 31
0.0
  0
LINE
  5
1AF
330
1A4
100
AcDbEntity
  8
レイヤー 1
 62
   251
420
  4934474
370
     0
100
AcDbLine
 10
90.94070581087839
 20
-67.91911837235845
 30
0.0
 11
90.7740391442114
 21
-68.91911837235849
 31
0.0
  0
LINE
  5
1B0
330
1A4
100
AcDbEntity
  8
レイヤー 1
 62
   251
420
  4934474
370
     0
100
AcDbLine
 10
90.6073724775444
 20
-67.91911837235845
 30
0.0
 11
90.7740391442114
 21
-68.91911837235849
 31
0.0
  0
LINE
  5
1B1
330
1A4
100
AcDbEntity
  8
レイヤー 1
 62
   251
420
  4934474
370
     0
100
AcDbLine
 10
90.7740391442114
 20
-68.91911837235849
 30
0.0
 11
90.7740391442114
 21
-67.91911837235845
 31
0.0
  0
LINE
  5
1B2
330
1A4
100
AcDbEntity
  8
レイヤー 1
 62
   251
420
  4934474
370
    20
100
AcDbLine
 10
90.7740391442114
 20
-68.91911837235849
 30
0.0
 11
90.7740391442114
 21
-65.83108096078541
 31
0.0
  0
MTEXT
  5
1B3
330
1A4
100
AcDbEntity
  8
レイヤー 1
100
AcDbMText
 10
89.10737319414026
 20
-96.59152015814379
 30
0.0
 40
0.2
 41
0.0
 46
0.0
 71
     7
 72
     1
  1
\C251;\c4868939;\FKozGoPr6N-Regular|b0|i0|c128;\H4.000000;\W0.750000;2-2.7
 11
0.0000000000000001
 21
1.0
 31
0.0
 73
     1
 44
1.0
  0
ENDBLK
  5
1A7
330
1A4
100
AcDbEntity
  8
0
100
AcDbBlockEnd
  0
BLOCK
  5
1B6
330
1B4
100
AcDbEntity
  8
0
100
AcDbBlockBegin
  2
Block_14
 70
     0
 10
0.0
 20
0.0
 30
0.0
  3
Block_14
  1

  0
LINE
  5
1B8
330
1B4
100
AcDbEntity
  8
レイヤー 1
 62
   251
420
  4934474
370
    20
100
AcDbLine
 10
94.97113778438643
 20
-164.9191183723583
 30
0.0
 11
94.97113778438643
 21
-174.5788559962556
 31
0.0
  0
LINE
  5
1B9
330
1B4
100
AcDbEntity
  8
レイヤー 1
 62
   251
420
  4934474
370
    20
100
AcDbLine
 10
96.47113778438651
 20
-150.3191183723584
 30
0.0
 11
96.47113778438651
 21
-174.5788559962556
 31
0.0
  0
LINE
  5
1BA
330
1B4
100
AcDbEntity
  8
レイヤー 1
 62
   251
420
  4934474
370
    20
100
AcDbLine
 10
94.97113778438643
 20
-173.5788559962555
 30
0.0
 11
96.47113778438651
 21
-173.5788559962555
 31
0.0
  0
LINE
  5
1BB
330
1B4
100
AcDbEntity
  8
レイヤー 1
 62
   251
420
  4934474
370
     0
100
AcDbLine
 10
93.9711377843864
 20
-173.4121893295886
 30
0.0
 11
94.97113778438643
 21
-173.5788559962555
 31
0.0
  0
LINE
  5
1BC
330
1B4
100
AcDbEntity
  8
レイヤー 1
 62
   251
420
  4934474
370
     0
100
AcDbLine
 10
93.9711377843864
 20
-173.7455226629226
 30
0.0
 11
94.97113778438643
 21
-173.5788559962555
 31
0.0
  0
LINE
  5
1BD
330
1B4
100
AcDbEntity
  8
レイヤー 1
 62
   251
420
  4934474
370
     0
100
AcDbLine
 10
94.97113778438643
 20
-173.5788559962555
 30
0.0
 11
93.9711377843864
 21
-173.5788559962555
 31
0.0
  0
LINE
  5
1BE
330
1B4
100
AcDbEntity
  8
レイヤー 1
 62
   251
420
  4934474
370
    20
100
AcDbLine
 10
94.97113778438643
 20
-173.5788559962555
 30
0.0
 11
69.28566176274857
 21
-173.5788559962555
 31
0.0
  0
LINE
  5
1BF
330
1B4
100
AcDbEntity
  8
レイヤー 1
 62
   251
420
  4934474
370
     0
100
AcDbLine
 10
97.47113778438652
 20
-173.7455226629226
 30
0.0
 11
96.47113778438651
 21
-173.5788559962555
 31
0.0
  0
LINE
  5
1C0
330
1B4
100
AcDbEntity
  8
レイヤー 1
 62
   251
420
  4934474
370
     0
100
AcDbLine
 10
97.47113778438652
 20
-173.4121893295886
 30
0.0
 11
96.47113778438651
 21
-173.5788559962555
 31
0.0
  0
LINE
  5
1C1
330
1B4
100
AcDbEntity
  8
レイヤー 1
 62
   251
420
  4934474
370
     0
100
AcDbLine
 10
96.47113778438651
 20
-173.5788559962555
 30
0.0
 11
97.47113778438652
 21
-173.5788559962555
 31
0.0
  0
LINE
  5
1C2
330
1B4
100
AcDbEntity
  8
レイヤー 1
 62
   251
420
  4934474
370
    20
100
AcDbLine
 10
96.47113778438651
 20
-173.5788559962555
 30
0.0
 11
98.20583096719664
 21
-173.5788559962555
 31
0.0
  0
MTEXT
  5
1C3
330
1B4
100
AcDbEntity
  8
レイヤー 1
100
AcDbMText
 10
69.2856610442834
 20
-171.9122025801773
 30
0.0
 40
0.2
 41
0.0
 46
0.0
 71
     7
 72
     1
  1
\C251;\c4868939;\FKozGoPr6N-Regular|b0|i0|c128;\H4.000000;\W0.750000;2-1.5
 73
     1
 44
1.0
  0
ENDBLK
  5
1B7
330
1B4
100
AcDbEntity
  8
0
100
AcDbBlockEnd
  0
BLOCK
  5
1C6
330
1C4
100
AcDbEntity
  8
0
100
AcDbBlockBegin
  2
Block_15
 70
     0
 10
0.0
 20
0.0
 30
0.0
  3
Block_15
  1

  0
SPLINE
  5
1C8
330
1C4
100
AcDbEntity
  8
レイヤー 1
 62
   137
420
  5146495
370
    20
100
AcDbSpline
210
0.0
220
0.0
230
1.0
 70
    24
 71
     3
 72
     8
 73
     4
 74
     0
 42
0.0000000001
 43
0.0000000001
 40
0.0
 40
0.0
 40
0.0
 40
0.0
 40
1.0
 40
1.0
 40
1.0
 40
1.0
 10
0.0000119155984491
 20
-409.0104311781892
 30
0.0
 10
0.0000119155984491
 20
-406.7414013181273
 30
0.0
 10
0.0000119155984491
 20
-404.4723714580653
 30
0.0
 10
0.0000119155984491
 20
-402.203341598004
 30
0.0
  0
SPLINE
  5
1C9
330
1C4
100
AcDbEntity
  8
レイヤー 1
 62
   137
420
  5146495
370
    20
100
AcDbSpline
210
0.0
220
0.0
230
1.0
 70
    24
 71
     3
 72
     8
 73
     4
 74
     0
 42
0.0000000001
 43
0.0000000001
 40
0.0
 40
0.0
 40
0.0
 40
0.0
 40
1.0
 40
1.0
 40
1.0
 40
1.0
 10
297.0000119155987
 20
-205.2812423914624
 30
0.0
 10
297.0000119155987
 20
-207.5886087936429
 30
0.0
 10
297.0000119155987
 20
-209.8959751958231
 30
0.0
 10
297.0000119155987
 20
-212.2033415980037
 30
0.0
  0
SPLINE
  5
1CA
330
1C4
100
AcDbEntity
  8
レイヤー 1
 62
   137
420
  5146495
370
    20
100
AcDbSpline
210
0.0
220
0.0
230
1.0
 70
     8
 71
     3
 72
     8
 73
     4
 74
     0
 42
0.0000000001
 43
0.0000000001
 40
0.0
 40
0.0
 40
0.0
 40
0.0
 40
1.0
 40
1.0
 40
1.0
 40
1.0
 10
25.00001191559869
 20
-402.203341598004
 30
0.0
 10
25.00739744408876
 20
-392.4292983789237
 30
0.0
 10
25.01363460653004
 20
-382.655254291653
 30
0.0
 10
25.01871597291138
 20
-372.8812096028939
 30
0.0
  0
LINE
  5
1CB
330
1C4
100
AcDbEntity
  8
レイヤー 1
 62
   137
420
  5146495
370
    20
100
AcDbLine
 10
287.0000119155983
 20
-402.203341598004
 30
0.0
 11
25.00001191559869
 21
-402.203341598004
 31
0.0
  0
SPLINE
  5
1CC
330
1C4
100
AcDbEntity
  8
レイヤー 1
 62
   137
420
  5146495
370
    20
100
AcDbSpline
210
0.0
220
0.0
230
1.0
 70
     8
 71
     3
 72
     8
 73
     4
 74
     0
 42
0.0000000001
 43
0.0000000001
 40
0.0
 40
0.0
 40
0.0
 40
0.0
 40
1.0
 40
1.0
 40
1.0
 40
1.0
 10
287.1304311881965
 20
-362.4652753550658
 30
0.0
 10
287.1611110393209
 20
-375.7083332394063
 30
0.0
 10
287.1611110393209
 20
-388.7611110139209
 30
0.0
 10
287.0000119155983
 20
-402.203341598004
 30
0.0
  0
SPLINE
  5
1CD
330
1C4
100
AcDbEntity
  8
レイヤー 1
 62
   137
420
  5146495
370
    20
100
AcDbSpline
210
0.0
220
0.0
230
1.0
 70
    24
 71
     3
 72
     8
 73
     4
 74
     0
 42
0.0000000001
 43
0.0000000001
 40
0.0
 40
0.0
 40
0.0
 40
0.0
 40
1.0
 40
1.0
 40
1.0
 40
1.0
 10
0.0000119155984491
 20
-212.2033415980037
 30
0.0
 10
0.0000119155984491
 20
-209.7463738341823
 30
0.0
 10
0.0000119155984491
 20
-207.2894060703605
 30
0.0
 10
0.0000119155984491
 20
-204.832438306539
 30
0.0
  0
SPLINE
  5
1CE
330
1C4
100
AcDbEntity
  8
レイヤー 1
 62
   137
420
  5146495
370
    20
100
AcDbSpline
210
0.0
220
0.0
230
1.0
 70
    24
 71
     3
 72
     8
 73
     4
 74
     0
 42
0.0000000001
 43
0.0000000001
 40
0.0
 40
0.0
 40
0.0
 40
0.0
 40
1.0
 40
1.0
 40
1.0
 40
1.0
 10
297.0000119155987
 20
-402.203341598004
 30
0.0
 10
297.0000119155987
 20
-404.6603093618258
 30
0.0
 10
297.0000119155987
 20
-407.1172771256469
 30
0.0
 10
297.0000119155987
 20
-409.5742448894687
 30
0.0
  0
LINE
  5
1CF
330
1C4
100
AcDbEntity
  8
レイヤー 1
 62
   137
420
  5146495
370
    20
100
AcDbLine
 10
130.0000119155985
 20
-396.2033415980038
 30
0.0
 11
25.00001191559869
 21
-396.2033415980038
 31
0.0
  0
LINE
  5
1D0
330
1C4
100
AcDbEntity
  8
レイヤー 1
 62
   137
420
  5146495
370
    20
100
AcDbLine
 10
130.0000119155985
 20
-390.2033415980036
 30
0.0
 11
25.00001191559869
 21
-390.2033415980036
 31
0.0
  0
LINE
  5
1D1
330
1C4
100
AcDbEntity
  8
レイヤー 1
 62
   137
420
  5146495
370
    20
100
AcDbLine
 10
130.0000119155985
 20
-384.203341598004
 30
0.0
 11
25.00001191559869
 21
-384.203341598004
 31
0.0
  0
LINE
  5
1D2
330
1C4
100
AcDbEntity
  8
レイヤー 1
 62
   137
420
  5146495
370
    20
100
AcDbLine
 10
130.0000119155985
 20
-378.2033415980038
 30
0.0
 11
25.00001191559869
 21
-378.2033415980038
 31
0.0
  0
LINE
  5
1D3
330
1C4
100
AcDbEntity
  8
レイヤー 1
 62
   137
420
  5146495
370
    20
100
AcDbLine
 10
130.0000119155985
 20
-372.2033415980036
 30
0.0
 11
25.00001191559869
 21
-372.2033415980036
 31
0.0
  0
LINE
  5
1D4
330
1C4
100
AcDbEntity
  8
レイヤー 1
 62
   137
420
  5146495
370
    20
100
AcDbLine
 10
28.00001191559847
 20
-400.6674435980039
 30
0.0
 11
30.00001191559855
 21
-397.2033415980038
 31
0.0
  0
LINE
  5
1D5
330
1C4
100
AcDbEntity
  8
レイヤー 1
 62
   137
420
  5146495
370
    20
100
AcDbLine
 10
32.00001191559862
 20
-400.6674435980039
 30
0.0
 11
30.00001191559855
 21
-397.2033415980038
 31
0.0
  0
LINE
  5
1D6
330
1C4
100
AcDbEntity
  8
レイヤー 1
 62
   137
420
  5146495
370
    20
100
AcDbLine
 10
35.0000119155984
 20
-402.203341598004
 30
0.0
 11
35.0000119155984
 21
-372.2033415980036
 31
0.0
  0
LINE
  5
1D7
330
1C4
100
AcDbEntity
  8
レイヤー 1
 62
   137
420
  5146495
370
    20
100
AcDbLine
 10
50.00001191559861
 20
-402.203341598004
 30
0.0
 11
50.00001191559861
 21
-372.2033415980036
 31
0.0
  0
LINE
  5
1D8
330
1C4
100
AcDbEntity
  8
レイヤー 1
 62
   137
420
  5146495
370
    20
100
AcDbLine
 10
80.00001191559837
 20
-402.203341598004
 30
0.0
 11
80.00001191559837
 21
-372.2033415980036
 31
0.0
  0
LINE
  5
1D9
330
1C4
100
AcDbEntity
  8
レイヤー 1
 62
   137
420
  5146495
370
    20
100
AcDbLine
 10
28.00001191559847
 20
-400.6674435980039
 30
0.0
 11
32.00001191559862
 21
-400.6674435980039
 31
0.0
  0
LINE
  5
1DA
330
1C4
100
AcDbEntity
  8
レイヤー 1
 62
   137
420
  5146495
370
    20
100
AcDbLine
 10
39.50001191559856
 20
-399.2033415980039
 30
0.0
 11
40.5000119155986
 21
-399.2033415980039
 31
0.0
  0
LINE
  5
1DB
330
1C4
100
AcDbEntity
  8
レイヤー 1
 62
   137
420
  5146495
370
    20
100
AcDbLine
 10
44.50001191559841
 20
-399.2033415980039
 30
0.0
 11
45.50001191559845
 21
-399.2033415980039
 31
0.0
  0
LINE
  5
1DC
330
1C4
100
AcDbEntity
  8
レイヤー 1
 62
   137
420
  5146495
370
    20
100
AcDbLine
 10
32.00001191559862
 20
-394.6674435980038
 30
0.0
 11
30.00001191559855
 21
-391.2033415980037
 31
0.0
  0
LINE
  5
1DD
330
1C4
100
AcDbEntity
  8
レイヤー 1
 62
   137
420
  5146495
370
    20
100
AcDbLine
 10
28.00001191559847
 20
-394.6674435980038
 30
0.0
 11
32.00001191559862
 21
-394.6674435980038
 31
0.0
  0
LINE
  5
1DE
330
1C4
100
AcDbEntity
  8
レイヤー 1
 62
   137
420
  5146495
370
    20
100
AcDbLine
 10
28.00001191559847
 20
-394.6674435980038
 30
0.0
 11
30.00001191559855
 21
-391.2033415980037
 31
0.0
  0
LINE
  5
1DF
330
1C4
100
AcDbEntity
  8
レイヤー 1
 62
   137
420
  5146495
370
    20
100
AcDbLine
 10
32.00001191559862
 20
-388.6674435980036
 30
0.0
 11
30.00001191559855
 21
-385.2033415980041
 31
0.0
  0
LINE
  5
1E0
330
1C4
100
AcDbEntity
  8
レイヤー 1
 62
   137
420
  5146495
370
    20
100
AcDbLine
 10
28.00001191559847
 20
-388.6674435980036
 30
0.0
 11
32.00001191559862
 21
-388.6674435980036
 31
0.0
  0
LINE
  5
1E1
330
1C4
100
AcDbEntity
  8
レイヤー 1
 62
   137
420
  5146495
370
    20
100
AcDbLine
 10
28.00001191559847
 20
-388.6674435980036
 30
0.0
 11
30.00001191559855
 21
-385.2033415980041
 31
0.0
  0
LINE
  5
1E2
330
1C4
100
AcDbEntity
  8
レイヤー 1
 62
   137
420
  5146495
370
    20
100
AcDbLine
 10
28.00001191559847
 20
-376.6674435980038
 30
0.0
 11
30.00001191559855
 21
-373.2033415980037
 31
0.0
  0
LINE
  5
1E3
330
1C4
100
AcDbEntity
  8
レイヤー 1
 62
   137
420
  5146495
370
    20
100
AcDbLine
 10
32.00001191559862
 20
-376.6674435980038
 30
0.0
 11
30.00001191559855
 21
-373.2033415980037
 31
0.0
  0
LINE
  5
1E4
330
1C4
100
AcDbEntity
  8
レイヤー 1
 62
   137
420
  5146495
370
    20
100
AcDbLine
 10
28.00001191559847
 20
-376.6674435980038
 30
0.0
 11
32.00001191559862
 21
-376.6674435980038
 31
0.0
  0
LINE
  5
1E5
330
1C4
100
AcDbEntity
  8
レイヤー 1
 62
   137
420
  5146495
370
    20
100
AcDbLine
 10
32.00001191559862
 20
-382.667443598004
 30
0.0
 11
30.00001191559855
 21
-379.2033415980038
 31
0.0
  0
LINE
  5
1E6
330
1C4
100
AcDbEntity
  8
レイヤー 1
 62
   137
420
  5146495
370
    20
100
AcDbLine
 10
28.00001191559847
 20
-382.667443598004
 30
0.0
 11
32.00001191559862
 21
-382.667443598004
 31
0.0
  0
LINE
  5
1E7
330
1C4
100
AcDbEntity
  8
レイヤー 1
 62
   137
420
  5146495
370
    20
100
AcDbLine
 10
28.00001191559847
 20
-382.667443598004
 30
0.0
 11
30.00001191559855
 21
-379.2033415980038
 31
0.0
  0
LINE
  5
1E8
330
1C4
100
AcDbEntity
  8
レイヤー 1
 62
   137
420
  5146495
370
    20
100
AcDbLine
 10
39.50001191559856
 20
-393.2033415980037
 30
0.0
 11
40.5000119155986
 21
-393.2033415980037
 31
0.0
  0
LINE
  5
1E9
330
1C4
100
AcDbEntity
  8
レイヤー 1
 62
   137
420
  5146495
370
    20
100
AcDbLine
 10
44.50001191559841
 20
-393.2033415980037
 30
0.0
 11
45.50001191559845
 21
-393.2033415980037
 31
0.0
  0
LINE
  5
1EA
330
1C4
100
AcDbEntity
  8
レイヤー 1
 62
   137
420
  5146495
370
    20
100
AcDbLine
 10
39.50001191559856
 20
-387.2033415980041
 30
0.0
 11
40.5000119155986
 21
-387.2033415980041
 31
0.0
  0
LINE
  5
1EB
330
1C4
100
AcDbEntity
  8
レイヤー 1
 62
   137
420
  5146495
370
    20
100
AcDbLine
 10
44.50001191559841
 20
-387.2033415980041
 30
0.0
 11
45.50001191559845
 21
-387.2033415980041
 31
0.0
  0
LINE
  5
1EC
330
1C4
100
AcDbEntity
  8
レイヤー 1
 62
   137
420
  5146495
370
    20
100
AcDbLine
 10
39.50001191559856
 20
-381.2033415980039
 30
0.0
 11
40.5000119155986
 21
-381.2033415980039
 31
0.0
  0
LINE
  5
1ED
330
1C4
100
AcDbEntity
  8
レイヤー 1
 62
   137
420
  5146495
370
    20
100
AcDbLine
 10
39.50001191559856
 20
-375.2033415980037
 30
0.0
 11
40.5000119155986
 21
-375.2033415980037
 31
0.0
  0
LINE
  5
1EE
330
1C4
100
AcDbEntity
  8
レイヤー 1
 62
   137
420
  5146495
370
    20
100
AcDbLine
 10
44.50001191559841
 20
-381.2033415980039
 30
0.0
 11
45.50001191559845
 21
-381.2033415980039
 31
0.0
  0
LINE
  5
1EF
330
1C4
100
AcDbEntity
  8
レイヤー 1
 62
   137
420
  5146495
370
    20
100
AcDbLine
 10
44.50001191559841
 20
-375.2033415980037
 30
0.0
 11
45.50001191559845
 21
-375.2033415980037
 31
0.0
  0
LINE
  5
1F0
330
1C4
100
AcDbEntity
  8
レイヤー 1
 62
   137
420
  5146495
370
    20
100
AcDbLine
 10
120.0000119155985
 20
-402.203341598004
 30
0.0
 11
120.0000119155985
 21
-372.2033415980036
 31
0.0
  0
LINE
  5
1F1
330
1C4
100
AcDbEntity
  8
レイヤー 1
 62
   137
420
  5146495
370
    20
100
AcDbLine
 10
130.0000119155985
 20
-372.2033415980036
 30
0.0
 11
130.0000119155985
 21
-402.203341598004
 31
0.0
  0
LINE
  5
1F2
330
1C4
100
AcDbEntity
  8
レイヤー 1
 62
   137
420
  5146495
370
    20
100
AcDbLine
 10
156.0000119155988
 20
-402.203341598004
 30
0.0
 11
156.0000119155988
 21
-412.2033415980037
 31
0.0
  0
LINE
  5
1F3
330
1C4
100
AcDbEntity
  8
レイヤー 1
 62
   137
420
  5146495
370
    20
100
AcDbLine
 10
68.66667891559842
 20
-402.203341598004
 30
0.0
 11
68.66667891559842
 21
-407.2033415980035
 31
0.0
  0
LINE
  5
1F4
330
1C4
100
AcDbEntity
  8
レイヤー 1
 62
   137
420
  5146495
370
    20
100
AcDbLine
 10
112.3333449155984
 20
-402.203341598004
 30
0.0
 11
112.3333449155984
 21
-407.2033415980035
 31
0.0
  0
LINE
  5
1F5
330
1C4
100
AcDbEntity
  8
レイヤー 1
 62
   137
420
  5146495
370
    20
100
AcDbLine
 10
156.0000119155988
 20
-402.203341598004
 30
0.0
 11
156.0000119155988
 21
-407.2033415980035
 31
0.0
  0
LINE
  5
1F6
330
1C4
100
AcDbEntity
  8
レイヤー 1
 62
   137
420
  5146495
370
    20
100
AcDbLine
 10
199.6666789155989
 20
-402.203341598004
 30
0.0
 11
199.6666789155989
 21
-407.2033415980035
 31
0.0
  0
LINE
  5
1F7
330
1C4
100
AcDbEntity
  8
レイヤー 1
 62
   137
420
  5146495
370
    20
100
AcDbLine
 10
243.3333449155989
 20
-402.203341598004
 30
0.0
 11
243.3333449155989
 21
-407.2033415980035
 31
0.0
  0
MTEXT
  5
1F8
330
1C4
100
AcDbEntity
  8
レイヤー 1
100
AcDbMText
 10
21.44620789945412
 20
-330.9533346408402
 30
0.0
 40
0.2
 41
0.0
 46
0.0
 71
     7
 72
     1
  1
\C137;\c8357710;\FMS Gothic|b0|i0|c128;\H3.000000;\W1.540000;C
 73
     1
 44
1.0
  0
MTEXT
  5
1F9
330
1C4
100
AcDbEntity
  8
レイヤー 1
100
AcDbMText
 10
21.44620789945412
 20
-378.4533422583598
 30
0.0
 40
0.2
 41
0.0
 46
0.0
 71
     7
 72
     1
  1
\C137;\c8357710;\FMS Gothic|b0|i0|c128;\H3.000000;\W1.540000;D
 73
     1
 44
1.0
  0
MTEXT
  5
1FA
330
1C4
100
AcDbEntity
  8
レイヤー 1
100
AcDbMText
 10
45.33242889966407
 20
-405.9730018448501
 30
0.0
 40
0.2
 41
0.0
 46
0.0
 71
     7
 72
     1
  1
\C137;\c8357710;\FMS Gothic|b0|i0|c128;\H3.000000;\W1.540000;1
 73
     1
 44
1.0
  0
MTEXT
  5
1FB
330
1C4
100
AcDbEntity
  8
レイヤー 1
100
AcDbMText
 10
88.9991003025929
 20
-405.9730018448501
 30
0.0
 40
0.2
 41
0.0
 46
0.0
 71
     7
 72
     1
  1
\C137;\c8357710;\FMS Gothic|b0|i0|c128;\H3.000000;\W1.540000;2
 73
     1
 44
1.0
  0
MTEXT
  5
1FC
330
1C4
100
AcDbEntity
  8
レイヤー 1
100
AcDbMText
 10
132.6657824714451
 20
-405.9730018448501
 30
0.0
 40
0.2
 41
0.0
 46
0.0
 71
     7
 72
     1
  1
\C137;\c8357710;\FMS Gothic|b0|i0|c128;\H3.000000;\W1.540000;3
 73
     1
 44
1.0
  0
MTEXT
  5
1FD
330
1C4
100
AcDbEntity
  8
レイヤー 1
100
AcDbMText
 10
176.3324323425271
 20
-405.9730018448501
 30
0.0
 40
0.2
 41
0.0
 46
0.0
 71
     7
 72
     1
  1
\C137;\c8357710;\FMS Gothic|b0|i0|c128;\H3.000000;\W1.540000;4
 73
     1
 44
1.0
  0
MTEXT
  5
1FE
330
1C4
100
AcDbEntity
  8
レイヤー 1
100
AcDbMText
 10
219.9990822136092
 20
-405.9730018448501
 30
0.0
 40
0.2
 41
0.0
 46
0.0
 71
     7
 72
     1
  1
\C137;\c8357710;\FMS Gothic|b0|i0|c128;\H3.000000;\W1.540000;5
 73
     1
 44
1.0
  0
MTEXT
  5
1FF
330
1C4
100
AcDbEntity
  8
レイヤー 1
100
AcDbMText
 10
263.665753616538
 20
-405.9730018448501
 30
0.0
 40
0.2
 41
0.0
 46
0.0
 71
     7
 72
     1
  1
\C137;\c8357710;\FMS Gothic|b0|i0|c128;\H3.000000;\W1.540000;6
 73
     1
 44
1.0
  0
MTEXT
  5
200
330
1C4
100
AcDbEntity
  8
レイヤー 1
100
AcDbMText
 10
287.7378630872452
 20
-378.4533422583598
 30
0.0
 40
0.2
 41
0.0
 46
0.0
 71
     7
 72
     1
  1
\C137;\c8357710;\FMS Gothic|b0|i0|c128;\H3.000000;\W1.540000;D
 73
     1
 44
1.0
  0
LINE
  5
201
330
1C4
100
AcDbEntity
  8
レイヤー 1
 62
   137
420
  5146495
370
    20
100
AcDbLine
 10
157.2978839155984
 20
-363.203341598004
 30
0.0
 11
287.0000119155983
 21
-363.203341598004
 31
0.0
  0
LINE
  5
202
330
1C4
100
AcDbEntity
  8
レイヤー 1
 62
   137
420
  5146495
370
    20
100
AcDbLine
 10
157.2978839155984
 20
-399.2033415980039
 30
0.0
 11
287.0000119155983
 21
-399.2033415980039
 31
0.0
  0
LINE
  5
203
330
1C4
100
AcDbEntity
  8
レイヤー 1
 62
   137
420
  5146495
370
    20
100
AcDbLine
 10
157.2978839155984
 20
-375.2033415980037
 30
0.0
 11
287.0000119155983
 21
-375.2033415980037
 31
0.0
  0
LINE
  5
204
330
1C4
100
AcDbEntity
  8
レイヤー 1
 62
   137
420
  5146495
370
    20
100
AcDbLine
 10
195.127671915599
 20
-390.2033415980036
 30
0.0
 11
287.0000119155983
 21
-390.2033415980036
 31
0.0
  0
LINE
  5
205
330
1C4
100
AcDbEntity
  8
レイヤー 1
 62
   137
420
  5146495
370
    20
100
AcDbLine
 10
157.2978839155984
 20
-402.203341598004
 30
0.0
 11
287.0000119155983
 21
-402.203341598004
 31
0.0
  0
LINE
  5
206
330
1C4
100
AcDbEntity
  8
レイヤー 1
 62
   137
420
  5146495
370
    20
100
AcDbLine
 10
287.0000119155983
 20
-363.203341598004
 30
0.0
 11
157.2978839155984
 21
-363.203341598004
 31
0.0
  0
LINE
  5
207
330
1C4
100
AcDbEntity
  8
レイヤー 1
 62
   137
420
  5146495
370
    20
100
AcDbLine
 10
180.7163239155982
 20
-375.2033415980037
 30
0.0
 11
180.7163239155982
 21
-402.203341598004
 31
0.0
  0
LINE
  5
208
330
1C4
100
AcDbEntity
  8
レイヤー 1
 62
   137
420
  5146495
370
    20
100
AcDbLine
 10
162.7021399155989
 20
-375.2033415980037
 30
0.0
 11
162.7021399155989
 21
-402.203341598004
 31
0.0
  0
LINE
  5
209
330
1C4
100
AcDbEntity
  8
レイヤー 1
 62
   137
420
  5146495
370
    20
100
AcDbLine
 10
189.7234159155979
 20
-375.2033415980037
 30
0.0
 11
189.7234159155979
 21
-402.203341598004
 31
0.0
  0
LINE
  5
20A
330
1C4
100
AcDbEntity
  8
レイヤー 1
 62
   137
420
  5146495
370
    20
100
AcDbLine
 10
195.127671915599
 20
-387.2033415980041
 30
0.0
 11
195.127671915599
 21
-402.203341598004
 31
0.0
  0
LINE
  5
20B
330
1C4
100
AcDbEntity
  8
レイヤー 1
 62
   137
420
  5146495
370
    20
100
AcDbLine
 10
157.2978839155984
 20
-363.203341598004
 30
0.0
 11
157.2978839155984
 21
-402.203341598004
 31
0.0
  0
LINE
  5
20C
330
1C4
100
AcDbEntity
  8
レイヤー 1
 62
   137
420
  5146495
370
    20
100
AcDbLine
 10
225.7517849155985
 20
-363.203341598004
 30
0.0
 11
225.7517849155985
 21
-402.203341598004
 31
0.0
  0
LINE
  5
20D
330
1C4
100
AcDbEntity
  8
レイヤー 1
 62
   137
420
  5146495
370
    20
100
AcDbLine
 10
205.7659689155991
 20
-390.2033415980036
 30
0.0
 11
205.7659689155991
 21
-402.203341598004
 31
0.0
  0
LINE
  5
20E
330
1C4
100
AcDbEntity
  8
レイヤー 1
 62
   137
420
  5146495
370
    20
100
AcDbLine
 10
216.4042669155986
 20
-390.2033415980036
 30
0.0
 11
216.4042669155986
 21
-402.203341598004
 31
0.0
  0
LINE
  5
20F
330
1C4
100
AcDbEntity
  8
レイヤー 1
 62
   137
420
  5146495
370
    20
100
AcDbLine
 10
157.2978839155984
 20
-396.2033415980038
 30
0.0
 11
195.127671915599
 21
-396.2033415980038
 31
0.0
  0
LINE
  5
210
330
1C4
100
AcDbEntity
  8
レイヤー 1
 62
   137
420
  5146495
370
    20
100
AcDbLine
 10
157.2978839155984
 20
-402.203341598004
 30
0.0
 11
157.2978839155984
 21
-399.2033415980039
 31
0.0
  0
MTEXT
  5
211
330
1C4
100
AcDbEntity
  8
レイヤー 1
100
AcDbMText
 10
196.9833682097602
 20
-401.7200530001558
 30
0.0
 40
0.2
 41
0.0
 46
0.0
 71
     7
 72
     1
  1
\C137;\c8357710;\FMS Gothic|b0|i0|c128;\H1.791674;\W1.540000;製図
 73
     1
 44
1.0
  0
MTEXT
  5
212
330
1C4
100
AcDbEntity
  8
レイヤー 1
100
AcDbMText
 10
207.6216508134375
 20
-401.7200530001558
 30
0.0
 40
0.2
 41
0.0
 46
0.0
 71
     7
 72
     1
  1
\C137;\c8357710;\FMS Gothic|b0|i0|c128;\H1.791674;\W1.540000;設計
 73
     1
 44
1.0
  0
MTEXT
  5
213
330
1C4
100
AcDbEntity
  8
レイヤー 1
100
AcDbMText
 10
217.5703114283548
 20
-401.6511403245275
 30
0.0
 40
0.2
 41
0.0
 46
0.0
 71
     7
 72
     1
  1
\C137;\c8357710;\FMS Gothic|b0|i0|c128;\H1.791674;\W1.540000;照査
 73
     1
 44
1.0
  0
LINE
  5
214
330
1C4
100
AcDbEntity
  8
レイヤー 1
 62
   137
420
  5146495
370
    20
100
AcDbLine
 10
157.2978839155984
 20
-387.2033415980041
 30
0.0
 11
195.127671915599
 21
-387.2033415980041
 31
0.0
  0
LINE
  5
215
330
1C4
100
AcDbEntity
  8
レイヤー 1
 62
   137
420
  5146495
370
    20
100
AcDbLine
 10
157.2978839155984
 20
-390.2033415980036
 30
0.0
 11
195.127671915599
 21
-390.2033415980036
 31
0.0
  0
LINE
  5
216
330
1C4
100
AcDbEntity
  8
レイヤー 1
 62
   137
420
  5146495
370
    20
100
AcDbLine
 10
157.2978839155984
 20
-393.2033415980037
 30
0.0
 11
195.127671915599
 21
-393.2033415980037
 31
0.0
  0
LINE
  5
217
330
1C4
100
AcDbEntity
  8
レイヤー 1
 62
   137
420
  5146495
370
    20
100
AcDbLine
 10
157.2978839155984
 20
-378.2033415980038
 30
0.0
 11
213.1418559155984
 21
-378.2033415980038
 31
0.0
  0
LINE
  5
218
330
1C4
100
AcDbEntity
  8
レイヤー 1
 62
   137
420
  5146495
370
    20
100
AcDbLine
 10
157.2978839155984
 20
-381.2033415980039
 30
0.0
 11
213.1418559155984
 21
-381.2033415980039
 31
0.0
  0
LINE
  5
219
330
1C4
100
AcDbEntity
  8
レイヤー 1
 62
   137
420
  5146495
370
    20
100
AcDbLine
 10
157.2978839155984
 20
-384.203341598004
 30
0.0
 11
213.1418559155984
 21
-384.203341598004
 31
0.0
  0
LINE
  5
21A
330
1C4
100
AcDbEntity
  8
レイヤー 1
 62
   137
420
  5146495
370
    20
100
AcDbLine
 10
195.127671915599
 20
-375.2033415980037
 30
0.0
 11
195.127671915599
 21
-387.2033415980041
 31
0.0
  0
LINE
  5
21B
330
1C4
100
AcDbEntity
  8
レイヤー 1
 62
   137
420
  5146495
370
    20
100
AcDbLine
 10
202.3333449155981
 20
-375.2033415980037
 30
0.0
 11
202.3333449155981
 21
-384.203341598004
 31
0.0
  0
LINE
  5
21C
330
1C4
100
AcDbEntity
  8
レイヤー 1
 62
   137
420
  5146495
370
    20
100
AcDbLine
 10
213.1418559155984
 20
-363.203341598004
 30
0.0
 11
213.1418559155984
 21
-390.2033415980036
 31
0.0
  0
LINE
  5
21D
330
1C4
100
AcDbEntity
  8
レイヤー 1
 62
   137
420
  5146495
370
    20
100
AcDbLine
 10
279.7943379155985
 20
-390.2033415980036
 30
0.0
 11
279.7943379155985
 21
-402.203341598004
 31
0.0
  0
LINE
  5
21E
330
1C4
100
AcDbEntity
  8
レイヤー 1
 62
   137
420
  5146495
370
    20
100
AcDbLine
 10
287.0000119155983
 20
-363.203341598004
 30
0.0
 11
287.0000119155983
 21
-402.203341598004
 31
0.0
  0
LINE
  5
21F
330
1C4
100
AcDbEntity
  8
レイヤー 1
 62
   137
420
  5146495
370
    20
100
AcDbLine
 10
287.0000119155983
 20
-402.203341598004
 30
0.0
 11
287.0000119155983
 21
-363.203341598004
 31
0.0
  0
LINE
  5
220
330
1C4
100
AcDbEntity
  8
レイヤー 1
 62
   137
420
  5146495
370
    20
100
AcDbLine
 10
279.7943379155985
 20
-396.2033415980038
 30
0.0
 11
287.0000119155983
 21
-396.2033415980038
 31
0.0
  0
MTEXT
  5
221
330
1C4
100
AcDbEntity
  8
レイヤー 1
100
AcDbMText
 10
21.44808386160507
 20
-245.2487683848684
 30
0.0
 40
0.2
 41
0.0
 46
0.0
 71
     7
 72
     1
  1
\C137;\c8357710;\FMS Gothic|b0|i0|c128;\H3.000000;\W1.540000;A
 73
     1
 44
1.0
  0
MTEXT
  5
222
330
1C4
100
AcDbEntity
  8
レイヤー 1
100
AcDbMText
 10
21.50533569646015
 20
-293.3187670504225
 30
0.0
 40
0.2
 41
0.0
 46
0.0
 71
     7
 72
     1
  1
\C137;\c8357710;\FMS Gothic|b0|i0|c128;\H3.000000;\W1.540000;B
 73
     1
 44
1.0
  0
MTEXT
  5
223
330
1C4
100
AcDbEntity
  8
レイヤー 1
100
AcDbMText
 10
226.7455481068336
 20
-368.714100385252
 30
0.0
 40
0.2
 41
0.0
 46
0.0
 71
     7
 72
     1
  1
\C251;\c4868939;\FMS Gothic|b0|i0|c128;\H3.496733;\W0.770000;ディロスマウンティングディスク
 73
     1
 44
1.0
  0
MTEXT
  5
224
330
1C4
100
AcDbEntity
  8
レイヤー 1
100
AcDbMText
 10
174.8091080122602
 20
-371.9200524142086
 30
0.0
 40
0.2
 41
0.0
 46
0.0
 71
     7
 72
     1
  1
\C251;\c4868939;\FMS Gothic|b0|i0|c128;\H4.000000;\W0.770000;SUS304
 73
     1
 44
1.0
  0
LINE
  5
225
330
1C4
100
AcDbEntity
  8
レイヤー 1
 62
   137
420
  5146495
370
    20
100
AcDbLine
 10
168.3973629591643
 20
-375.2033415980037
 30
0.0
 11
168.3973629591643
 21
-363.203341598004
 31
0.0
  0
MTEXT
  5
226
330
1C4
100
AcDbEntity
  8
レイヤー 1
100
AcDbMText
 10
158.7120716122046
 20
-374.2033432766749
 30
0.0
 40
0.2
 41
0.0
 46
0.0
 71
     7
 72
     1
  1
\C251;\c4868939;\FMS Gothic|b0|i0|c128;\H4.000000;\W0.770000;材質
 73
     1
 44
1.0
  0
MTEXT
  5
227
330
1C4
100
AcDbEntity
  8
レイヤー 1
100
AcDbMText
 10
215.5364347130972
 20
-373.8795904284485
 30
0.0
 40
0.2
 41
0.0
 46
0.0
 71
     7
 72
     1
  1
\C251;\c4868939;\FMS Gothic|b0|i0|c128;\H4.000000;\W0.770000;品名
 73
     1
 44
1.0
  0
MTEXT
  5
228
330
1C4
100
AcDbEntity
  8
レイヤー 1
100
AcDbMText
 10
215.5364347130972
 20
-385.1220566528514
 30
0.0
 40
0.2
 41
0.0
 46
0.0
 71
     7
 72
     1
  1
\C251;\c4868939;\FMS Gothic|b0|i0|c128;\H4.000000;\W0.770000;品番
 73
     1
 44
1.0
  0
LINE
  5
229
330
1C4
100
AcDbEntity
  8
レイヤー 1
 62
   137
420
  5146495
370
    20
100
AcDbLine
 10
205.7659689155991
 20
-384.203341598004
 30
0.0
 11
205.7659689155991
 21
-390.2033415980036
 31
0.0
  0
LINE
  5
22A
330
1C4
100
AcDbEntity
  8
レイヤー 1
 62
    75
420
  6921064
370
    20
100
AcDbLine
 10
94.97113778438643
 20
-241.1027917623247
 30
0.0
 11
94.97113778438643
 21
-248.0027917623252
 31
0.0
  0
LINE
  5
22B
330
1C4
100
AcDbEntity
  8
レイヤー 1
 62
    75
420
  6921064
370
    20
100
AcDbLine
 10
99.97113778438661
 20
-288.4027917623247
 30
0.0
 11
99.97113778438661
 21
-263.552791762325
 31
0.0
  0
LINE
  5
22C
330
1C4
100
AcDbEntity
  8
レイヤー 1
 62
    75
420
  6921064
370
    20
100
AcDbLine
 10
95.17113778438645
 20
-240.9027917623253
 30
0.0
 11
97.47113778438652
 21
-240.9027917623253
 31
0.0
  0
LINE
  5
22D
330
1C4
100
AcDbEntity
  8
レイヤー 1
 62
    75
420
  6921064
370
    20
100
AcDbLine
 10
97.47113778438652
 20
-240.9027917623253
 30
0.0
 11
99.97113778438661
 21
-254.9027917623245
 31
0.0
  0
LINE
  5
22E
330
1C4
100
AcDbEntity
  8
レイヤー 1
 62
    75
420
  6921064
370
    20
100
AcDbLine
 10
99.97113778438661
 20
-288.4027917623247
 30
0.0
 11
99.97113778438661
 21
-315.8527917623246
 31
0.0
  0
LINE
  5
22F
330
1C4
100
AcDbEntity
  8
レイヤー 1
 62
    75
420
  6921064
370
    20
100
AcDbLine
 10
95.17113778438645
 20
-335.9027917623248
 30
0.0
 11
97.47113778438652
 21
-335.9027917623248
 31
0.0
  0
LINE
  5
230
330
1C4
100
AcDbEntity
  8
レイヤー 1
 62
    75
420
  6921064
370
    20
100
AcDbLine
 10
97.47113778438652
 20
-335.9027917623248
 30
0.0
 11
99.97113778438661
 21
-321.902791762325
 31
0.0
  0
LINE
  5
231
330
1C4
100
AcDbEntity
  8
レイヤー 1
 62
    75
420
  6921064
370
    20
100
AcDbLine
 10
94.97113778438643
 20
-310.9027917623252
 30
0.0
 11
94.97113778438643
 21
-325.7027917623251
 31
0.0
  0
LINE
  5
232
330
1C4
100
AcDbEntity
  8
レイヤー 1
  6
AI-Linetype-7
 62
    75
420
  6921064
370
    20
100
AcDbLine
 10
94.97113778438643
 20
-310.9027917623252
 30
0.0
 11
99.97113778438661
 21
-310.9027917623252
 31
0.0
  0
LINE
  5
234
330
1C4
100
AcDbEntity
  8
レイヤー 1
  6
AI-Linetype-8
 62
    75
420
  6921064
370
    20
100
AcDbLine
 10
94.97113778438643
 20
-265.9027917623249
 30
0.0
 11
99.97113778438661
 21
-265.9027917623249
 31
0.0
  0
LINE
  5
236
330
1C4
100
AcDbEntity
  8
レイヤー 1
 62
    75
420
  6921064
370
    20
100
AcDbLine
 10
94.97113778438643
 20
-265.9027917623249
 30
0.0
 11
94.97113778438643
 21
-310.9027917623252
 31
0.0
  0
LINE
  5
237
330
1C4
100
AcDbEntity
  8
レイヤー 1
  6
AI-Linetype-9
 62
    75
420
  6921064
370
    20
100
AcDbLine
 10
104.6840678310306
 20
-288.4027917623247
 30
0.0
 11
89.78757261024062
 21
-288.4027917623247
 31
0.0
  0
CIRCLE
  5
239
330
1C4
100
AcDbEntity
  8
レイヤー 1
 62
    75
420
  6921064
370
    20
100
AcDbCircle
 10
205.6722481618921
 20
-288.4027917623247
 30
0.0
 40
47.49999999999983
  0
CIRCLE
  5
23A
330
1C4
100
AcDbEntity
  8
レイヤー 1
 62
    75
420
  6921064
370
    20
100
AcDbCircle
 10
205.6722481618923
 20
-288.4027917623247
 30
0.0
 40
33.50000000000006
  0
CIRCLE
  5
23B
330
1C4
100
AcDbEntity
  8
レイヤー 1
 62
    75
420
  6921064
370
    20
100
AcDbCircle
 10
205.6722481618923
 20
-288.4027917623247
 30
0.0
 40
22.49999999999999
  0
LINE
  5
23C
330
1C4
100
AcDbEntity
  8
レイヤー 1
  6
AI-Linetype-10
 62
    75
420
  6921064
370
    20
100
AcDbLine
 10
156.1722481618924
 20
-288.4027917623247
 30
0.0
 11
255.1722481618921
 21
-288.4027917623247
 31
0.0
  0
LINE
  5
23E
330
1C4
100
AcDbEntity
  8
レイヤー 1
  6
AI-Linetype-11
 62
    75
420
  6921064
370
    20
100
AcDbLine
 10
205.6722481618919
 20
-353.3373033890001
 30
0.0
 11
205.6722481618919
 21
-225.0649334468019
 31
0.0
  0
INSERT
  5
241
330
1C4
100
AcDbEntity
  8
レイヤー 1
100
AcDbBlockReference
  2
Block_16
 10
0.0
 20
0.0
 30
0.0
  0
INSERT
  5
255
330
1C4
100
AcDbEntity
  8
レイヤー 1
100
AcDbBlockReference
  2
Block_17
 10
0.0
 20
0.0
 30
0.0
  0
INSERT
  5
269
330
1C4
100
AcDbEntity
  8
レイヤー 1
100
AcDbBlockReference
  2
Block_18
 10
0.0
 20
0.0
 30
0.0
  0
LINE
  5
271
330
1C4
100
AcDbEntity
  8
レイヤー 1
 62
    75
420
  6921064
370
    20
100
AcDbLine
 10
94.97113778438643
 20
-335.7027917623248
 30
0.0
 11
95.17113778438645
 21
-335.9027917623248
 31
0.0
  0
LINE
  5
272
330
1C4
100
AcDbEntity
  8
レイヤー 1
 62
    75
420
  6921064
370
    20
100
AcDbLine
 10
95.17113778438645
 20
-240.9027917623253
 30
0.0
 11
94.97113778438643
 21
-241.1027917623247
 31
0.0
  0
INSERT
  5
274
330
1C4
100
AcDbEntity
  8
レイヤー 1
100
AcDbBlockReference
  2
Block_19
 10
0.0
 20
0.0
 30
0.0
  0
INSERT
  5
288
330
1C4
100
AcDbEntity
  8
レイヤー 1
100
AcDbBlockReference
  2
Block_20
 10
0.0
 20
0.0
 30
0.0
  0
MTEXT
  5
297
330
1C4
100
AcDbEntity
  8
レイヤー 1
100
AcDbMText
 10
233.9157822765905
 20
-398.8271740234215
 30
0.0
 40
0.2
 41
0.0
 46
0.0
 71
     7
 72
     1
  1
\C251;\c4868939;\FMS Gothic|b0|i0|c128;\H6.493933;\W0.385000;MARDAK INTERNATIONA\H7.325716;L
 73
     1
 44
1.0
  0
CIRCLE
  5
298
330
1C4
100
AcDbEntity
  8
レイヤー 1
  6
AI-Linetype-12
 62
    75
420
  6921064
370
    20
100
AcDbCircle
 10
205.6722481618923
 20
-288.4027917623247
 30
0.0
 40
40.19999999999996
  0
CIRCLE
  5
29A
330
1C4
100
AcDbEntity
  8
レイヤー 1
  6
AI-Linetype-13
 62
    75
420
  6921064
370
    20
100
AcDbCircle
 10
205.6722481618923
 20
-288.4027917623249
 30
0.0
 40
37.49999999999996
  0
LINE
  5
29C
330
1C4
100
AcDbEntity
  8
レイヤー 1
 62
    75
420
  6921064
370
    20
100
AcDbLine
 10
99.82113778438645
 20
-260.8027917623251
 30
0.0
 11
98.27113778438656
 21
-260.8027917623251
 31
0.0
  0
LINE
  5
29D
330
1C4
100
AcDbEntity
  8
レイヤー 1
 62
    75
420
  6921064
370
    20
100
AcDbLine
 10
98.27113778438656
 20
-257.6027917623249
 30
0.0
 11
99.82113778438645
 21
-257.6027917623249
 31
0.0
  0
INSERT
  5
29F
330
1C4
100
AcDbEntity
  8
レイヤー 1
100
AcDbBlockReference
  2
Block_21
 10
0.0
 20
0.0
 30
0.0
  0
SPLINE
  5
2B2
330
1C4
100
AcDbEntity
  8
レイヤー 1
 62
    75
420
  6921064
370
    20
100
AcDbSpline
210
0.0
220
0.0
230
1.0
 70
     8
 71
     3
 72
     8
 73
     4
 74
     0
 42
0.0000000001
 43
0.0000000001
 40
0.0
 40
0.0
 40
0.0
 40
0.0
 40
1.0
 40
1.0
 40
1.0
 40
1.0
 10
99.97113778438661
 20
-260.9527917623249
 30
0.0
 10
99.97113778438661
 20
-260.8699490498501
 30
0.0
 10
99.90398049686126
 20
-260.8027917623244
 30
0.0
 10
99.82113778438645
 20
-260.8027917623244
 30
0.0
  0
INSERT
  5
2B4
330
1C4
100
AcDbEntity
  8
レイヤー 1
100
AcDbBlockReference
  2
Block_22
 10
0.0
 20
0.0
 30
0.0
  0
INSERT
  5
2BA
330
1C4
100
AcDbEntity
  8
レイヤー 1
100
AcDbBlockReference
  2
Block_23
 10
0.0
 20
0.0
 30
0.0
  0
SPLINE
  5
2BF
330
1C4
100
AcDbEntity
  8
レイヤー 1
 62
    75
420
  6921064
370
    20
100
AcDbSpline
210
0.0
220
0.0
230
1.0
 70
     8
 71
     3
 72
     8
 73
     4
 74
     0
 42
0.0000000001
 43
0.0000000001
 40
0.0
 40
0.0
 40
0.0
 40
0.0
 40
1.0
 40
1.0
 40
1.0
 40
1.0
 10
99.82113778438645
 20
-257.6027917623249
 30
0.0
 10
99.90398049686126
 20
-257.6027917623249
 30
0.0
 10
99.97113778438661
 20
-257.5356344747999
 30
0.0
 10
99.97113778438661
 20
-257.4527917623251
 30
0.0
  0
LINE
  5
2C0
330
1C4
100
AcDbEntity
  8
レイヤー 1
 62
    75
420
  6921064
370
    20
100
AcDbLine
 10
99.97113778438661
 20
-257.4527917623251
 30
0.0
 11
99.97113778438661
 21
-254.9027917623245
 31
0.0
  0
LINE
  5
2C1
330
1C4
100
AcDbEntity
  8
レイヤー 1
 62
    75
420
  6921064
370
    20
100
AcDbLine
 10
94.97113778438643
 20
-251.102791762325
 30
0.0
 11
94.97113778438643
 21
-265.9027917623249
 31
0.0
  0
LINE
  5
2C2
330
1C4
100
AcDbEntity
  8
レイヤー 1
 62
    75
420
  6921064
370
    20
100
AcDbLine
 10
99.97113778438661
 20
-319.352791762325
 30
0.0
 11
99.97113778438661
 21
-321.902791762325
 31
0.0
  0
LINE
  5
2C3
330
1C4
100
AcDbEntity
  8
レイヤー 1
 62
    75
420
  6921064
370
    20
100
AcDbLine
 10
94.97113778438643
 20
-328.8027917623249
 30
0.0
 11
94.97113778438643
 21
-335.7027917623248
 31
0.0
  0
MTEXT
  5
2C4
330
1C4
100
AcDbEntity
  8
レイヤー 1
100
AcDbMText
 10
83.63072643308537
 20
-364.1740243637091
 30
0.0
 40
0.2
 41
0.0
 46
0.0
 71
     7
 72
     1
  1
\C251;\c4868939;\FMS Gothic|b0|i0|c128;\H6.000000;\W1.026667;AA断面
 73
     1
 44
1.0
  0
INSERT
  5
2C6
330
1C4
100
AcDbEntity
  8
レイヤー 1
100
AcDbBlockReference
  2
Block_24
 10
0.0
 20
0.0
 30
0.0
  0
MTEXT
  5
2CC
330
1C4
100
AcDbEntity
  8
レイヤー 1
100
AcDbMText
 10
192.8284323316214
 20
-227.2487043024543
 30
0.0
 40
0.2
 41
0.0
 46
0.0
 71
     7
 72
     1
  1
\C251;\c4868939;\FMS Gothic|b0|i0|c128;\H4.000000;\W1.155000;A
 73
     1
 44
1.0
  0
INSERT
  5
2CE
330
1C4
100
AcDbEntity
  8
レイヤー 1
100
AcDbBlockReference
  2
Block_25
 10
0.0
 20
0.0
 30
0.0
  0
MTEXT
  5
2D4
330
1C4
100
AcDbEntity
  8
レイヤー 1
100
AcDbMText
 10
192.8284323316214
 20
-346.6063951261577
 30
0.0
 40
0.2
 41
0.0
 46
0.0
 71
     7
 72
     1
  1
\C251;\c4868939;\FMS Gothic|b0|i0|c128;\H4.000000;\W1.155000;A
 73
     1
 44
1.0
  0
LINE
  5
2D5
330
1C4
100
AcDbEntity
  8
レイヤー 1
 62
    75
420
  6921064
370
    20
100
AcDbLine
 10
99.97113778438661
 20
-288.4027917623247
 30
0.0
 11
99.97113778438661
 21
-260.9527917623249
 31
0.0
  0
LINE
  5
2D6
330
1C4
100
AcDbEntity
  8
レイヤー 1
 62
    75
420
  6921064
370
    20
100
AcDbLine
 10
99.82113778438645
 20
-316.0027917623251
 30
0.0
 11
98.27113778438656
 21
-316.0027917623251
 31
0.0
  0
SPLINE
  5
2D7
330
1C4
100
AcDbEntity
  8
レイヤー 1
 62
    75
420
  6921064
370
    20
100
AcDbSpline
210
0.0
220
0.0
230
1.0
 70
     8
 71
     3
 72
     8
 73
     4
 74
     0
 42
0.0000000001
 43
0.0000000001
 40
0.0
 40
0.0
 40
0.0
 40
0.0
 40
1.0
 40
1.0
 40
1.0
 40
1.0
 10
99.82113778438645
 20
-316.0027917623251
 30
0.0
 10
99.90398049686126
 20
-316.0027917623251
 30
0.0
 10
99.97113778438661
 20
-315.9356344747994
 30
0.0
 10
99.97113778438661
 20
-315.8527917623246
 30
0.0
  0
LINE
  5
2D8
330
1C4
100
AcDbEntity
  8
レイヤー 1
 62
    75
420
  6921064
370
    20
100
AcDbLine
 10
98.27113778438656
 20
-257.6027917623249
 30
0.0
 11
98.27113778438656
 21
-260.8027917623251
 31
0.0
  0
LINE
  5
2D9
330
1C4
100
AcDbEntity
  8
レイヤー 1
 62
    75
420
  6921064
370
    20
100
AcDbLine
 10
98.27113778438656
 20
-319.2027917623251
 30
0.0
 11
99.82113778438645
 21
-319.2027917623251
 31
0.0
  0
SPLINE
  5
2DA
330
1C4
100
AcDbEntity
  8
レイヤー 1
 62
    75
420
  6921064
370
    20
100
AcDbSpline
210
0.0
220
0.0
230
1.0
 70
     8
 71
     3
 72
     8
 73
     4
 74
     0
 42
0.0000000001
 43
0.0000000001
 40
0.0
 40
0.0
 40
0.0
 40
0.0
 40
1.0
 40
1.0
 40
1.0
 40
1.0
 10
99.97113778438661
 20
-319.352791762325
 30
0.0
 10
99.97113778438661
 20
-319.2699490498502
 30
0.0
 10
99.90398049686126
 20
-319.2027917623251
 30
0.0
 10
99.82113778438645
 20
-319.2027917623251
 30
0.0
  0
LINE
  5
2DB
330
1C4
100
AcDbEntity
  8
レイヤー 1
 62
    75
420
  6921064
370
    20
100
AcDbLine
 10
98.27113778438656
 20
-319.2027917623251
 30
0.0
 11
98.27113778438656
 21
-316.0027917623251
 31
0.0
  0
INSERT
  5
2DD
330
1C4
100
AcDbEntity
  8
レイヤー 1
100
AcDbBlockReference
  2
Block_26
 10
0.0
 20
0.0
 30
0.0
  0
INSERT
  5
2ED
330
1C4
100
AcDbEntity
  8
レイヤー 1
100
AcDbBlockReference
  2
Block_27
 10
0.0
 20
0.0
 30
0.0
  0
CIRCLE
  5
2FC
330
1C4
100
AcDbEntity
  8
レイヤー 1
 62
    75
420
  6921064
370
    20
100
AcDbCircle
 10
205.6722481618923
 20
-288.4027917623249
 30
0.0
 40
30.80000000000004
  0
CIRCLE
  5
2FD
330
1C4
100
AcDbEntity
  8
レイヤー 1
 62
    75
420
  6921064
370
    20
100
AcDbCircle
 10
205.6722481618923
 20
-288.4027917623247
 30
0.0
 40
27.60000000000017
  0
MTEXT
  5
2FE
330
1C4
100
AcDbEntity
  8
レイヤー 1
100
AcDbMText
 10
36.87026777405338
 20
-376.9431092909368
 30
0.0
 40
0.2
 41
0.0
 46
0.0
 71
     7
 72
     1
  1
\C251;\c4868939;\FMS Gothic|b0|i0|c128;\H3.000000;\W1.026667;2
 73
     1
 44
1.0
  0
MTEXT
  5
2FF
330
1C4
100
AcDbEntity
  8
レイヤー 1
100
AcDbMText
 10
41.35856239556449
 20
-376.9431092909368
 30
0.0
 40
0.2
 41
0.0
 46
0.0
 71
     7
 72
     1
  1
\C251;\c4868939;\FMS Gothic|b0|i0|c128;\H3.000000;\W1.026667;5
 73
     1
 44
1.0
  0
MTEXT
  5
300
330
1C4
100
AcDbEntity
  8
レイヤー 1
100
AcDbMText
 10
45.78881792407254
 20
-376.9431092909368
 30
0.0
 40
0.2
 41
0.0
 46
0.0
 71
     7
 72
     1
  1
\C251;\c4868939;\FMS Gothic|b0|i0|c128;\H3.000000;\W1.026667;13
 73
     1
 44
1.0
  0
MTEXT
  5
301
330
1C4
100
AcDbEntity
  8
レイヤー 1
100
AcDbMText
 10
120.8246017153993
 20
-376.9431092909368
 30
0.0
 40
0.2
 41
0.0
 46
0.0
 71
     7
 72
     1
  1
\C251;\c4868939;\FMS Gothic|b0|i0|c128;\H3.000000;\W1.026667;長原
 73
     1
 44
1.0
  0
MTEXT
  5
302
330
1C4
100
AcDbEntity
  8
レイヤー 1
100
AcDbMText
 10
36.87026777405338
 20
-382.9790996017921
 30
0.0
 40
0.2
 41
0.0
 46
0.0
 71
     7
 72
     1
  1
\C251;\c4868939;\FMS Gothic|b0|i0|c128;\H3.000000;\W1.026667;4
 73
     1
 44
1.0
  0
MTEXT
  5
303
330
1C4
100
AcDbEntity
  8
レイヤー 1
100
AcDbMText
 10
41.35856239556449
 20
-382.9790996017921
 30
0.0
 40
0.2
 41
0.0
 46
0.0
 71
     7
 72
     1
  1
\C251;\c4868939;\FMS Gothic|b0|i0|c128;\H3.000000;\W1.026667;4
 73
     1
 44
1.0
  0
MTEXT
  5
304
330
1C4
100
AcDbEntity
  8
レイヤー 1
100
AcDbMText
 10
47.66388112042181
 20
-382.9790996017921
 30
0.0
 40
0.2
 41
0.0
 46
0.0
 71
     7
 72
     1
  1
\C251;\c4868939;\FMS Gothic|b0|i0|c128;\H3.000000;\W1.026667;3
 73
     1
 44
1.0
  0
MTEXT
  5
305
330
1C4
100
AcDbEntity
  8
レイヤー 1
100
AcDbMText
 10
120.8246017153993
 20
-382.9790996017921
 30
0.0
 40
0.2
 41
0.0
 46
0.0
 71
     7
 72
     1
  1
\C251;\c4868939;\FMS Gothic|b0|i0|c128;\H3.000000;\W1.026667;長原
 73
     1
 44
1.0
  0
MTEXT
  5
306
330
1C4
100
AcDbEntity
  8
レイヤー 1
100
AcDbMText
 10
86.54179982035131
 20
-382.9790996017921
 30
0.0
 40
0.2
 41
0.0
 46
0.0
 71
     7
 72
     1
  1
\C251;\c4868939;\FMS Gothic|b0|i0|c128;\H3.000000;\W1.026667;Oリング溝追加
 73
     1
 44
1.0
  0
LINE
  5
307
330
1C4
100
AcDbEntity
  8
レイヤー 1
 62
   251
420
  4934474
370
    20
100
AcDbLine
 10
93.9711377843864
 20
-325.9027917623251
 30
0.0
 11
62.14980902022264
 21
-325.9027917623251
 31
0.0
  0
LINE
  5
308
330
1C4
100
AcDbEntity
  8
レイヤー 1
 62
   251
420
  4934474
370
    20
100
AcDbLine
 10
94.32442958266758
 20
-250.902791762325
 30
0.0
 11
62.14980902022264
 21
-250.902791762325
 31
0.0
  0
LINE
  5
309
330
1C4
100
AcDbEntity
  8
レイヤー 1
 62
   251
420
  4934474
370
    20
100
AcDbLine
 10
63.31647568688967
 20
-324.902791762325
 30
0.0
 11
63.14980902022267
 21
-325.9027917623251
 31
0.0
  0
LINE
  5
30A
330
1C4
100
AcDbEntity
  8
レイヤー 1
 62
   251
420
  4934474
370
    20
100
AcDbLine
 10
62.98314235355568
 20
-324.902791762325
 30
0.0
 11
63.14980902022267
 21
-325.9027917623251
 31
0.0
  0
LINE
  5
30B
330
1C4
100
AcDbEntity
  8
レイヤー 1
 62
   251
420
  4934474
370
    20
100
AcDbLine
 10
63.14980902022267
 20
-325.9027917623251
 30
0.0
 11
63.14980902022267
 21
-324.902791762325
 31
0.0
  0
LINE
  5
30C
330
1C4
100
AcDbEntity
  8
レイヤー 1
 62
   251
420
  4934474
370
    20
100
AcDbLine
 10
62.98314235355568
 20
-251.9027917623251
 30
0.0
 11
63.14980902022267
 21
-250.902791762325
 31
0.0
  0
LINE
  5
30D
330
1C4
100
AcDbEntity
  8
レイヤー 1
 62
   251
420
  4934474
370
    20
100
AcDbLine
 10
63.31647568688967
 20
-251.9027917623251
 30
0.0
 11
63.14980902022267
 21
-250.902791762325
 31
0.0
  0
LINE
  5
30E
330
1C4
100
AcDbEntity
  8
レイヤー 1
 62
   251
420
  4934474
370
    20
100
AcDbLine
 10
63.14980902022267
 20
-250.902791762325
 30
0.0
 11
63.14980902022267
 21
-251.9027917623251
 31
0.0
  0
LINE
  5
30F
330
1C4
100
AcDbEntity
  8
レイヤー 1
 62
   251
420
  4934474
370
    20
100
AcDbLine
 10
63.31647568688967
 20
-324.902791762325
 30
0.0
 11
63.14980902022267
 21
-325.9027917623251
 31
0.0
  0
LINE
  5
310
330
1C4
100
AcDbEntity
  8
レイヤー 1
 62
   251
420
  4934474
370
    20
100
AcDbLine
 10
62.98314235355568
 20
-324.902791762325
 30
0.0
 11
63.14980902022267
 21
-325.9027917623251
 31
0.0
  0
LINE
  5
311
330
1C4
100
AcDbEntity
  8
レイヤー 1
 62
   251
420
  4934474
370
    20
100
AcDbLine
 10
63.14980902022267
 20
-325.9027917623251
 30
0.0
 11
63.14980902022267
 21
-324.902791762325
 31
0.0
  0
LINE
  5
312
330
1C4
100
AcDbEntity
  8
レイヤー 1
 62
   251
420
  4934474
370
    20
100
AcDbLine
 10
62.98314235355568
 20
-251.9027917623251
 30
0.0
 11
63.14980902022267
 21
-250.902791762325
 31
0.0
  0
LINE
  5
313
330
1C4
100
AcDbEntity
  8
レイヤー 1
 62
   251
420
  4934474
370
    20
100
AcDbLine
 10
63.31647568688967
 20
-251.9027917623251
 30
0.0
 11
63.14980902022267
 21
-250.902791762325
 31
0.0
  0
LINE
  5
314
330
1C4
100
AcDbEntity
  8
レイヤー 1
 62
   251
420
  4934474
370
    20
100
AcDbLine
 10
63.14980902022267
 20
-250.902791762325
 30
0.0
 11
63.14980902022267
 21
-251.9027917623251
 31
0.0
  0
LINE
  5
315
330
1C4
100
AcDbEntity
  8
レイヤー 1
 62
   251
420
  4934474
370
    20
100
AcDbLine
 10
63.14980902022267
 20
-325.9027917623251
 30
0.0
 11
63.14980902022267
 21
-250.902791762325
 31
0.0
  0
MTEXT
  5
316
330
1C4
100
AcDbEntity
  8
レイヤー 1
100
AcDbMText
 10
62.1498024679146
 20
-299.4029133366069
 30
0.0
 40
0.2
 41
0.0
 46
0.0
 71
     7
 72
     1
  1
\C251;\c4868939;\FKozGoPr6N-Regular|b0|i0|c128;\H4.000000;\W0.937500;φ75
 11
-0.0000000000000002
 21
1.0
 31
0.0
 73
     1
 44
1.0
  0
LINE
  5
317
330
1C4
100
AcDbEntity
  8
レイヤー 1
 62
    75
420
  6921064
370
    20
100
AcDbLine
 10
94.97113778438643
 20
-335.5103722901116
 30
0.0
 11
98.09992462617259
 21
-332.3815854483271
 31
0.0
  0
LINE
  5
318
330
1C4
100
AcDbEntity
  8
レイヤー 1
 62
    75
420
  6921064
370
    20
100
AcDbLine
 10
94.97113778438643
 20
-331.9866234971986
 30
0.0
 11
98.86595697245743
 21
-328.0918043091279
 31
0.0
  0
LINE
  5
319
330
1C4
100
AcDbEntity
  8
レイヤー 1
 62
    75
420
  6921064
370
    20
100
AcDbLine
 10
96.47113778438651
 20
-326.9628747042857
 30
0.0
 11
99.63198931874357
 21
-323.8020231699299
 31
0.0
  0
LINE
  5
31A
330
1C4
100
AcDbEntity
  8
レイヤー 1
 62
    75
420
  6921064
370
    20
100
AcDbLine
 10
94.97113778438643
 20
-324.9391259113729
 30
0.0
 11
99.97113778438661
 21
-319.9391259113728
 31
0.0
  0
LINE
  5
31B
330
1C4
100
AcDbEntity
  8
レイヤー 1
 62
    75
420
  6921064
370
    20
100
AcDbLine
 10
94.97113778438643
 20
-321.4153771184598
 30
0.0
 11
98.27113778438656
 21
-318.11537711846
 31
0.0
  0
LINE
  5
31C
330
1C4
100
AcDbEntity
  8
レイヤー 1
 62
    75
420
  6921064
370
    20
100
AcDbLine
 10
94.97113778438643
 20
-317.8916283255467
 30
0.0
 11
99.97113778438661
 21
-312.8916283255471
 31
0.0
  0
LINE
  5
31D
330
1C4
100
AcDbEntity
  8
レイヤー 1
 62
    75
420
  6921064
370
    20
100
AcDbLine
 10
94.97113778438643
 20
-314.3678795326342
 30
0.0
 11
98.43622555469671
 21
-310.9027917623252
 31
0.0
  0
LINE
  5
31E
330
1C4
100
AcDbEntity
  8
レイヤー 1
 62
    75
420
  6921064
370
    20
100
AcDbLine
 10
97.62749124682757
 20
-265.9027917623249
 30
0.0
 11
99.97113778438661
 21
-263.5591452247659
 31
0.0
  0
LINE
  5
31F
330
1C4
100
AcDbEntity
  8
レイヤー 1
 62
    75
420
  6921064
370
    20
100
AcDbLine
 10
94.97113778438643
 20
-265.0353964318529
 30
0.0
 11
99.20374245391464
 21
-260.8027917623251
 31
0.0
  0
LINE
  5
320
330
1C4
100
AcDbEntity
  8
レイヤー 1
 62
    75
420
  6921064
370
    20
100
AcDbLine
 10
94.97113778438643
 20
-261.5116476389397
 30
0.0
 11
98.27113778438656
 21
-258.21164763894
 31
0.0
  0
LINE
  5
321
330
1C4
100
AcDbEntity
  8
レイヤー 1
 62
    75
420
  6921064
370
    20
100
AcDbLine
 10
98.8799936610016
 20
-257.6027917623249
 30
0.0
 11
99.97113778438661
 21
-256.5116476389402
 31
0.0
  0
LINE
  5
322
330
1C4
100
AcDbEntity
  8
レイヤー 1
 62
    75
420
  6921064
370
    20
100
AcDbLine
 10
94.97113778438643
 20
-257.9878988460266
 30
0.0
 11
99.68100249403839
 21
-253.2780341363747
 31
0.0
  0
LINE
  5
323
330
1C4
100
AcDbEntity
  8
レイヤー 1
 62
    75
420
  6921064
370
    20
100
AcDbLine
 10
94.97113778438643
 20
-254.4641500531135
 30
0.0
 11
99.14710116177952
 21
-250.2881866757217
 31
0.0
  0
LINE
  5
324
330
1C4
100
AcDbEntity
  8
レイヤー 1
 62
    75
420
  6921064
370
    20
100
AcDbLine
 10
96.47113778438651
 20
-249.4404012602006
 30
0.0
 11
98.6131998295197
 21
-247.2983392150674
 31
0.0
  0
LINE
  5
325
330
1C4
100
AcDbEntity
  8
レイヤー 1
 62
    75
420
  6921064
370
    20
100
AcDbLine
 10
94.97113778438643
 20
-247.4166524672879
 30
0.0
 11
98.07929849725955
 21
-244.3084917544144
 31
0.0
  0
LINE
  5
326
330
1C4
100
AcDbEntity
  8
レイヤー 1
 62
    75
420
  6921064
370
    20
100
AcDbLine
 10
94.97113778438643
 20
-243.8929036743747
 30
0.0
 11
97.54539716500069
 21
-241.3186442937615
 31
0.0
  0
LINE
  5
327
330
1C4
100
AcDbEntity
  8
レイヤー 1
 62
    75
420
  6921064
370
    20
100
AcDbLine
 10
94.97113778438643
 20
-265.9027917623249
 30
0.0
 11
94.97113778438643
 21
-251.102791762325
 31
0.0
  0
SPLINE
  5
328
330
1C4
100
AcDbEntity
  8
レイヤー 1
 62
    75
420
  6921064
370
    20
100
AcDbSpline
210
0.0
220
0.0
230
1.0
 70
     8
 71
     3
 72
     8
 73
     4
 74
     0
 42
0.0000000001
 43
0.0000000001
 40
0.0
 40
0.0
 40
0.0
 40
0.0
 40
1.0
 40
1.0
 40
1.0
 40
1.0
 10
95.17113778438645
 20
-250.902791762325
 30
0.0
 10
95.06068083442025
 20
-250.902791762325
 30
0.0
 10
94.97113778438643
 20
-250.9923348123588
 30
0.0
 10
94.97113778438643
 20
-251.102791762325
 30
0.0
  0
LINE
  5
329
330
1C4
100
AcDbEntity
  8
レイヤー 1
 62
    75
420
  6921064
370
    20
100
AcDbLine
 10
95.17113778438645
 20
-250.902791762325
 30
0.0
 11
96.47113778438651
 21
-250.902791762325
 31
0.0
  0
LINE
  5
32A
330
1C4
100
AcDbEntity
  8
レイヤー 1
 62
    75
420
  6921064
370
    20
100
AcDbLine
 10
96.47113778438651
 20
-250.902791762325
 30
0.0
 11
96.47113778438651
 21
-248.2027917623246
 31
0.0
  0
LINE
  5
32B
330
1C4
100
AcDbEntity
  8
レイヤー 1
 62
    75
420
  6921064
370
    20
100
AcDbLine
 10
96.47113778438651
 20
-248.2027917623246
 30
0.0
 11
95.17113778438645
 21
-248.2027917623246
 31
0.0
  0
SPLINE
  5
32C
330
1C4
100
AcDbEntity
  8
レイヤー 1
 62
    75
420
  6921064
370
    20
100
AcDbSpline
210
0.0
220
0.0
230
1.0
 70
     8
 71
     3
 72
     8
 73
     4
 74
     0
 42
0.0000000001
 43
0.0000000001
 40
0.0
 40
0.0
 40
0.0
 40
0.0
 40
1.0
 40
1.0
 40
1.0
 40
1.0
 10
94.97113778438643
 20
-248.0027917623252
 30
0.0
 10
94.97113778438643
 20
-248.1132487122908
 30
0.0
 10
95.06068083442025
 20
-248.2027917623246
 30
0.0
 10
95.17113778438645
 20
-248.2027917623246
 30
0.0
  0
LINE
  5
32D
330
1C4
100
AcDbEntity
  8
レイヤー 1
 62
    75
420
  6921064
370
    20
100
AcDbLine
 10
94.97113778438643
 20
-248.0027917623252
 30
0.0
 11
94.97113778438643
 21
-241.1027917623247
 31
0.0
  0
LINE
  5
32E
330
1C4
100
AcDbEntity
  8
レイヤー 1
 62
    75
420
  6921064
370
    20
100
AcDbLine
 10
94.97113778438643
 20
-241.1027917623247
 30
0.0
 11
95.17113778438645
 21
-240.9027917623253
 31
0.0
  0
LINE
  5
32F
330
1C4
100
AcDbEntity
  8
レイヤー 1
 62
    75
420
  6921064
370
    20
100
AcDbLine
 10
95.17113778438645
 20
-240.9027917623253
 30
0.0
 11
97.47113778438652
 21
-240.9027917623253
 31
0.0
  0
LINE
  5
330
330
1C4
100
AcDbEntity
  8
レイヤー 1
 62
    75
420
  6921064
370
    20
100
AcDbLine
 10
97.47113778438652
 20
-240.9027917623253
 30
0.0
 11
99.97113778438661
 21
-254.9027917623245
 31
0.0
  0
LINE
  5
331
330
1C4
100
AcDbEntity
  8
レイヤー 1
 62
    75
420
  6921064
370
    20
100
AcDbLine
 10
99.97113778438661
 20
-254.9027917623245
 30
0.0
 11
99.97113778438661
 21
-257.4527917623251
 31
0.0
  0
SPLINE
  5
332
330
1C4
100
AcDbEntity
  8
レイヤー 1
 62
    75
420
  6921064
370
    20
100
AcDbSpline
210
0.0
220
0.0
230
1.0
 70
     8
 71
     3
 72
     8
 73
     4
 74
     0
 42
0.0000000001
 43
0.0000000001
 40
0.0
 40
0.0
 40
0.0
 40
0.0
 40
1.0
 40
1.0
 40
1.0
 40
1.0
 10
99.82113778438645
 20
-257.6027917623249
 30
0.0
 10
99.90398049686126
 20
-257.6027917623249
 30
0.0
 10
99.97113778438661
 20
-257.5356344747999
 30
0.0
 10
99.97113778438661
 20
-257.4527917623251
 30
0.0
  0
LINE
  5
333
330
1C4
100
AcDbEntity
  8
レイヤー 1
 62
    75
420
  6921064
370
    20
100
AcDbLine
 10
99.82113778438645
 20
-257.6027917623249
 30
0.0
 11
98.27113778438656
 21
-257.6027917623249
 31
0.0
  0
LINE
  5
334
330
1C4
100
AcDbEntity
  8
レイヤー 1
 62
    75
420
  6921064
370
    20
100
AcDbLine
 10
98.27113778438656
 20
-257.6027917623249
 30
0.0
 11
98.27113778438656
 21
-260.8027917623251
 31
0.0
  0
LINE
  5
335
330
1C4
100
AcDbEntity
  8
レイヤー 1
 62
    75
420
  6921064
370
    20
100
AcDbLine
 10
98.27113778438656
 20
-260.8027917623251
 30
0.0
 11
99.82113778438645
 21
-260.8027917623251
 31
0.0
  0
SPLINE
  5
336
330
1C4
100
AcDbEntity
  8
レイヤー 1
 62
    75
420
  6921064
370
    20
100
AcDbSpline
210
0.0
220
0.0
230
1.0
 70
     8
 71
     3
 72
     8
 73
     4
 74
     0
 42
0.0000000001
 43
0.0000000001
 40
0.0
 40
0.0
 40
0.0
 40
0.0
 40
1.0
 40
1.0
 40
1.0
 40
1.0
 10
99.97113778438661
 20
-260.9527917623249
 30
0.0
 10
99.97113778438661
 20
-260.8699490498501
 30
0.0
 10
99.90398049686126
 20
-260.8027917623244
 30
0.0
 10
99.82113778438645
 20
-260.8027917623244
 30
0.0
  0
LINE
  5
337
330
1C4
100
AcDbEntity
  8
レイヤー 1
 62
    75
420
  6921064
370
    20
100
AcDbLine
 10
99.97113778438661
 20
-260.9527917623249
 30
0.0
 11
99.97113778438661
 21
-265.9027917623249
 31
0.0
  0
LINE
  5
338
330
1C4
100
AcDbEntity
  8
レイヤー 1
 62
    75
420
  6921064
370
    20
100
AcDbLine
 10
99.97113778438661
 20
-265.9027917623249
 30
0.0
 11
94.97113778438643
 21
-265.9027917623249
 31
0.0
  0
LINE
  5
339
330
1C4
100
AcDbEntity
  8
レイヤー 1
 62
    75
420
  6921064
370
    20
100
AcDbLine
 10
94.97113778438643
 20
-310.9027917623252
 30
0.0
 11
94.97113778438643
 21
-325.7027917623251
 31
0.0
  0
SPLINE
  5
33A
330
1C4
100
AcDbEntity
  8
レイヤー 1
 62
    75
420
  6921064
370
    20
100
AcDbSpline
210
0.0
220
0.0
230
1.0
 70
     8
 71
     3
 72
     8
 73
     4
 74
     0
 42
0.0000000001
 43
0.0000000001
 40
0.0
 40
0.0
 40
0.0
 40
0.0
 40
1.0
 40
1.0
 40
1.0
 40
1.0
 10
94.97113778438643
 20
-325.7027917623251
 30
0.0
 10
94.97113778438643
 20
-325.8132487122913
 30
0.0
 10
95.06068083442025
 20
-325.9027917623251
 30
0.0
 10
95.17113778438645
 20
-325.9027917623251
 30
0.0
  0
LINE
  5
33B
330
1C4
100
AcDbEntity
  8
レイヤー 1
 62
    75
420
  6921064
370
    20
100
AcDbLine
 10
95.17113778438645
 20
-325.9027917623251
 30
0.0
 11
96.47113778438651
 21
-325.9027917623251
 31
0.0
  0
LINE
  5
33C
330
1C4
100
AcDbEntity
  8
レイヤー 1
 62
    75
420
  6921064
370
    20
100
AcDbLine
 10
96.47113778438651
 20
-325.9027917623251
 30
0.0
 11
96.47113778438651
 21
-328.6027917623248
 31
0.0
  0
LINE
  5
33D
330
1C4
100
AcDbEntity
  8
レイヤー 1
 62
    75
420
  6921064
370
    20
100
AcDbLine
 10
96.47113778438651
 20
-328.6027917623248
 30
0.0
 11
95.17113778438645
 21
-328.6027917623248
 31
0.0
  0
SPLINE
  5
33E
330
1C4
100
AcDbEntity
  8
レイヤー 1
 62
    75
420
  6921064
370
    20
100
AcDbSpline
210
0.0
220
0.0
230
1.0
 70
     8
 71
     3
 72
     8
 73
     4
 74
     0
 42
0.0000000001
 43
0.0000000001
 40
0.0
 40
0.0
 40
0.0
 40
0.0
 40
1.0
 40
1.0
 40
1.0
 40
1.0
 10
95.17113778438645
 20
-328.6027917623248
 30
0.0
 10
95.06068083442025
 20
-328.6027917623248
 30
0.0
 10
94.97113778438643
 20
-328.6923348123587
 30
0.0
 10
94.97113778438643
 20
-328.8027917623249
 30
0.0
  0
LINE
  5
33F
330
1C4
100
AcDbEntity
  8
レイヤー 1
 62
    75
420
  6921064
370
    20
100
AcDbLine
 10
94.97113778438643
 20
-328.8027917623249
 30
0.0
 11
94.97113778438643
 21
-335.7027917623248
 31
0.0
  0
LINE
  5
340
330
1C4
100
AcDbEntity
  8
レイヤー 1
 62
    75
420
  6921064
370
    20
100
AcDbLine
 10
94.97113778438643
 20
-335.7027917623248
 30
0.0
 11
95.17113778438645
 21
-335.9027917623248
 31
0.0
  0
LINE
  5
341
330
1C4
100
AcDbEntity
  8
レイヤー 1
 62
    75
420
  6921064
370
    20
100
AcDbLine
 10
95.17113778438645
 20
-335.9027917623248
 30
0.0
 11
97.47113778438652
 21
-335.9027917623248
 31
0.0
  0
LINE
  5
342
330
1C4
100
AcDbEntity
  8
レイヤー 1
 62
    75
420
  6921064
370
    20
100
AcDbLine
 10
97.47113778438652
 20
-335.9027917623248
 30
0.0
 11
99.97113778438661
 21
-321.902791762325
 31
0.0
  0
LINE
  5
343
330
1C4
100
AcDbEntity
  8
レイヤー 1
 62
    75
420
  6921064
370
    20
100
AcDbLine
 10
99.97113778438661
 20
-321.902791762325
 30
0.0
 11
99.97113778438661
 21
-319.352791762325
 31
0.0
  0
SPLINE
  5
344
330
1C4
100
AcDbEntity
  8
レイヤー 1
 62
    75
420
  6921064
370
    20
100
AcDbSpline
210
0.0
220
0.0
230
1.0
 70
     8
 71
     3
 72
     8
 73
     4
 74
     0
 42
0.0000000001
 43
0.0000000001
 40
0.0
 40
0.0
 40
0.0
 40
0.0
 40
1.0
 40
1.0
 40
1.0
 40
1.0
 10
99.97113778438661
 20
-319.352791762325
 30
0.0
 10
99.97113778438661
 20
-319.2699490498502
 30
0.0
 10
99.90398049686126
 20
-319.2027917623251
 30
0.0
 10
99.82113778438645
 20
-319.2027917623251
 30
0.0
  0
LINE
  5
345
330
1C4
100
AcDbEntity
  8
レイヤー 1
 62
    75
420
  6921064
370
    20
100
AcDbLine
 10
99.82113778438645
 20
-319.2027917623251
 30
0.0
 11
98.27113778438656
 21
-319.2027917623251
 31
0.0
  0
LINE
  5
346
330
1C4
100
AcDbEntity
  8
レイヤー 1
 62
    75
420
  6921064
370
    20
100
AcDbLine
 10
98.27113778438656
 20
-319.2027917623251
 30
0.0
 11
98.27113778438656
 21
-316.0027917623251
 31
0.0
  0
LINE
  5
347
330
1C4
100
AcDbEntity
  8
レイヤー 1
 62
    75
420
  6921064
370
    20
100
AcDbLine
 10
98.27113778438656
 20
-316.0027917623251
 30
0.0
 11
99.82113778438645
 21
-316.0027917623251
 31
0.0
  0
SPLINE
  5
348
330
1C4
100
AcDbEntity
  8
レイヤー 1
 62
    75
420
  6921064
370
    20
100
AcDbSpline
210
0.0
220
0.0
230
1.0
 70
     8
 71
     3
 72
     8
 73
     4
 74
     0
 42
0.0000000001
 43
0.0000000001
 40
0.0
 40
0.0
 40
0.0
 40
0.0
 40
1.0
 40
1.0
 40
1.0
 40
1.0
 10
99.82113778438645
 20
-316.0027917623251
 30
0.0
 10
99.90398049686126
 20
-316.0027917623251
 30
0.0
 10
99.97113778438661
 20
-315.9356344747994
 30
0.0
 10
99.97113778438661
 20
-315.8527917623246
 30
0.0
  0
LINE
  5
349
330
1C4
100
AcDbEntity
  8
レイヤー 1
 62
    75
420
  6921064
370
    20
100
AcDbLine
 10
99.97113778438661
 20
-315.8527917623246
 30
0.0
 11
99.97113778438661
 21
-310.9027917623252
 31
0.0
  0
LINE
  5
34A
330
1C4
100
AcDbEntity
  8
レイヤー 1
 62
    75
420
  6921064
370
    20
100
AcDbLine
 10
99.97113778438661
 20
-310.9027917623252
 30
0.0
 11
94.97113778438643
 21
-310.9027917623252
 31
0.0
  0
LINE
  5
34B
330
1C4
100
AcDbEntity
  8
レイヤー 1
 62
    75
420
  6921064
370
    20
100
AcDbLine
 10
95.17113778438645
 20
-250.902791762325
 30
0.0
 11
96.47113778438651
 21
-250.902791762325
 31
0.0
  0
LINE
  5
34C
330
1C4
100
AcDbEntity
  8
レイヤー 1
 62
    75
420
  6921064
370
    20
100
AcDbLine
 10
95.17113778438645
 20
-248.2027917623246
 30
0.0
 11
96.47113778438651
 21
-248.2027917623246
 31
0.0
  0
LINE
  5
34D
330
1C4
100
AcDbEntity
  8
レイヤー 1
 62
    75
420
  6921064
370
    20
100
AcDbLine
 10
96.47113778438651
 20
-248.2027917623246
 30
0.0
 11
96.47113778438651
 21
-250.902791762325
 31
0.0
  0
SPLINE
  5
34E
330
1C4
100
AcDbEntity
  8
レイヤー 1
 62
    75
420
  6921064
370
    20
100
AcDbSpline
210
0.0
220
0.0
230
1.0
 70
     8
 71
     3
 72
     8
 73
     4
 74
     0
 42
0.0000000001
 43
0.0000000001
 40
0.0
 40
0.0
 40
0.0
 40
0.0
 40
1.0
 40
1.0
 40
1.0
 40
1.0
 10
95.17113778438645
 20
-250.902791762325
 30
0.0
 10
95.06068083442025
 20
-250.902791762325
 30
0.0
 10
94.97113778438643
 20
-250.9923348123588
 30
0.0
 10
94.97113778438643
 20
-251.102791762325
 30
0.0
  0
SPLINE
  5
34F
330
1C4
100
AcDbEntity
  8
レイヤー 1
 62
    75
420
  6921064
370
    20
100
AcDbSpline
210
0.0
220
0.0
230
1.0
 70
     8
 71
     3
 72
     8
 73
     4
 74
     0
 42
0.0000000001
 43
0.0000000001
 40
0.0
 40
0.0
 40
0.0
 40
0.0
 40
1.0
 40
1.0
 40
1.0
 40
1.0
 10
94.97113778438643
 20
-248.0027917623252
 30
0.0
 10
94.97113778438643
 20
-248.1132487122908
 30
0.0
 10
95.06068083442025
 20
-248.2027917623246
 30
0.0
 10
95.17113778438645
 20
-248.2027917623246
 30
0.0
  0
LINE
  5
350
330
1C4
100
AcDbEntity
  8
レイヤー 1
 62
    75
420
  6921064
370
    20
100
AcDbLine
 10
95.17113778438645
 20
-325.9027917623251
 30
0.0
 11
96.47113778438651
 21
-325.9027917623251
 31
0.0
  0
LINE
  5
351
330
1C4
100
AcDbEntity
  8
レイヤー 1
 62
    75
420
  6921064
370
    20
100
AcDbLine
 10
95.17113778438645
 20
-328.6027917623248
 30
0.0
 11
96.47113778438651
 21
-328.6027917623248
 31
0.0
  0
LINE
  5
352
330
1C4
100
AcDbEntity
  8
レイヤー 1
 62
    75
420
  6921064
370
    20
100
AcDbLine
 10
96.47113778438651
 20
-328.6027917623248
 30
0.0
 11
96.47113778438651
 21
-325.9027917623251
 31
0.0
  0
SPLINE
  5
353
330
1C4
100
AcDbEntity
  8
レイヤー 1
 62
    75
420
  6921064
370
    20
100
AcDbSpline
210
0.0
220
0.0
230
1.0
 70
     8
 71
     3
 72
     8
 73
     4
 74
     0
 42
0.0000000001
 43
0.0000000001
 40
0.0
 40
0.0
 40
0.0
 40
0.0
 40
1.0
 40
1.0
 40
1.0
 40
1.0
 10
94.97113778438643
 20
-325.7027917623251
 30
0.0
 10
94.97113778438643
 20
-325.8132487122913
 30
0.0
 10
95.06068083442025
 20
-325.9027917623251
 30
0.0
 10
95.17113778438645
 20
-325.9027917623251
 30
0.0
  0
SPLINE
  5
354
330
1C4
100
AcDbEntity
  8
レイヤー 1
 62
    75
420
  6921064
370
    20
100
AcDbSpline
210
0.0
220
0.0
230
1.0
 70
     8
 71
     3
 72
     8
 73
     4
 74
     0
 42
0.0000000001
 43
0.0000000001
 40
0.0
 40
0.0
 40
0.0
 40
0.0
 40
1.0
 40
1.0
 40
1.0
 40
1.0
 10
95.17113778438645
 20
-328.6027917623248
 30
0.0
 10
95.06068083442025
 20
-328.6027917623248
 30
0.0
 10
94.97113778438643
 20
-328.6923348123587
 30
0.0
 10
94.97113778438643
 20
-328.8027917623249
 30
0.0
  0
INSERT
  5
356
330
1C4
100
AcDbEntity
  8
レイヤー 1
100
AcDbBlockReference
  2
Block_28
 10
0.0
 20
0.0
 30
0.0
  0
INSERT
  5
366
330
1C4
100
AcDbEntity
  8
レイヤー 1
100
AcDbBlockReference
  2
Block_29
 10
0.0
 20
0.0
 30
0.0
  0
ENDBLK
  5
1C7
330
1C4
100
AcDbEntity
  8
0
100
AcDbBlockEnd
  0
BLOCK
  5
242
330
240
100
AcDbEntity
  8
0
100
AcDbBlockBegin
  2
Block_16
 70
     0
 10
0.0
 20
0.0
 30
0.0
  3
Block_16
  1

  0
LINE
  5
244
330
240
100
AcDbEntity
  8
レイヤー 1
 62
   251
420
  4934474
370
    20
100
AcDbLine
 10
100.9711377843866
 20
-321.902791762325
 30
0.0
 11
135.8994353678065
 21
-321.902791762325
 31
0.0
  0
LINE
  5
245
330
240
100
AcDbEntity
  8
レイヤー 1
 62
   251
420
  4934474
370
    20
100
AcDbLine
 10
100.9711377843866
 20
-254.9027917623245
 30
0.0
 11
135.8994353678065
 21
-254.9027917623245
 31
0.0
  0
LINE
  5
246
330
240
100
AcDbEntity
  8
レイヤー 1
 62
   251
420
  4934474
370
     0
100
AcDbLine
 10
135.0661020344735
 20
-320.9027917623249
 30
0.0
 11
134.8994353678065
 21
-321.902791762325
 31
0.0
  0
LINE
  5
247
330
240
100
AcDbEntity
  8
レイヤー 1
 62
   251
420
  4934474
370
     0
100
AcDbLine
 10
134.7327687011395
 20
-320.9027917623249
 30
0.0
 11
134.8994353678065
 21
-321.902791762325
 31
0.0
  0
LINE
  5
248
330
240
100
AcDbEntity
  8
レイヤー 1
 62
   251
420
  4934474
370
     0
100
AcDbLine
 10
134.8994353678065
 20
-321.902791762325
 30
0.0
 11
134.8994353678065
 21
-320.9027917623249
 31
0.0
  0
LINE
  5
249
330
240
100
AcDbEntity
  8
レイヤー 1
 62
   251
420
  4934474
370
     0
100
AcDbLine
 10
134.6994353678062
 20
-256.1027917623245
 30
0.0
 11
134.8994353678065
 21
-254.9027917623245
 31
0.0
  0
LINE
  5
24A
330
240
100
AcDbEntity
  8
レイヤー 1
 62
   251
420
  4934474
370
     0
100
AcDbLine
 10
135.0994353678068
 20
-256.1027917623245
 30
0.0
 11
134.8994353678065
 21
-254.9027917623245
 31
0.0
  0
LINE
  5
24B
330
240
100
AcDbEntity
  8
レイヤー 1
 62
   251
420
  4934474
370
     0
100
AcDbLine
 10
134.8994353678065
 20
-254.9027917623245
 30
0.0
 11
134.8994353678065
 21
-256.1027917623245
 31
0.0
  0
LINE
  5
24C
330
240
100
AcDbEntity
  8
レイヤー 1
 62
   251
420
  4934474
370
     0
100
AcDbLine
 10
135.0661020344735
 20
-320.9027917623249
 30
0.0
 11
134.8994353678065
 21
-321.902791762325
 31
0.0
  0
LINE
  5
24D
330
240
100
AcDbEntity
  8
レイヤー 1
 62
   251
420
  4934474
370
     0
100
AcDbLine
 10
134.7327687011395
 20
-320.9027917623249
 30
0.0
 11
134.8994353678065
 21
-321.902791762325
 31
0.0
  0
LINE
  5
24E
330
240
100
AcDbEntity
  8
レイヤー 1
 62
   251
420
  4934474
370
     0
100
AcDbLine
 10
134.8994353678065
 20
-321.902791762325
 30
0.0
 11
134.8994353678065
 21
-320.9027917623249
 31
0.0
  0
LINE
  5
24F
330
240
100
AcDbEntity
  8
レイヤー 1
 62
   251
420
  4934474
370
     0
100
AcDbLine
 10
134.6994353678062
 20
-256.1027917623245
 30
0.0
 11
134.8994353678065
 21
-254.9027917623245
 31
0.0
  0
LINE
  5
250
330
240
100
AcDbEntity
  8
レイヤー 1
 62
   251
420
  4934474
370
     0
100
AcDbLine
 10
135.0994353678068
 20
-256.1027917623245
 30
0.0
 11
134.8994353678065
 21
-254.9027917623245
 31
0.0
  0
LINE
  5
251
330
240
100
AcDbEntity
  8
レイヤー 1
 62
   251
420
  4934474
370
     0
100
AcDbLine
 10
134.8994353678065
 20
-254.9027917623245
 30
0.0
 11
134.8994353678065
 21
-256.1027917623245
 31
0.0
  0
LINE
  5
252
330
240
100
AcDbEntity
  8
レイヤー 1
 62
   251
420
  4934474
370
    20
100
AcDbLine
 10
134.8994353678065
 20
-321.902791762325
 30
0.0
 11
134.8994353678065
 21
-254.9027917623245
 31
0.0
  0
MTEXT
  5
253
330
240
100
AcDbEntity
  8
レイヤー 1
100
AcDbMText
 10
133.2496830925014
 20
-294.8168022266431
 30
0.0
 40
0.2
 41
0.0
 46
0.0
 71
     7
 72
     1
  1
\C251;\c4868939;\FMS Gothic|b0|i0|c128;\H4.000000;\W1.155000;φ67
 11
0.0000000000000001
 21
1.0
 31
0.0
 73
     1
 44
1.0
  0
ENDBLK
  5
243
330
240
100
AcDbEntity
  8
0
100
AcDbBlockEnd
  0
BLOCK
  5
256
330
254
100
AcDbEntity
  8
0
100
AcDbBlockBegin
  2
Block_17
 70
     0
 10
0.0
 20
0.0
 30
0.0
  3
Block_17
  1

  0
LINE
  5
258
330
254
100
AcDbEntity
  8
レイヤー 1
 62
   251
420
  4934474
370
    20
100
AcDbLine
 10
93.9711377843864
 20
-335.9027917623248
 30
0.0
 11
53.41966778092154
 21
-335.9027917623248
 31
0.0
  0
LINE
  5
259
330
254
100
AcDbEntity
  8
レイヤー 1
 62
   251
420
  4934474
370
    20
100
AcDbLine
 10
93.9711377843864
 20
-240.9027917623253
 30
0.0
 11
53.41966778092154
 21
-240.9027917623253
 31
0.0
  0
LINE
  5
25A
330
254
100
AcDbEntity
  8
レイヤー 1
 62
   251
420
  4934474
370
     0
100
AcDbLine
 10
54.6196677809219
 20
-334.7027917623247
 30
0.0
 11
54.41966778092158
 21
-335.9027917623248
 31
0.0
  0
LINE
  5
25B
330
254
100
AcDbEntity
  8
レイヤー 1
 62
   251
420
  4934474
370
     0
100
AcDbLine
 10
54.21966778092125
 20
-334.7027917623247
 30
0.0
 11
54.41966778092158
 21
-335.9027917623248
 31
0.0
  0
LINE
  5
25C
330
254
100
AcDbEntity
  8
レイヤー 1
 62
   251
420
  4934474
370
     0
100
AcDbLine
 10
54.41966778092158
 20
-335.9027917623248
 30
0.0
 11
54.41966778092158
 21
-334.7027917623247
 31
0.0
  0
LINE
  5
25D
330
254
100
AcDbEntity
  8
レイヤー 1
 62
   251
420
  4934474
370
     0
100
AcDbLine
 10
54.21966778092125
 20
-242.1027917623247
 30
0.0
 11
54.41966778092158
 21
-240.9027917623253
 31
0.0
  0
LINE
  5
25E
330
254
100
AcDbEntity
  8
レイヤー 1
 62
   251
420
  4934474
370
     0
100
AcDbLine
 10
54.6196677809219
 20
-242.1027917623247
 30
0.0
 11
54.41966778092158
 21
-240.9027917623253
 31
0.0
  0
LINE
  5
25F
330
254
100
AcDbEntity
  8
レイヤー 1
 62
   251
420
  4934474
370
     0
100
AcDbLine
 10
54.41966778092158
 20
-240.9027917623253
 30
0.0
 11
54.41966778092158
 21
-242.1027917623247
 31
0.0
  0
LINE
  5
260
330
254
100
AcDbEntity
  8
レイヤー 1
 62
   251
420
  4934474
370
     0
100
AcDbLine
 10
54.6196677809219
 20
-334.7027917623247
 30
0.0
 11
54.41966778092158
 21
-335.9027917623248
 31
0.0
  0
LINE
  5
261
330
254
100
AcDbEntity
  8
レイヤー 1
 62
   251
420
  4934474
370
     0
100
AcDbLine
 10
54.21966778092125
 20
-334.7027917623247
 30
0.0
 11
54.41966778092158
 21
-335.9027917623248
 31
0.0
  0
LINE
  5
262
330
254
100
AcDbEntity
  8
レイヤー 1
 62
   251
420
  4934474
370
     0
100
AcDbLine
 10
54.41966778092158
 20
-335.9027917623248
 30
0.0
 11
54.41966778092158
 21
-334.7027917623247
 31
0.0
  0
LINE
  5
263
330
254
100
AcDbEntity
  8
レイヤー 1
 62
   251
420
  4934474
370
     0
100
AcDbLine
 10
54.21966778092125
 20
-242.1027917623247
 30
0.0
 11
54.41966778092158
 21
-240.9027917623253
 31
0.0
  0
LINE
  5
264
330
254
100
AcDbEntity
  8
レイヤー 1
 62
   251
420
  4934474
370
     0
100
AcDbLine
 10
54.6196677809219
 20
-242.1027917623247
 30
0.0
 11
54.41966778092158
 21
-240.9027917623253
 31
0.0
  0
LINE
  5
265
330
254
100
AcDbEntity
  8
レイヤー 1
 62
   251
420
  4934474
370
     0
100
AcDbLine
 10
54.41966778092158
 20
-240.9027917623253
 30
0.0
 11
54.41966778092158
 21
-242.1027917623247
 31
0.0
  0
LINE
  5
266
330
254
100
AcDbEntity
  8
レイヤー 1
 62
   251
420
  4934474
370
    20
100
AcDbLine
 10
54.41966778092158
 20
-335.9027917623248
 30
0.0
 11
54.41966778092158
 21
-240.9027917623253
 31
0.0
  0
MTEXT
  5
267
330
254
100
AcDbEntity
  8
レイヤー 1
100
AcDbMText
 10
52.76990558576586
 20
-294.8402288759427
 30
0.0
 40
0.2
 41
0.0
 46
0.0
 71
     7
 72
     1
  1
\C251;\c4868939;\FMS Gothic|b0|i0|c128;\H4.000000;\W1.155000;φ95
 11
0.0000000000000001
 21
1.0
 31
0.0
 73
     1
 44
1.0
  0
ENDBLK
  5
257
330
254
100
AcDbEntity
  8
0
100
AcDbBlockEnd
  0
BLOCK
  5
26A
330
268
100
AcDbEntity
  8
0
100
AcDbBlockBegin
  2
Block_18
 70
     0
 10
0.0
 20
0.0
 30
0.0
  3
Block_18
  1

  0
LINE
  5
26C
330
268
100
AcDbEntity
  8
レイヤー 1
 62
   251
420
  4934474
370
     0
100
AcDbLine
 10
226.0495156914816
 20
-276.2991985756884
 30
0.0
 11
224.9194162690133
 21
-276.7496153774832
 31
0.0
  0
LINE
  5
26D
330
268
100
AcDbEntity
  8
レイヤー 1
 62
   251
420
  4934474
370
     0
100
AcDbLine
 10
225.8423481113057
 20
-275.9570266982281
 30
0.0
 11
224.9194162690133
 21
-276.7496153774832
 31
0.0
  0
LINE
  5
26E
330
268
100
AcDbEntity
  8
レイヤー 1
 62
   251
420
  4934474
370
     0
100
AcDbLine
 10
224.9194162690133
 20
-276.7496153774832
 30
0.0
 11
225.9459319013936
 21
-276.128112636958
 31
0.0
  0
LINE
  5
26F
330
268
100
AcDbEntity
  8
レイヤー 1
 62
   251
420
  4934474
370
    20
100
AcDbLine
 10
224.9194162690133
 20
-276.7496153774832
 30
0.0
 11
259.1637604501541
 21
-256.016415526725
 31
0.0
  0
MTEXT
  5
270
330
268
100
AcDbEntity
  8
レイヤー 1
100
AcDbMText
 10
251.2432294195949
 20
-259.6429428906826
 30
0.0
 40
0.2
 41
0.0
 46
0.0
 71
     7
 72
     1
  1
\C251;\c4868939;\FMS Gothic|b0|i0|c128;\H4.000000;\W1.155000;∅45
 11
0.8554297004490686
 21
0.5179189392073015
 31
0.0
 73
     1
 44
1.0
  0
ENDBLK
  5
26B
330
268
100
AcDbEntity
  8
0
100
AcDbBlockEnd
  0
BLOCK
  5
275
330
273
100
AcDbEntity
  8
0
100
AcDbBlockBegin
  2
Block_19
 70
     0
 10
0.0
 20
0.0
 30
0.0
  3
Block_19
  1

  0
LINE
  5
277
330
273
100
AcDbEntity
  8
レイヤー 1
 62
   251
420
  4934474
370
    20
100
AcDbLine
 10
94.97113778438643
 20
-240.1027917623252
 30
0.0
 11
94.97113778438643
 21
-228.935545437381
 31
0.0
  0
LINE
  5
278
330
273
100
AcDbEntity
  8
レイヤー 1
 62
   251
420
  4934474
370
    20
100
AcDbLine
 10
99.97113778438661
 20
-253.9027917623251
 30
0.0
 11
99.97113778438661
 21
-228.935545437381
 31
0.0
  0
LINE
  5
279
330
273
100
AcDbEntity
  8
レイヤー 1
 62
   251
420
  4934474
370
     0
100
AcDbLine
 10
96.1711377843865
 20
-230.1355454373817
 30
0.0
 11
94.97113778438643
 21
-229.9355454373811
 31
0.0
  0
LINE
  5
27A
330
273
100
AcDbEntity
  8
レイヤー 1
 62
   251
420
  4934474
370
     0
100
AcDbLine
 10
96.1711377843865
 20
-229.7355454373804
 30
0.0
 11
94.97113778438643
 21
-229.9355454373811
 31
0.0
  0
LINE
  5
27B
330
273
100
AcDbEntity
  8
レイヤー 1
 62
   251
420
  4934474
370
     0
100
AcDbLine
 10
94.97113778438643
 20
-229.9355454373811
 30
0.0
 11
96.1711377843865
 21
-229.9355454373811
 31
0.0
  0
LINE
  5
27C
330
273
100
AcDbEntity
  8
レイヤー 1
 62
   251
420
  4934474
370
     0
100
AcDbLine
 10
98.77113778438657
 20
-229.7355454373804
 30
0.0
 11
99.97113778438661
 21
-229.9355454373811
 31
0.0
  0
LINE
  5
27D
330
273
100
AcDbEntity
  8
レイヤー 1
 62
   251
420
  4934474
370
     0
100
AcDbLine
 10
98.77113778438657
 20
-230.1355454373817
 30
0.0
 11
99.97113778438661
 21
-229.9355454373811
 31
0.0
  0
LINE
  5
27E
330
273
100
AcDbEntity
  8
レイヤー 1
 62
   251
420
  4934474
370
     0
100
AcDbLine
 10
99.97113778438661
 20
-229.9355454373811
 30
0.0
 11
98.77113778438657
 21
-229.9355454373811
 31
0.0
  0
LINE
  5
27F
330
273
100
AcDbEntity
  8
レイヤー 1
 62
   251
420
  4934474
370
     0
100
AcDbLine
 10
96.1711377843865
 20
-230.1355454373817
 30
0.0
 11
94.97113778438643
 21
-229.9355454373811
 31
0.0
  0
LINE
  5
280
330
273
100
AcDbEntity
  8
レイヤー 1
 62
   251
420
  4934474
370
     0
100
AcDbLine
 10
96.1711377843865
 20
-229.7355454373804
 30
0.0
 11
94.97113778438643
 21
-229.9355454373811
 31
0.0
  0
LINE
  5
281
330
273
100
AcDbEntity
  8
レイヤー 1
 62
   251
420
  4934474
370
     0
100
AcDbLine
 10
94.97113778438643
 20
-229.9355454373811
 30
0.0
 11
96.1711377843865
 21
-229.9355454373811
 31
0.0
  0
LINE
  5
282
330
273
100
AcDbEntity
  8
レイヤー 1
 62
   251
420
  4934474
370
     0
100
AcDbLine
 10
98.77113778438657
 20
-229.7355454373804
 30
0.0
 11
99.97113778438661
 21
-229.9355454373811
 31
0.0
  0
LINE
  5
283
330
273
100
AcDbEntity
  8
レイヤー 1
 62
   251
420
  4934474
370
     0
100
AcDbLine
 10
98.77113778438657
 20
-230.1355454373817
 30
0.0
 11
99.97113778438661
 21
-229.9355454373811
 31
0.0
  0
LINE
  5
284
330
273
100
AcDbEntity
  8
レイヤー 1
 62
   251
420
  4934474
370
     0
100
AcDbLine
 10
99.97113778438661
 20
-229.9355454373811
 30
0.0
 11
98.77113778438657
 21
-229.9355454373811
 31
0.0
  0
LINE
  5
285
330
273
100
AcDbEntity
  8
レイヤー 1
 62
   251
420
  4934474
370
    20
100
AcDbLine
 10
94.97113778438643
 20
-229.9355454373811
 30
0.0
 11
99.97113778438661
 21
-229.9355454373811
 31
0.0
  0
MTEXT
  5
286
330
273
100
AcDbEntity
  8
レイヤー 1
100
AcDbMText
 10
96.01713661336551
 20
-228.9355522431133
 30
0.0
 40
0.2
 41
0.0
 46
0.0
 71
     7
 72
     1
  1
\C251;\c4868939;\FMS Gothic|b0|i0|c128;\H4.000000;\W1.155000;5
 73
     1
 44
1.0
  0
ENDBLK
  5
276
330
273
100
AcDbEntity
  8
0
100
AcDbBlockEnd
  0
BLOCK
  5
289
330
287
100
AcDbEntity
  8
0
100
AcDbBlockBegin
  2
Block_20
 70
     0
 10
0.0
 20
0.0
 30
0.0
  3
Block_20
  1

  0
LINE
  5
28B
330
287
100
AcDbEntity
  8
レイヤー 1
 62
   251
420
  4934474
370
    20
100
AcDbLine
 10
94.97113778438643
 20
-336.7027917623248
 30
0.0
 11
94.97113778438643
 21
-350.0216123612851
 31
0.0
  0
LINE
  5
28C
330
287
100
AcDbEntity
  8
レイヤー 1
 62
   251
420
  4934474
370
    20
100
AcDbLine
 10
97.47113778438652
 20
-336.9027917623248
 30
0.0
 11
97.47113778438652
 21
-350.0216123612851
 31
0.0
  0
LINE
  5
28D
330
287
100
AcDbEntity
  8
レイヤー 1
 62
   251
420
  4934474
370
    20
100
AcDbLine
 10
94.97113778438643
 20
-349.0216123612851
 30
0.0
 11
97.47113778438652
 21
-349.0216123612851
 31
0.0
  0
LINE
  5
28E
330
287
100
AcDbEntity
  8
レイヤー 1
 62
   251
420
  4934474
370
     0
100
AcDbLine
 10
93.77113778438639
 20
-348.8216123612844
 30
0.0
 11
94.97113778438643
 21
-349.0216123612851
 31
0.0
  0
LINE
  5
28F
330
287
100
AcDbEntity
  8
レイヤー 1
 62
   251
420
  4934474
370
     0
100
AcDbLine
 10
93.77113778438639
 20
-349.2216123612851
 30
0.0
 11
94.97113778438643
 21
-349.0216123612851
 31
0.0
  0
LINE
  5
290
330
287
100
AcDbEntity
  8
レイヤー 1
 62
   251
420
  4934474
370
     0
100
AcDbLine
 10
94.97113778438643
 20
-349.0216123612851
 30
0.0
 11
93.77113778438639
 21
-349.0216123612851
 31
0.0
  0
LINE
  5
291
330
287
100
AcDbEntity
  8
レイヤー 1
 62
   251
420
  4934474
370
    20
100
AcDbLine
 10
94.97113778438643
 20
-349.0216123612851
 30
0.0
 11
92.08897983419468
 21
-349.0216123612851
 31
0.0
  0
LINE
  5
292
330
287
100
AcDbEntity
  8
レイヤー 1
 62
   251
420
  4934474
370
     0
100
AcDbLine
 10
98.67113778438657
 20
-349.2216123612851
 30
0.0
 11
97.47113778438652
 21
-349.0216123612851
 31
0.0
  0
LINE
  5
293
330
287
100
AcDbEntity
  8
レイヤー 1
 62
   251
420
  4934474
370
     0
100
AcDbLine
 10
98.67113778438657
 20
-348.8216123612844
 30
0.0
 11
97.47113778438652
 21
-349.0216123612851
 31
0.0
  0
LINE
  5
294
330
287
100
AcDbEntity
  8
レイヤー 1
 62
   251
420
  4934474
370
     0
100
AcDbLine
 10
97.47113778438652
 20
-349.0216123612851
 30
0.0
 11
98.67113778438657
 21
-349.0216123612851
 31
0.0
  0
LINE
  5
295
330
287
100
AcDbEntity
  8
レイヤー 1
 62
   251
420
  4934474
370
    20
100
AcDbLine
 10
97.47113778438652
 20
-349.0216123612851
 30
0.0
 11
108.4944709192135
 21
-349.0216123612851
 31
0.0
  0
MTEXT
  5
296
330
287
100
AcDbEntity
  8
レイヤー 1
100
AcDbMText
 10
99.84077273098057
 20
-348.0216080537281
 30
0.0
 40
0.2
 41
0.0
 46
0.0
 71
     7
 72
     1
  1
\C251;\c4868939;\FMS Gothic|b0|i0|c128;\H4.000000;\W1.155000;2.5
 73
     1
 44
1.0
  0
ENDBLK
  5
28A
330
287
100
AcDbEntity
  8
0
100
AcDbBlockEnd
  0
BLOCK
  5
2A0
330
29E
100
AcDbEntity
  8
0
100
AcDbBlockBegin
  2
Block_21
 70
     0
 10
0.0
 20
0.0
 30
0.0
  3
Block_21
  1

  0
LINE
  5
2A2
330
29E
100
AcDbEntity
  8
レイヤー 1
 62
   251
420
  4934474
370
    20
100
AcDbLine
 10
100.8211377843865
 20
-316.0027917623251
 30
0.0
 11
126.4719044326515
 21
-316.0027917623251
 31
0.0
  0
LINE
  5
2A3
330
29E
100
AcDbEntity
  8
レイヤー 1
 62
   251
420
  4934474
370
    20
100
AcDbLine
 10
100.8211377843865
 20
-260.8027917623251
 30
0.0
 11
126.4719044326515
 21
-260.8027917623251
 31
0.0
  0
LINE
  5
2A4
330
29E
100
AcDbEntity
  8
レイヤー 1
 62
   251
420
  4934474
370
     0
100
AcDbLine
 10
125.6385710993184
 20
-315.002791762325
 30
0.0
 11
125.4719044326514
 21
-316.0027917623251
 31
0.0
  0
LINE
  5
2A5
330
29E
100
AcDbEntity
  8
レイヤー 1
 62
   251
420
  4934474
370
     0
100
AcDbLine
 10
125.3052377659844
 20
-315.002791762325
 30
0.0
 11
125.4719044326514
 21
-316.0027917623251
 31
0.0
  0
LINE
  5
2A6
330
29E
100
AcDbEntity
  8
レイヤー 1
 62
   251
420
  4934474
370
     0
100
AcDbLine
 10
125.4719044326514
 20
-316.0027917623251
 30
0.0
 11
125.4719044326514
 21
-315.002791762325
 31
0.0
  0
LINE
  5
2A7
330
29E
100
AcDbEntity
  8
レイヤー 1
 62
   251
420
  4934474
370
     0
100
AcDbLine
 10
125.2719044326511
 20
-262.0027917623244
 30
0.0
 11
125.4719044326514
 21
-260.8027917623251
 31
0.0
  0
LINE
  5
2A8
330
29E
100
AcDbEntity
  8
レイヤー 1
 62
   251
420
  4934474
370
     0
100
AcDbLine
 10
125.6719044326521
 20
-262.0027917623244
 30
0.0
 11
125.4719044326514
 21
-260.8027917623251
 31
0.0
  0
LINE
  5
2A9
330
29E
100
AcDbEntity
  8
レイヤー 1
 62
   251
420
  4934474
370
     0
100
AcDbLine
 10
125.4719044326514
 20
-260.8027917623251
 30
0.0
 11
125.4719044326514
 21
-262.0027917623244
 31
0.0
  0
LINE
  5
2AA
330
29E
100
AcDbEntity
  8
レイヤー 1
 62
   251
420
  4934474
370
     0
100
AcDbLine
 10
125.6385710993184
 20
-315.002791762325
 30
0.0
 11
125.4719044326514
 21
-316.0027917623251
 31
0.0
  0
LINE
  5
2AB
330
29E
100
AcDbEntity
  8
レイヤー 1
 62
   251
420
  4934474
370
     0
100
AcDbLine
 10
125.3052377659844
 20
-315.002791762325
 30
0.0
 11
125.4719044326514
 21
-316.0027917623251
 31
0.0
  0
LINE
  5
2AC
330
29E
100
AcDbEntity
  8
レイヤー 1
 62
   251
420
  4934474
370
     0
100
AcDbLine
 10
125.4719044326514
 20
-316.0027917623251
 30
0.0
 11
125.4719044326514
 21
-315.002791762325
 31
0.0
  0
LINE
  5
2AD
330
29E
100
AcDbEntity
  8
レイヤー 1
 62
   251
420
  4934474
370
     0
100
AcDbLine
 10
125.2719044326511
 20
-262.0027917623244
 30
0.0
 11
125.4719044326514
 21
-260.8027917623251
 31
0.0
  0
LINE
  5
2AE
330
29E
100
AcDbEntity
  8
レイヤー 1
 62
   251
420
  4934474
370
     0
100
AcDbLine
 10
125.6719044326521
 20
-262.0027917623244
 30
0.0
 11
125.4719044326514
 21
-260.8027917623251
 31
0.0
  0
LINE
  5
2AF
330
29E
100
AcDbEntity
  8
レイヤー 1
 62
   251
420
  4934474
370
     0
100
AcDbLine
 10
125.4719044326514
 20
-260.8027917623251
 30
0.0
 11
125.4719044326514
 21
-262.0027917623244
 31
0.0
  0
LINE
  5
2B0
330
29E
100
AcDbEntity
  8
レイヤー 1
 62
   251
420
  4934474
370
    20
100
AcDbLine
 10
125.4719044326514
 20
-316.0027917623251
 30
0.0
 11
125.4719044326514
 21
-260.8027917623251
 31
0.0
  0
MTEXT
  5
2B1
330
29E
100
AcDbEntity
  8
レイヤー 1
100
AcDbMText
 10
123.1859347565299
 20
-301.6470485356994
 30
0.0
 40
0.2
 41
0.0
 46
0.0
 71
     7
 72
     1
  1
\C251;\c4868939;\FMS Gothic|b0|i0|c128;\H4.000000;\W1.155000;φ55.2
 11
0.0000000000000001
 21
1.0
 31
0.0
 73
     1
 44
1.0
  0
ENDBLK
  5
2A1
330
29E
100
AcDbEntity
  8
0
100
AcDbBlockEnd
  0
BLOCK
  5
2B5
330
2B3
100
AcDbEntity
  8
0
100
AcDbBlockBegin
  2
Block_22
 70
     0
 10
0.0
 20
0.0
 30
0.0
  3
Block_22
  1

  0
LWPOLYLINE
  5
2B7
330
2B3
100
AcDbEntity
  8
レイヤー 1
100
AcDbPolyline
 90
        4
 70
     1
 43
0.0
 10
100.7376558378484
 20
-320.297487519549
 10
99.97113778438661
 20
-319.352791762325
 10
101.0026102427069
 20
-319.997822434252
 10
101.0026102427069
 20
-319.997822434252
  0
HATCH
  5
2B8
330
2B3
100
AcDbEntity
  8
レイヤー 1
 62
   251
420
  4934474
440
 33554687
100
AcDbHatch
 10
0.0
 20
0.0
 30
0.0
210
0.0
220
0.0
230
1.0
  2
SOLID
 70
     1
 71
     1
 91
        1
 92
        1
 93
        3
 72
     1
 10
100.7376558378484
 20
-320.297487519549
 11
99.97113778438661
 21
-319.352791762325
 72
     1
 10
99.97113778438661
 20
-319.352791762325
 11
101.0026102427069
 21
-319.997822434252
 72
     1
 10
101.0026102427069
 20
-319.997822434252
 11
100.7376558378484
 21
-320.297487519549
 97
        1
330
2B7
 75
     2
 76
     1
 98
        1
 10
0.0
 20
0.0
450
        0
451
        0
460
0.0
461
0.0
452
        0
462
0.0
453
        0
470

  0
ENDBLK
  5
2B6
330
2B3
100
AcDbEntity
  8
0
100
AcDbBlockEnd
  0
BLOCK
  5
2BB
330
2B9
100
AcDbEntity
  8
0
100
AcDbBlockBegin
  2
Block_23
 70
     0
 10
0.0
 20
0.0
 30
0.0
  3
Block_23
  1

  0
LWPOLYLINE
  5
2BD
330
2B9
100
AcDbEntity
  8
レイヤー 1
100
AcDbPolyline
 90
        4
 70
     1
 43
0.0
 10
99.24551067610092
 20
-316.7312129783068
 10
98.27113778438656
 20
-316.0027917623251
 10
99.42908658984007
 20
-316.3758260287782
 10
99.42908658984007
 20
-316.3758260287782
  0
HATCH
  5
2BE
330
2B9
100
AcDbEntity
  8
レイヤー 1
 62
   251
420
  4934474
440
 33554687
100
AcDbHatch
 10
0.0
 20
0.0
 30
0.0
210
0.0
220
0.0
230
1.0
  2
SOLID
 70
     1
 71
     1
 91
        1
 92
        1
 93
        3
 72
     1
 10
99.24551067610092
 20
-316.7312129783068
 11
98.27113778438656
 21
-316.0027917623251
 72
     1
 10
98.27113778438656
 20
-316.0027917623251
 11
99.42908658984007
 21
-316.3758260287782
 72
     1
 10
99.42908658984007
 20
-316.3758260287782
 11
99.24551067610092
 21
-316.7312129783068
 97
        1
330
2BD
 75
     2
 76
     1
 98
        1
 10
0.0
 20
0.0
450
        0
451
        0
460
0.0
461
0.0
452
        0
462
0.0
453
        0
470

  0
ENDBLK
  5
2BC
330
2B9
100
AcDbEntity
  8
0
100
AcDbBlockEnd
  0
BLOCK
  5
2C7
330
2C5
100
AcDbEntity
  8
0
100
AcDbBlockBegin
  2
Block_24
 70
     0
 10
0.0
 20
0.0
 30
0.0
  3
Block_24
  1

  0
LWPOLYLINE
  5
2C9
330
2C5
100
AcDbEntity
  8
レイヤー 1
100
AcDbPolyline
 90
        4
 70
     1
 43
0.0
 10
204.4722481618919
 20
-228.0487076784612
 10
205.6722481618919
 20
-228.2487076784606
 10
204.4722481618919
 20
-228.4487076784613
 10
204.4722481618919
 20
-228.4487076784613
  0
HATCH
  5
2CA
330
2C5
100
AcDbEntity
  8
レイヤー 1
 62
   251
420
  4934474
440
 33554687
100
AcDbHatch
 10
0.0
 20
0.0
 30
0.0
210
0.0
220
0.0
230
1.0
  2
SOLID
 70
     1
 71
     1
 91
        1
 92
        1
 93
        3
 72
     1
 10
204.4722481618919
 20
-228.0487076784612
 11
205.6722481618919
 21
-228.2487076784606
 72
     1
 10
205.6722481618919
 20
-228.2487076784606
 11
204.4722481618919
 21
-228.4487076784613
 72
     1
 10
204.4722481618919
 20
-228.4487076784613
 11
204.4722481618919
 21
-228.0487076784612
 97
        1
330
2C9
 75
     2
 76
     1
 98
        1
 10
0.0
 20
0.0
450
        0
451
        0
460
0.0
461
0.0
452
        0
462
0.0
453
        0
470

  0
LWPOLYLINE
  5
2CB
330
2C5
100
AcDbEntity
  8
レイヤー 1
 62
   251
420
  4934474
370
    20
100
AcDbPolyline
 90
        3
 70
     0
 43
0.0
 10
204.4722481618919
 20
-228.2487076784606
 10
195.9222481618924
 20
-228.2487076784606
 10
192.1080350215836
 20
-228.2487076784606
  0
ENDBLK
  5
2C8
330
2C5
100
AcDbEntity
  8
0
100
AcDbBlockEnd
  0
BLOCK
  5
2CF
330
2CD
100
AcDbEntity
  8
0
100
AcDbBlockBegin
  2
Block_25
 70
     0
 10
0.0
 20
0.0
 30
0.0
  3
Block_25
  1

  0
LWPOLYLINE
  5
2D1
330
2CD
100
AcDbEntity
  8
レイヤー 1
100
AcDbPolyline
 90
        4
 70
     1
 43
0.0
 10
204.4722481618919
 20
-347.4063955397327
 10
205.6722481618919
 20
-347.6063955397327
 10
204.4722481618919
 20
-347.8063955397328
 10
204.4722481618919
 20
-347.8063955397328
  0
HATCH
  5
2D2
330
2CD
100
AcDbEntity
  8
レイヤー 1
 62
   251
420
  4934474
440
 33554687
100
AcDbHatch
 10
0.0
 20
0.0
 30
0.0
210
0.0
220
0.0
230
1.0
  2
SOLID
 70
     1
 71
     1
 91
        1
 92
        1
 93
        3
 72
     1
 10
204.4722481618919
 20
-347.4063955397327
 11
205.6722481618919
 21
-347.6063955397327
 72
     1
 10
205.6722481618919
 20
-347.6063955397327
 11
204.4722481618919
 21
-347.8063955397328
 72
     1
 10
204.4722481618919
 20
-347.8063955397328
 11
204.4722481618919
 21
-347.4063955397327
 97
        1
330
2D1
 75
     2
 76
     1
 98
        1
 10
0.0
 20
0.0
450
        0
451
        0
460
0.0
461
0.0
452
        0
462
0.0
453
        0
470

  0
LWPOLYLINE
  5
2D3
330
2CD
100
AcDbEntity
  8
レイヤー 1
 62
   251
420
  4934474
370
    20
100
AcDbPolyline
 90
        3
 70
     0
 43
0.0
 10
204.4722481618919
 20
-347.6063955397327
 10
195.9222481618924
 20
-347.6063955397327
 10
192.1080350215836
 20
-347.6063955397327
  0
ENDBLK
  5
2D0
330
2CD
100
AcDbEntity
  8
0
100
AcDbBlockEnd
  0
BLOCK
  5
2DE
330
2DC
100
AcDbEntity
  8
0
100
AcDbBlockBegin
  2
Block_26
 70
     0
 10
0.0
 20
0.0
 30
0.0
  3
Block_26
  1

  0
LINE
  5
2E0
330
2DC
100
AcDbEntity
  8
レイヤー 1
 62
   251
420
  4934474
370
    20
100
AcDbLine
 10
98.27113778438656
 20
-256.6027917623249
 30
0.0
 11
98.27113778438656
 21
-234.5015641559414
 31
0.0
  0
LINE
  5
2E1
330
2DC
100
AcDbEntity
  8
レイヤー 1
 62
   251
420
  4934474
370
    20
100
AcDbLine
 10
99.97113778438661
 20
-253.9027917623251
 30
0.0
 11
99.97113778438661
 21
-234.5015641559414
 31
0.0
  0
LINE
  5
2E2
330
2DC
100
AcDbEntity
  8
レイヤー 1
 62
   251
420
  4934474
370
    20
100
AcDbLine
 10
98.27113778438656
 20
-235.5015641559421
 30
0.0
 11
99.97113778438661
 21
-235.5015641559421
 31
0.0
  0
LINE
  5
2E3
330
2DC
100
AcDbEntity
  8
レイヤー 1
 62
   251
420
  4934474
370
     0
100
AcDbLine
 10
97.07113778438651
 20
-235.3015641559415
 30
0.0
 11
98.27113778438656
 21
-235.5015641559421
 31
0.0
  0
LINE
  5
2E4
330
2DC
100
AcDbEntity
  8
レイヤー 1
 62
   251
420
  4934474
370
     0
100
AcDbLine
 10
97.07113778438651
 20
-235.7015641559421
 30
0.0
 11
98.27113778438656
 21
-235.5015641559421
 31
0.0
  0
LINE
  5
2E5
330
2DC
100
AcDbEntity
  8
レイヤー 1
 62
   251
420
  4934474
370
     0
100
AcDbLine
 10
98.27113778438656
 20
-235.5015641559421
 30
0.0
 11
97.07113778438651
 21
-235.5015641559421
 31
0.0
  0
LINE
  5
2E6
330
2DC
100
AcDbEntity
  8
レイヤー 1
 62
   251
420
  4934474
370
    20
100
AcDbLine
 10
98.27113778438656
 20
-235.5015641559421
 30
0.0
 11
96.09855066120863
 21
-235.5015641559421
 31
0.0
  0
LINE
  5
2E7
330
2DC
100
AcDbEntity
  8
レイヤー 1
 62
   251
420
  4934474
370
     0
100
AcDbLine
 10
101.1711377843866
 20
-235.7015641559421
 30
0.0
 11
99.97113778438661
 21
-235.5015641559421
 31
0.0
  0
LINE
  5
2E8
330
2DC
100
AcDbEntity
  8
レイヤー 1
 62
   251
420
  4934474
370
     0
100
AcDbLine
 10
101.1711377843866
 20
-235.3015641559415
 30
0.0
 11
99.97113778438661
 21
-235.5015641559421
 31
0.0
  0
LINE
  5
2E9
330
2DC
100
AcDbEntity
  8
レイヤー 1
 62
   251
420
  4934474
370
     0
100
AcDbLine
 10
99.97113778438661
 20
-235.5015641559421
 30
0.0
 11
101.1711377843866
 21
-235.5015641559421
 31
0.0
  0
LINE
  5
2EA
330
2DC
100
AcDbEntity
  8
レイヤー 1
 62
   251
420
  4934474
370
    20
100
AcDbLine
 10
99.97113778438661
 20
-235.5015641559421
 30
0.0
 11
118.4104057967456
 21
-235.5015641559421
 31
0.0
  0
MTEXT
  5
2EB
330
2DC
100
AcDbEntity
  8
レイヤー 1
100
AcDbMText
 10
102.1466074370284
 20
-233.8754961912599
 30
0.0
 40
0.2
 41
0.0
 46
0.0
 71
     7
 72
     1
  1
\C251;\c4868939;\FMS Gothic|b0|i0|c128;\H4.000000;\W1.155000;1.8
 73
     1
 44
1.0
  0
ENDBLK
  5
2DF
330
2DC
100
AcDbEntity
  8
0
100
AcDbBlockEnd
  0
BLOCK
  5
2EE
330
2EC
100
AcDbEntity
  8
0
100
AcDbBlockBegin
  2
Block_27
 70
     0
 10
0.0
 20
0.0
 30
0.0
  3
Block_27
  1

  0
LINE
  5
2F0
330
2EC
100
AcDbEntity
  8
レイヤー 1
 62
   251
420
  4934474
370
    20
100
AcDbLine
 10
100.8211377843865
 20
-260.8027917623251
 30
0.0
 11
111.7690832765354
 21
-260.8027917623251
 31
0.0
  0
LINE
  5
2F1
330
2EC
100
AcDbEntity
  8
レイヤー 1
 62
   251
420
  4934474
370
    20
100
AcDbLine
 10
100.8211377843865
 20
-257.6027917623249
 30
0.0
 11
111.7690832765354
 21
-257.6027917623249
 31
0.0
  0
LINE
  5
2F2
330
2EC
100
AcDbEntity
  8
レイヤー 1
 62
   251
420
  4934474
370
    20
100
AcDbLine
 10
110.7690832765354
 20
-260.8027917623251
 30
0.0
 11
110.7690832765354
 21
-257.6027917623249
 31
0.0
  0
LINE
  5
2F3
330
2EC
100
AcDbEntity
  8
レイヤー 1
 62
   251
420
  4934474
370
     0
100
AcDbLine
 10
110.5357499432017
 20
-262.2027917623251
 30
0.0
 11
110.7690832765354
 21
-260.8027917623251
 31
0.0
  0
LINE
  5
2F4
330
2EC
100
AcDbEntity
  8
レイヤー 1
 62
   251
420
  4934474
370
     0
100
AcDbLine
 10
111.0024166098694
 20
-262.2027917623251
 30
0.0
 11
110.7690832765354
 21
-260.8027917623251
 31
0.0
  0
LINE
  5
2F5
330
2EC
100
AcDbEntity
  8
レイヤー 1
 62
   251
420
  4934474
370
     0
100
AcDbLine
 10
110.7690832765354
 20
-260.8027917623251
 30
0.0
 11
110.7690832765354
 21
-262.2027917623251
 31
0.0
  0
LINE
  5
2F6
330
2EC
100
AcDbEntity
  8
レイヤー 1
 62
   251
420
  4934474
370
    20
100
AcDbLine
 10
110.7690832765354
 20
-260.8027917623251
 30
0.0
 11
110.7690832765354
 21
-264.958935419825
 31
0.0
  0
LINE
  5
2F7
330
2EC
100
AcDbEntity
  8
レイヤー 1
 62
   251
420
  4934474
370
     0
100
AcDbLine
 10
110.969083276536
 20
-256.4027917623249
 30
0.0
 11
110.7690832765354
 21
-257.6027917623249
 31
0.0
  0
LINE
  5
2F8
330
2EC
100
AcDbEntity
  8
レイヤー 1
 62
   251
420
  4934474
370
     0
100
AcDbLine
 10
110.569083276535
 20
-256.4027917623249
 30
0.0
 11
110.7690832765354
 21
-257.6027917623249
 31
0.0
  0
LINE
  5
2F9
330
2EC
100
AcDbEntity
  8
レイヤー 1
 62
   251
420
  4934474
370
     0
100
AcDbLine
 10
110.7690832765354
 20
-257.6027917623249
 30
0.0
 11
110.7690832765354
 21
-256.4027917623249
 31
0.0
  0
LINE
  5
2FA
330
2EC
100
AcDbEntity
  8
レイヤー 1
 62
   251
420
  4934474
370
    20
100
AcDbLine
 10
110.7690832765354
 20
-257.6027917623249
 30
0.0
 11
110.7690832765354
 21
-237.2553231158752
 31
0.0
  0
MTEXT
  5
2FB
330
2EC
100
AcDbEntity
  8
レイヤー 1
100
AcDbMText
 10
109.1430150077077
 20
-253.5190646067591
 30
0.0
 40
0.2
 41
0.0
 46
0.0
 71
     7
 72
     1
  1
\C251;\c4868939;\FMS Gothic|b0|i0|c128;\H4.000000;\W1.155000;3.2
 11
0.0000000000000001
 21
1.0
 31
0.0
 73
     1
 44
1.0
  0
ENDBLK
  5
2EF
330
2EC
100
AcDbEntity
  8
0
100
AcDbBlockEnd
  0
BLOCK
  5
357
330
355
100
AcDbEntity
  8
0
100
AcDbBlockBegin
  2
Block_28
 70
     0
 10
0.0
 20
0.0
 30
0.0
  3
Block_28
  1

  0
LINE
  5
359
330
355
100
AcDbEntity
  8
レイヤー 1
 62
   251
420
  4934474
370
    20
100
AcDbLine
 10
94.17113778438642
 20
-250.902791762325
 30
0.0
 11
89.77403914421168
 21
-250.902791762325
 31
0.0
  0
LINE
  5
35A
330
355
100
AcDbEntity
  8
レイヤー 1
 62
   251
420
  4934474
370
    20
100
AcDbLine
 10
94.17113778438642
 20
-248.2027917623246
 30
0.0
 11
89.77403914421168
 21
-248.2027917623246
 31
0.0
  0
LINE
  5
35B
330
355
100
AcDbEntity
  8
レイヤー 1
 62
   251
420
  4934474
370
    20
100
AcDbLine
 10
90.7740391442114
 20
-250.902791762325
 30
0.0
 11
90.7740391442114
 21
-248.2027917623246
 31
0.0
  0
LINE
  5
35C
330
355
100
AcDbEntity
  8
レイヤー 1
 62
   251
420
  4934474
370
     0
100
AcDbLine
 10
90.57403914421106
 20
-252.1027917623244
 30
0.0
 11
90.7740391442114
 21
-250.902791762325
 31
0.0
  0
LINE
  5
35D
330
355
100
AcDbEntity
  8
レイヤー 1
 62
   251
420
  4934474
370
     0
100
AcDbLine
 10
90.97403914421205
 20
-252.1027917623244
 30
0.0
 11
90.7740391442114
 21
-250.902791762325
 31
0.0
  0
LINE
  5
35E
330
355
100
AcDbEntity
  8
レイヤー 1
 62
   251
420
  4934474
370
     0
100
AcDbLine
 10
90.7740391442114
 20
-250.902791762325
 30
0.0
 11
90.7740391442114
 21
-252.1027917623244
 31
0.0
  0
LINE
  5
35F
330
355
100
AcDbEntity
  8
レイヤー 1
 62
   251
420
  4934474
370
    20
100
AcDbLine
 10
90.7740391442114
 20
-250.902791762325
 30
0.0
 11
90.7740391442114
 21
-275.8750496767997
 31
0.0
  0
LINE
  5
360
330
355
100
AcDbEntity
  8
レイヤー 1
 62
   251
420
  4934474
370
     0
100
AcDbLine
 10
90.97403914421205
 20
-247.0027917623245
 30
0.0
 11
90.7740391442114
 21
-248.2027917623246
 31
0.0
  0
LINE
  5
361
330
355
100
AcDbEntity
  8
レイヤー 1
 62
   251
420
  4934474
370
     0
100
AcDbLine
 10
90.57403914421106
 20
-247.0027917623245
 30
0.0
 11
90.7740391442114
 21
-248.2027917623246
 31
0.0
  0
LINE
  5
362
330
355
100
AcDbEntity
  8
レイヤー 1
 62
   251
420
  4934474
370
     0
100
AcDbLine
 10
90.7740391442114
 20
-248.2027917623246
 30
0.0
 11
90.7740391442114
 21
-247.0027917623245
 31
0.0
  0
LINE
  5
363
330
355
100
AcDbEntity
  8
レイヤー 1
 62
   251
420
  4934474
370
    20
100
AcDbLine
 10
90.7740391442114
 20
-248.2027917623246
 30
0.0
 11
90.7740391442114
 21
-246.5917110498078
 31
0.0
  0
MTEXT
  5
364
330
355
100
AcDbEntity
  8
レイヤー 1
100
AcDbMText
 10
89.10735166229349
 20
-275.8749782296423
 30
0.0
 40
0.2
 41
0.0
 46
0.0
 71
     7
 72
     1
  1
\C251;\c4868939;\FKozGoPr6N-Regular|b0|i0|c128;\H4.000000;\W0.750000;2-2.7
 11
0.0000000000000001
 21
1.0
 31
0.0
 73
     1
 44
1.0
  0
ENDBLK
  5
358
330
355
100
AcDbEntity
  8
0
100
AcDbBlockEnd
  0
BLOCK
  5
367
330
365
100
AcDbEntity
  8
0
100
AcDbBlockBegin
  2
Block_29
 70
     0
 10
0.0
 20
0.0
 30
0.0
  3
Block_29
  1

  0
LINE
  5
369
330
365
100
AcDbEntity
  8
レイヤー 1
 62
   251
420
  4934474
370
    20
100
AcDbLine
 10
96.47113778438651
 20
-329.6027917623249
 30
0.0
 11
96.47113778438651
 21
-344.0968700322097
 31
0.0
  0
LINE
  5
36A
330
365
100
AcDbEntity
  8
レイヤー 1
 62
   251
420
  4934474
370
    20
100
AcDbLine
 10
94.97113778438643
 20
-343.0968700322097
 30
0.0
 11
96.47113778438651
 21
-343.0968700322097
 31
0.0
  0
LINE
  5
36B
330
365
100
AcDbEntity
  8
レイヤー 1
 62
   251
420
  4934474
370
     0
100
AcDbLine
 10
93.77113778438639
 20
-342.8968700322097
 30
0.0
 11
94.97113778438643
 21
-343.0968700322097
 31
0.0
  0
LINE
  5
36C
330
365
100
AcDbEntity
  8
レイヤー 1
 62
   251
420
  4934474
370
     0
100
AcDbLine
 10
93.77113778438639
 20
-343.2968700322103
 30
0.0
 11
94.97113778438643
 21
-343.0968700322097
 31
0.0
  0
LINE
  5
36D
330
365
100
AcDbEntity
  8
レイヤー 1
 62
   251
420
  4934474
370
     0
100
AcDbLine
 10
94.97113778438643
 20
-343.0968700322097
 30
0.0
 11
93.77113778438639
 21
-343.0968700322097
 31
0.0
  0
LINE
  5
36E
330
365
100
AcDbEntity
  8
レイヤー 1
 62
   251
420
  4934474
370
    20
100
AcDbLine
 10
94.97113778438643
 20
-343.0968700322097
 30
0.0
 11
69.28566176274857
 21
-343.0968700322097
 31
0.0
  0
LINE
  5
36F
330
365
100
AcDbEntity
  8
レイヤー 1
 62
   251
420
  4934474
370
     0
100
AcDbLine
 10
97.67113778438654
 20
-343.2968700322103
 30
0.0
 11
96.47113778438651
 21
-343.0968700322097
 31
0.0
  0
LINE
  5
370
330
365
100
AcDbEntity
  8
レイヤー 1
 62
   251
420
  4934474
370
     0
100
AcDbLine
 10
97.67113778438654
 20
-342.8968700322097
 30
0.0
 11
96.47113778438651
 21
-343.0968700322097
 31
0.0
  0
LINE
  5
371
330
365
100
AcDbEntity
  8
レイヤー 1
 62
   251
420
  4934474
370
     0
100
AcDbLine
 10
96.47113778438651
 20
-343.0968700322097
 30
0.0
 11
97.67113778438654
 21
-343.0968700322097
 31
0.0
  0
LINE
  5
372
330
365
100
AcDbEntity
  8
レイヤー 1
 62
   251
420
  4934474
370
    20
100
AcDbLine
 10
96.47113778438651
 20
-343.0968700322097
 30
0.0
 11
100.2394189881846
 21
-343.0968700322097
 31
0.0
  0
MTEXT
  5
373
330
365
100
AcDbEntity
  8
レイヤー 1
100
AcDbMText
 10
69.2856610442834
 20
-341.4302037551101
 30
0.0
 40
0.2
 41
0.0
 46
0.0
 71
     7
 72
     1
  1
\C251;\c4868939;\FKozGoPr6N-Regular|b0|i0|c128;\H4.000000;\W0.750000;1.5
 73
     1
 44
1.0
  0
ENDBLK
  5
368
330
365
100
AcDbEntity
  8
0
100
AcDbBlockEnd
  0
ENDSEC
  0
SECTION
  2
ENTITIES
  0
INSERT
  5
7A
330
70
100
AcDbEntity
  8
レイヤー 1
100
AcDbBlockReference
  2
Block_0
 10
0.0
 20
0.0
 30
0.0
  0
INSERT
  5
1C5
330
70
100
AcDbEntity
  8
レイヤー 1
100
AcDbBlockReference
  2
Block_15
 10
0.0
 20
0.0
 30
0.0
  0
MTEXT
  5
374
330
70
100
AcDbEntity
  8
レイヤー 1
100
AcDbMText
 10
237.0666666074
 20
-374.4146998846949
 30
0.0
 40
0.2
 41
0.0
 46
0.0
 71
     7
 72
     1
  1
\C251;\c5659228;\FKozGoPr6N-Regular|b0|i0|c128;\H3.496733;\W1.000000;5mm / 10mm
 73
     1
 44
1.0
  0
MTEXT
  5
375
330
70
100
AcDbEntity
  8
レイヤー 1
100
AcDbMText
 10
228.1297444091134
 20
-385.5861110147146
 30
0.0
 40
0.2
 41
0.0
 46
0.0
 71
     7
 72
     1
  1
\C251;\c5659228;\FKozGoPr6N-Regular|b0|i0|c128;\H4.246033;\W1.000000;SC-D45M-0174590S
 73
     1
 44
1.0
  0
LINE
  5
376
330
70
100
AcDbEntity
  8
レイヤー 1
100
AcDbLine
 10
212.1157470098353
 20
-248.7192414605633
 30
0.0
 11
230.2462962387345
 21
-192.722689432071
 31
0.0
  0
LINE
  5
377
330
70
100
AcDbEntity
  8
レイヤー 1
100
AcDbLine
 10
217.5703114283548
 20
-148.2309103044716
 30
0.0
 11
230.2462962387345
 21
-192.722689432071
 31
0.0
  0
MTEXT
  5
378
330
70
100
AcDbEntity
  8
レイヤー 1
100
AcDbMText
 10
235.1852999629051
 20
-190.499999952375
 30
0.0
 40
0.2
 41
0.0
 46
0.0
 71
     7
 72
     1
  1
\C251;\c5659228;\FKozGoPr6N-Regular|b0|i0|c128;\H3.496733;\W1.000000;Oリング黒
 73
     1
 44
1.0
  0
MTEXT
  5
379
330
70
100
AcDbEntity
  8
レイヤー 1
100
AcDbMText
 10
234.9499999412625
 20
-184.5027777316521
 30
0.0
 40
0.2
 41
0.0
 46
0.0
 71
     7
 72
     1
  1
\C251;\c5659228;\FKozGoPr6N-Regular|b0|i0|c128;\H3.246967;\W1.000000;底面
 73
     1
 44
1.0
  0
MTEXT
  5
37A
330
70
100
AcDbEntity
  8
レイヤー 1
100
AcDbMText
 10
235.073678869183
 20
-195.7916666177187
 30
0.0
 40
0.2
 41
0.0
 46
0.0
 71
     7
 72
     1
  1
\C251;\c5659228;\FKozGoPr6N-Regular|b0|i0|c128;\H2.997200;\W1.000000;線径 2.0mm 内径74.5mm
 73
     1
 44
1.0
  0
LINE
  5
37B
330
70
100
AcDbEntity
  8
レイヤー 1
100
AcDbLine
 10
188.6185184713637
 20
-136.7191183723586
 30
0.0
 11
161.1018518115762
 21
-196.1599473250919
 31
0.0
  0
LINE
  5
37C
330
70
100
AcDbEntity
  8
レイヤー 1
100
AcDbLine
 10
188.1267497915007
 20
-259.8616476389395
 30
0.0
 11
161.1018518115762
 21
-196.1599473250919
 31
0.0
  0
MTEXT
  5
37D
330
70
100
AcDbEntity
  8
レイヤー 1
100
AcDbMText
 10
131.3968972831298
 20
-196.8499138234004
 30
0.0
 40
0.2
 41
0.0
 46
0.0
 71
     7
 72
     1
  1
\C251;\c5659228;\FKozGoPr6N-Regular|b0|i0|c128;\H3.246967;\W1.000000;上面
 73
     1
 44
1.0
  0
MTEXT
  5
37E
330
70
100
AcDbEntity
  8
レイヤー 1
100
AcDbMText
 10
131.430220507507
 20
-202.6496459454314
 30
0.0
 40
0.2
 41
0.0
 46
0.0
 71
     7
 72
     1
  1
\C251;\c5659228;\FKozGoPr6N-Regular|b0|i0|c128;\H3.246967;\W1.000000;Oリング白色
 73
     1
 44
1.0
  0
MTEXT
  5
37F
330
70
100
AcDbEntity
  8
レイヤー 1
100
AcDbMText
 10
131.008390097185
 20
-208.726794381412
 30
0.0
 40
0.2
 41
0.0
 46
0.0
 71
     7
 72
     1
  1
\C251;\c5659228;\FKozGoPr6N-Regular|b0|i0|c128;\H3.246967;\W1.000000;線径3.1mm内径53.8mm
 73
     1
 44
1.0
  0
MTEXT
  5
380
330
70
100
AcDbEntity
  8
レイヤー 1
100
AcDbMText
 10
159.2204277488233
 20
-197.3358156081757
 30
0.0
 40
0.2
 41
0.0
 46
0.0
 71
     7
 72
     1
  1
\C251;\c5659228;\FKozGoPr6N-Regular|b0|i0|c128;\H2.497667;\W1.000000;●
 73
     1
 44
1.0
  0
MTEXT
  5
381
330
70
100
AcDbEntity
  8
レイヤー 1
100
AcDbMText
 10
228.1721836791223
 20
-194.9196120198702
 30
0.0
 40
0.2
 41
0.0
 46
0.0
 71
     7
 72
     1
  1
\C251;\c5659228;\FKozGoPr6N-Regular|b0|i0|c128;\H2.497667;\W1.000000;●
 73
     1
 44
1.0
  0
ENDSEC
  0
SECTION
  2
OBJECTS
  0
DICTIONARY
  5
C
330
0
100
AcDbDictionary
281
     1
  3
ACAD_COLOR
350
63
  3
ACAD_DETAILVIEWSTYLE
350
6A
  3
ACAD_GROUP
350
D
  3
ACAD_LAYOUT
350
62
  3
ACAD_MATERIAL
350
10
  3
ACAD_MLEADERSTYLE
350
66
  3
ACAD_MLINESTYLE
350
5F
  3
ACAD_PLOTSETTINGS
350
61
  3
ACAD_PLOTSTYLENAME
350
E
  3
ACAD_SCALELIST
350
42
  3
ACAD_SECTIONVIEWSTYLE
350
68
  3
ACAD_TABLESTYLE
350
64
  3
ACAD_VISUALSTYLE
350
29
  3
ACDB_RECOMPOSE_DATA
350
38A
  3
AcDbVariableDictionary
350
382
  0
DICTIONARY
  5
63
102
{ACAD_REACTORS
330
C
102
}
330
C
100
AcDbDictionary
281
     1
  0
DICTIONARY
  5
6A
102
{ACAD_REACTORS
330
C
102
}
330
C
100
AcDbDictionary
281
     1
  3
Imperial24
350
6B
  0
DICTIONARY
  5
D
102
{ACAD_REACTORS
330
C
102
}
330
C
100
AcDbDictionary
281
     1
  0
DICTIONARY
  5
62
102
{ACAD_REACTORS
330
C
102
}
330
C
100
AcDbDictionary
281
     1
  3
Layout1
350
6F
  3
Layout2
350
77
  3
Model
350
73
  0
DICTIONARY
  5
10
102
{ACAD_REACTORS
330
C
102
}
330
C
100
AcDbDictionary
281
     1
  3
ByBlock
350
19
  3
ByLayer
350
11
  3
Global
350
21
  0
DICTIONARY
  5
66
102
{ACAD_REACTORS
330
C
102
}
330
C
100
AcDbDictionary
281
     1
  3
Standard
350
67
  0
DICTIONARY
  5
5F
102
{ACAD_REACTORS
330
C
102
}
330
C
100
AcDbDictionary
281
     1
  3
Standard
350
60
  0
DICTIONARY
  5
61
102
{ACAD_REACTORS
330
C
102
}
330
C
100
AcDbDictionary
281
     1
  0
ACDBDICTIONARYWDFLT
  5
E
102
{ACAD_REACTORS
330
C
102
}
330
C
100
AcDbDictionary
281
     1
  3
Normal
350
F
100
AcDbDictionaryWithDefault
340
F
  0
DICTIONARY
  5
42
102
{ACAD_REACTORS
330
C
102
}
330
C
100
AcDbDictionary
281
     1
  3
A0
350
43
  3
A1
350
44
  3
A2
350
45
  3
A3
350
46
  3
A4
350
47
  3
A5
350
48
  3
A6
350
49
  3
A7
350
4A
  3
A8
350
4B
  3
A9
350
4C
  3
B0
350
4D
  3
B1
350
4E
  3
B2
350
4F
  3
B3
350
50
  3
B4
350
51
  3
B5
350
52
  3
B6
350
53
  0
DICTIONARY
  5
68
102
{ACAD_REACTORS
330
C
102
}
330
C
100
AcDbDictionary
281
     1
  3
Imperial24
350
69
  0
DICTIONARY
  5
64
102
{ACAD_REACTORS
330
C
102
}
330
C
100
AcDbDictionary
281
     1
  3
Standard
350
65
  0
DICTIONARY
  5
29
102
{ACAD_REACTORS
330
C
102
}
330
C
100
AcDbDictionary
281
     1
  3
2dWireframe
350
2F
  3
Basic
350
2E
  3
Brighten
350
35
  3
ColorChange
350
39
  3
Conceptual
350
32
  3
Dim
350
34
  3
EdgeColorOff
350
41
  3
Facepattern
350
38
  3
Flat
350
2A
  3
FlatWithEdges
350
2B
  3
Gouraud
350
2C
  3
GouraudWithEdges
350
2D
  3
Hidden
350
31
  3
JitterOff
350
3F
  3
Linepattern
350
37
  3
OverhangOff
350
40
  3
Realistic
350
33
  3
Shaded
350
3E
  3
Shaded with edges
350
3D
  3
Shades of Gray
350
3A
  3
Sketchy
350
3B
  3
Thicken
350
36
  3
Wireframe
350
30
  3
X-Ray
350
3C
  0
XRECORD
  5
38A
102
{ACAD_REACTORS
330
C
102
}
330
C
100
AcDbXrecord
280
     1
 90
        1
330
65
  0
DICTIONARY
  5
382
102
{ACAD_REACTORS
330
C
102
}
330
C
100
AcDbDictionary
281
     1
  3
CANNOSCALE
350
387
  3
CMLEADERSTYLE
350
384
  3
CTABLESTYLE
350
383
  3
CVIEWDETAILSTYLE
350
385
  3
CVIEWSECTIONSTYLE
350
386
  0
ACDBDETAILVIEWSTYLE
  5
6B
102
{ACAD_REACTORS
330
6A
102
}
330
6A
100
AcDbModelDocViewStyle
 70
     0
  3
Imperial24
290
     1
300
Imperial24
 90
        0
100
AcDbDetailViewStyle
 70
     0
 71
     0
 90
        3
 71
     1
340
55
 62
   256
 40
0.24
340
0
 62
   256
 40
0.24
300

 40
0.36
280
     3
 71
     2
340
5D
 90
       25
 62
   256
 71
     3
340
55
 62
   256
 40
0.24
 90
        1
 40
0.75
 90
        1
300
%<\AcVar ViewType \f "%tc1">% %<\AcVar ViewDetailId>%\PSCALE %<\AcVar ViewScale \f "%sn">%
 71
     4
340
5D
 90
       25
 62
   256
340
5D
 90
       25
 62
   256
280
     0
  0
LAYOUT
  5
6F
102
{ACAD_REACTORS
330
62
102
}
330
62
100
AcDbPlotSettings
  1

  2

  4

  6

 40
0.0
 41
0.0
 42
0.0
 43
0.0
 44
0.0
 45
0.0
 46
0.0
 47
0.0
 48
0.0
 49
0.0
140
0.0
141
0.0
142
1.0
143
1.0
 70
   688
 72
     0
 73
     0
 74
     5
  7

 75
    16
147
1.0
 76
     0
 77
     2
 78
   300
148
0.0
149
0.0
100
AcDbLayout
  1
Layout1
 70
     1
 71
     1
 10
0.0
 20
0.0
 11
12.0
 21
9.0
 12
0.0
 22
0.0
 32
0.0
 14
0.0
 24
0.0
 34
0.0
 15
0.0
 25
0.0
 35
0.0
146
0.0
 13
0.0
 23
0.0
 33
0.0
 16
1.0
 26
0.0
 36
0.0
 17
0.0
 27
1.0
 37
0.0
 76
     0
330
6C
  0
LAYOUT
  5
77
102
{ACAD_REACTORS
330
62
102
}
330
62
100
AcDbPlotSettings
  1

  2

  4

  6

 40
0.0
 41
0.0
 42
0.0
 43
0.0
 44
0.0
 45
0.0
 46
0.0
 47
0.0
 48
0.0
 49
0.0
140
0.0
141
0.0
142
1.0
143
1.0
 70
   688
 72
     0
 73
     0
 74
     5
  7

 75
    16
147
1.0
 76
     0
 77
     2
 78
   300
148
0.0
149
0.0
100
AcDbLayout
  1
Layout2
 70
     1
 71
     2
 10
0.0
 20
0.0
 11
12.0
 21
9.0
 12
0.0
 22
0.0
 32
0.0
 14
0.0
 24
0.0
 34
0.0
 15
0.0
 25
0.0
 35
0.0
146
0.0
 13
0.0
 23
0.0
 33
0.0
 16
1.0
 26
0.0
 36
0.0
 17
0.0
 27
1.0
 37
0.0
 76
     0
330
74
  0
LAYOUT
  5
73
102
{ACAD_REACTORS
330
62
102
}
330
62
100
AcDbPlotSettings
  1

  2

  4

  6

 40
0.0
 41
0.0
 42
0.0
 43
0.0
 44
0.0
 45
0.0
 46
0.0
 47
0.0
 48
0.0
 49
0.0
140
0.0
141
0.0
142
1.0
143
1.0
 70
  1712
 72
     0
 73
     0
 74
     0
  7

 75
     0
147
1.0
 76
     0
 77
     2
 78
   300
148
0.0
149
0.0
100
AcDbLayout
  1
Model
 70
     1
 71
     0
 10
0.0
 20
0.0
 11
12.0
 21
9.0
 12
0.0
 22
0.0
 32
0.0
 14
0.0
 24
0.0
 34
0.0
 15
0.0
 25
0.0
 35
0.0
146
0.0
 13
0.0
 23
0.0
 33
0.0
 16
1.0
 26
0.0
 36
0.0
 17
0.0
 27
1.0
 37
0.0
 76
     0
330
70
  0
MATERIAL
  5
19
102
{ACAD_XDICTIONARY
360
1A
102
}
102
{ACAD_REACTORS
330
10
102
}
330
10
100
AcDbMaterial
  1
ByBlock
 72
     0
 43
0.0208333333333333
 43
0.0
 43
0.0
 43
0.0
 43
0.0
 43
0.0208333333333333
 43
0.0
 43
0.0
 43
0.0
 43
0.0
 43
1.0
 43
0.0
 43
0.0
 43
0.0
 43
0.0
 43
1.0
 77
     0
 47
0.0208333333333333
 47
0.0
 47
0.0
 47
0.0
 47
0.0
 47
0.0208333333333333
 47
0.0
 47
0.0
 47
0.0
 47
0.0
 47
1.0
 47
0.0
 47
0.0
 47
0.0
 47
0.0
 47
1.0
171
     0
 49
0.0208333333333333
 49
0.0
 49
0.0
 49
0.0
 49
0.0
 49
0.0208333333333333
 49
0.0
 49
0.0
 49
0.0
 49
0.0
 49
1.0
 49
0.0
 49
0.0
 49
0.0
 49
0.0
 49
1.0
175
     0
142
0.0208333333333333
142
0.0
142
0.0
142
0.0
142
0.0
142
0.0208333333333333
142
0.0
142
0.0
142
0.0
142
0.0
142
1.0
142
0.0
142
0.0
142
0.0
142
0.0
142
1.0
179
     0
144
0.0208333333333333
144
0.0
144
0.0
144
0.0
144
0.0
144
0.0208333333333333
144
0.0
144
0.0
144
0.0
144
0.0
144
1.0
144
0.0
144
0.0
144
0.0
144
0.0
144
1.0
147
0.0208333333333333
147
0.0
147
0.0
147
0.0
147
0.0
147
0.0208333333333333
147
0.0
147
0.0
147
0.0
147
0.0
147
1.0
147
0.0
147
0.0
147
0.0
147
0.0
147
1.0
  0
MATERIAL
  5
11
102
{ACAD_XDICTIONARY
360
12
102
}
102
{ACAD_REACTORS
330
10
102
}
330
10
100
AcDbMaterial
  1
ByLayer
 72
     0
 43
0.0208333333333333
 43
0.0
 43
0.0
 43
0.0
 43
0.0
 43
0.0208333333333333
 43
0.0
 43
0.0
 43
0.0
 43
0.0
 43
1.0
 43
0.0
 43
0.0
 43
0.0
 43
0.0
 43
1.0
 77
     0
 47
0.0208333333333333
 47
0.0
 47
0.0
 47
0.0
 47
0.0
 47
0.0208333333333333
 47
0.0
 47
0.0
 47
0.0
 47
0.0
 47
1.0
 47
0.0
 47
0.0
 47
0.0
 47
0.0
 47
1.0
171
     0
 49
0.0208333333333333
 49
0.0
 49
0.0
 49
0.0
 49
0.0
 49
0.0208333333333333
 49
0.0
 49
0.0
 49
0.0
 49
0.0
 49
1.0
 49
0.0
 49
0.0
 49
0.0
 49
0.0
 49
1.0
175
     0
142
0.0208333333333333
142
0.0
142
0.0
142
0.0
142
0.0
142
0.0208333333333333
142
0.0
142
0.0
142
0.0
142
0.0
142
1.0
142
0.0
142
0.0
142
0.0
142
0.0
142
1.0
179
     0
144
0.0208333333333333
144
0.0
144
0.0
144
0.0
144
0.0
144
0.0208333333333333
144
0.0
144
0.0
144
0.0
144
0.0
144
1.0
144
0.0
144
0.0
144
0.0
144
0.0
144
1.0
147
0.0208333333333333
147
0.0
147
0.0
147
0.0
147
0.0
147
0.0208333333333333
147
0.0
147
0.0
147
0.0
147
0.0
147
1.0
147
0.0
147
0.0
147
0.0
147
0.0
147
1.0
  0
MATERIAL
  5
21
102
{ACAD_XDICTIONARY
360
22
102
}
102
{ACAD_REACTORS
330
10
102
}
330
10
100
AcDbMaterial
  1
Global
 72
     0
 43
0.0208333333333333
 43
0.0
 43
0.0
 43
0.0
 43
0.0
 43
0.0208333333333333
 43
0.0
 43
0.0
 43
0.0
 43
0.0
 43
1.0
 43
0.0
 43
0.0
 43
0.0
 43
0.0
 43
1.0
 77
     0
 47
0.0208333333333333
 47
0.0
 47
0.0
 47
0.0
 47
0.0
 47
0.0208333333333333
 47
0.0
 47
0.0
 47
0.0
 47
0.0
 47
1.0
 47
0.0
 47
0.0
 47
0.0
 47
0.0
 47
1.0
171
     0
 49
0.0208333333333333
 49
0.0
 49
0.0
 49
0.0
 49
0.0
 49
0.0208333333333333
 49
0.0
 49
0.0
 49
0.0
 49
0.0
 49
1.0
 49
0.0
 49
0.0
 49
0.0
 49
0.0
 49
1.0
175
     0
142
0.0208333333333333
142
0.0
142
0.0
142
0.0
142
0.0
142
0.0208333333333333
142
0.0
142
0.0
142
0.0
142
0.0
142
1.0
142
0.0
142
0.0
142
0.0
142
0.0
142
1.0
179
     0
144
0.0208333333333333
144
0.0
144
0.0
144
0.0
144
0.0
144
0.0208333333333333
144
0.0
144
0.0
144
0.0
144
0.0
144
1.0
144
0.0
144
0.0
144
0.0
144
0.0
144
1.0
147
0.0208333333333333
147
0.0
147
0.0
147
0.0
147
0.0
147
0.0208333333333333
147
0.0
147
0.0
147
0.0
147
0.0
147
1.0
147
0.0
147
0.0
147
0.0
147
0.0
147
1.0
  0
MLEADERSTYLE
  5
67
102
{ACAD_REACTORS
330
66
102
}
330
66
100
AcDbMLeaderStyle
179
     2
170
     2
171
     1
172
     0
 90
        2
 40
0.0
 41
0.0
173
     1
 91
-1056964608
340
5B
 92
       -2
290
     1
 42
0.09
291
     1
 43
0.36
  3
Standard
 44
0.18
300

342
55
174
     1
178
     6
175
     1
176
     0
 93
-1056964608
 45
0.18
292
     0
297
     0
 46
0.18
 94
-1056964608
 47
1.0
 49
1.0
140
1.0
293
     1
141
0.0
294
     1
177
     0
142
1.0
295
     1
296
     0
143
0.125
271
     0
272
     9
273
     9
298
     1
  0
MLINESTYLE
  5
60
102
{ACAD_REACTORS
330
5F
102
}
330
5F
100
AcDbMlineStyle
  2
STANDARD
 70
     0
  3

 62
   256
 51
90.0
 52
90.0
 71
     2
 49
0.5
 62
   256
  6
BYLAYER
 49
-0.5
 62
   256
  6
BYLAYER
  0
ACDBPLACEHOLDER
  5
F
102
{ACAD_REACTORS
330
E
102
}
330
E
  0
SCALE
  5
43
102
{ACAD_REACTORS
330
42
102
}
330
42
100
AcDbScale
 70
     0
300
1:1
140
1.0
141
1.0
290
     1
  0
SCALE
  5
44
102
{ACAD_REACTORS
330
42
102
}
330
42
100
AcDbScale
 70
     0
300
1/128" = 1'-0"
140
0.0078125
141
12.0
290
     0
  0
SCALE
  5
45
102
{ACAD_REACTORS
330
42
102
}
330
42
100
AcDbScale
 70
     0
300
1/64" = 1'-0"
140
0.015625
141
12.0
290
     0
  0
SCALE
  5
46
102
{ACAD_REACTORS
330
42
102
}
330
42
100
AcDbScale
 70
     0
300
1/32" = 1'-0"
140
0.03125
141
12.0
290
     0
  0
SCALE
  5
47
102
{ACAD_REACTORS
330
42
102
}
330
42
100
AcDbScale
 70
     0
300
1/16" = 1'-0"
140
0.0625
141
12.0
290
     0
  0
SCALE
  5
48
102
{ACAD_REACTORS
330
42
102
}
330
42
100
AcDbScale
 70
     0
300
3/32" = 1'-0"
140
0.09375
141
12.0
290
     0
  0
SCALE
  5
49
102
{ACAD_REACTORS
330
42
102
}
330
42
100
AcDbScale
 70
     0
300
1/8" = 1'-0"
140
0.125
141
12.0
290
     0
  0
SCALE
  5
4A
102
{ACAD_REACTORS
330
42
102
}
330
42
100
AcDbScale
 70
     0
300
3/16" = 1'-0"
140
0.1875
141
12.0
290
     0
  0
SCALE
  5
4B
102
{ACAD_REACTORS
330
42
102
}
330
42
100
AcDbScale
 70
     0
300
1/4" = 1'-0"
140
0.25
141
12.0
290
     0
  0
SCALE
  5
4C
102
{ACAD_REACTORS
330
42
102
}
330
42
100
AcDbScale
 70
     0
300
3/8" = 1'-0"
140
0.375
141
12.0
290
     0
  0
SCALE
  5
4D
102
{ACAD_REACTORS
330
42
102
}
330
42
100
AcDbScale
 70
     0
300
1/2" = 1'-0"
140
0.5
141
12.0
290
     0
  0
SCALE
  5
4E
102
{ACAD_REACTORS
330
42
102
}
330
42
100
AcDbScale
 70
     0
300
3/4" = 1'-0"
140
0.75
141
12.0
290
     0
  0
SCALE
  5
4F
102
{ACAD_REACTORS
330
42
102
}
330
42
100
AcDbScale
 70
     0
300
1" = 1'-0"
140
1.0
141
12.0
290
     0
  0
SCALE
  5
50
102
{ACAD_REACTORS
330
42
102
}
330
42
100
AcDbScale
 70
     0
300
1-1/2" = 1'-0"
140
1.5
141
12.0
290
     0
  0
SCALE
  5
51
102
{ACAD_REACTORS
330
42
102
}
330
42
100
AcDbScale
 70
     0
300
3" = 1'-0"
140
3.0
141
12.0
290
     0
  0
SCALE
  5
52
102
{ACAD_REACTORS
330
42
102
}
330
42
100
AcDbScale
 70
     0
300
6" = 1'-0"
140
6.0
141
12.0
290
     0
  0
SCALE
  5
53
102
{ACAD_REACTORS
330
42
102
}
330
42
100
AcDbScale
 70
     0
300
1'-0" = 1'-0"
140
12.0
141
12.0
290
     0
  0
ACDBSECTIONVIEWSTYLE
  5
69
102
{ACAD_REACTORS
330
68
102
}
330
68
100
AcDbModelDocViewStyle
 70
     0
  3
Imperial24
290
     1
300
Imperial24
 90
        0
100
AcDbSectionViewStyle
 70
     0
 71
     0
 90
       78
 71
     1
340
55
 62
   256
 40
0.24
340
0
340
0
 62
   256
 40
0.24
300
I, O, Q, S, X, Z
 40
0.48
 90
        3
 40
0.18
 90
        1
 71
     2
340
5D
 90
       25
 62
   256
340
5D
 90
       50
 62
   256
 40
0.24
 40
0.0
 40
0.24
 71
     3
340
55
 62
   256
 40
0.24
 90
        1
 40
0.75
 90
        1
300
%<\AcVar ViewType \f "%tc1">% %<\AcVar ViewSectionStartId>%-%<\AcVar ViewSectionEndId>%\PSCALE %<\AcVar ViewScale \f "%sn">%
 71
     4
 62
   256
 62
   257
300
ANSI31
 40
1.0
 90
        0
290
     0
290
     0
 90
        6
 40
0.0
 40
1.570796326794896
 40
0.2617993877991494
 40
1.308996938995747
 40
-0.2617993877991494
 40
1.832595714594046
  0
TABLESTYLE
  5
65
102
{ACAD_XDICTIONARY
360
388
102
}
102
{ACAD_REACTORS
330
64
102
}
330
64
100
AcDbTableStyle
280
     0
  3
Standard
 70
     0
 71
     0
 40
0.06
 41
0.06
280
     0
281
     0
  7
Standard
140
0.18
170
     2
 62
     0
 63
     7
283
     0
 90
      512
 91
        0
  1

274
    -2
284
     1
 64
     0
275
    -2
285
     1
 65
     0
276
    -2
286
     1
 66
     0
277
    -2
287
     1
 67
     0
278
    -2
288
     1
 68
     0
279
    -2
289
     1
 69
     0
  7
Standard
140
0.25
170
     5
 62
     0
 63
     7
283
     0
 90
      512
 91
        0
  1

274
    -2
284
     1
 64
     0
275
    -2
285
     1
 65
     0
276
    -2
286
     1
 66
     0
277
    -2
287
     1
 67
     0
278
    -2
288
     1
 68
     0
279
    -2
289
     1
 69
     0
  7
Standard
140
0.18
170
     5
 62
     0
 63
     7
283
     0
 90
      512
 91
        0
  1

274
    -2
284
     1
 64
     0
275
    -2
285
     1
 65
     0
276
    -2
286
     1
 66
     0
277
    -2
287
     1
 67
     0
278
    -2
288
     1
 68
     0
279
    -2
289
     1
 69
     0
  0
VISUALSTYLE
  5
2F
102
{ACAD_REACTORS
330
29
102
}
330
29
100
AcDbVisualStyle
  2
2dWireframe
 70
     4
177
     3
291
     0
 70
    58
 90
        0
176
     1
 90
        2
176
     1
 90
        0
176
     1
 90
        0
176
     1
 40
0.6
176
     1
 40
30.0
176
     1
 62
     7
420
 16777215
176
     1
 90
        1
176
     1
 90
        4
176
     1
 62
     7
176
     1
 62
   257
176
     1
 90
        1
176
     1
 90
        1
176
     1
 40
1.0
176
     1
 90
        0
176
     1
 62
   257
176
     1
 40
1.0
176
     1
 90
        1
176
     1
 90
        6
176
     1
 90
        2
176
     1
 62
     7
176
     1
 90
        5
176
     1
 90
        0
176
     1
 90
        0
176
     1
290
     0
176
     1
 90
        1
176
     1
 40
0.0
176
     1
 90
        0
176
     1
290
     1
176
     1
290
     1
176
     1
290
     0
176
     1
290
     0
176
     1
290
     0
176
     1
290
     0
176
     1
290
     0
176
     1
290
     0
176
     1
290
     0
176
     1
 90
       50
176
     1
 40
0.0
176
     1
 40
1.0
176
     1
 90
        0
176
     1
 62
    18
420
        0
176
     1
 90
       50
176
     1
 90
        3
176
     1
 62
     5
420
      255
176
     1
290
     0
176
     1
 90
       50
176
     1
 90
       50
176
     1
 90
       50
176
     1
290
     0
176
     1
 90
       50
176
     1
 62
   256
176
     0
 40
1.0
176
     0
 90
        2
176
     1
  1
strokes_ogs.tif
176
     1
290
     0
176
     1
 40
1.0
176
     1
 40
1.0
176
     1
  0
VISUALSTYLE
  5
2E
102
{ACAD_REACTORS
330
29
102
}
330
29
100
AcDbVisualStyle
  2
Basic
 70
     7
177
     3
291
     1
 70
    58
 90
        1
176
     1
 90
        0
176
     1
 90
        1
176
     1
 90
        0
176
     1
 40
0.6
176
     1
 40
30.0
176
     1
 62
     7
420
 16777215
176
     1
 90
        0
176
     1
 90
        4
176
     1
 62
     7
176
     1
 62
   257
176
     1
 90
        1
176
     1
 90
        1
176
     1
 40
1.0
176
     1
 90
        8
176
     1
 62
     7
176
     1
 40
1.0
176
     1
 90
        1
176
     1
 90
        6
176
     1
 90
        2
176
     1
 62
     7
176
     1
 90
        5
176
     1
 90
        0
176
     1
 90
        0
176
     1
290
     0
176
     1
 90
        1
176
     1
 40
0.0
176
     1
 90
        0
176
     1
290
     0
176
     1
290
     1
176
     1
290
     1
176
     1
290
     0
176
     1
290
     0
176
     1
290
     0
176
     1
290
     0
176
     1
290
     0
176
     1
290
     0
176
     1
 90
       50
176
     1
 40
0.0
176
     1
 40
1.0
176
     1
 90
        0
176
     1
 62
    18
420
        0
176
     1
 90
       50
176
     1
 90
        3
176
     1
 62
     5
420
      255
176
     1
290
     0
176
     1
 90
       50
176
     1
 90
       50
176
     1
 90
       50
176
     1
290
     0
176
     1
 90
       50
176
     1
 62
   256
176
     0
 40
1.0
176
     0
 90
        2
176
     1
  1
strokes_ogs.tif
176
     1
290
     0
176
     1
 40
1.0
176
     1
 40
1.0
176
     1
  0
VISUALSTYLE
  5
35
102
{ACAD_REACTORS
330
29
102
}
330
29
100
AcDbVisualStyle
  2
Brighten
 70
    12
177
     3
291
     1
 70
    58
 90
        2
176
     1
 90
        2
176
     1
 90
        0
176
     1
 90
        0
176
     1
 40
0.6
176
     1
 40
30.0
176
     1
 62
     7
420
 16777215
176
     1
 90
        1
176
     1
 90
        4
176
     1
 62
     7
176
     1
 62
   257
176
     1
 90
        1
176
     1
 90
        1
176
     1
 40
1.0
176
     1
 90
        8
176
     1
 62
     7
176
     1
 40
1.0
176
     1
 90
        1
176
     1
 90
        6
176
     1
 90
        2
176
     1
 62
     7
176
     1
 90
        5
176
     1
 90
        0
176
     1
 90
        0
176
     1
290
     0
176
     1
 90
        1
176
     1
 40
50.0
176
     1
 90
        0
176
     1
290
     0
176
     1
290
     1
176
     1
290
     1
176
     1
290
     0
176
     1
290
     0
176
     1
290
     0
176
     1
290
     0
176
     1
290
     0
176
     1
290
     0
176
     1
 90
       50
176
     1
 40
0.0
176
     1
 40
1.0
176
     1
 90
        0
176
     1
 62
    18
420
        0
176
     1
 90
       50
176
     1
 90
        3
176
     1
 62
     5
420
      255
176
     1
290
     0
176
     1
 90
       50
176
     1
 90
       50
176
     1
 90
       50
176
     1
290
     0
176
     1
 90
       50
176
     1
 62
   256
176
     0
 40
1.0
176
     0
 90
        2
176
     1
  1
strokes_ogs.tif
176
     1
290
     0
176
     1
 40
1.0
176
     1
 40
1.0
176
     1
  0
VISUALSTYLE
  5
39
102
{ACAD_REACTORS
330
29
102
}
330
29
100
AcDbVisualStyle
  2
ColorChange
 70
    16
177
     3
291
     1
 70
    58
 90
        2
176
     1
 90
        2
176
     1
 90
        3
176
     1
 90
        0
176
     1
 40
0.6
176
     1
 40
30.0
176
     1
 62
     8
420
  8421504
176
     1
 90
        1
176
     1
 90
        4
176
     1
 62
     7
176
     1
 62
   257
176
     1
 90
        1
176
     1
 90
        1
176
     1
 40
1.0
176
     1
 90
        8
176
     1
 62
     8
420
  8421504
176
     1
 40
1.0
176
     1
 90
        1
176
     1
 90
        6
176
     1
 90
        2
176
     1
 62
     7
176
     1
 90
        5
176
     1
 90
        0
176
     1
 90
        0
176
     1
290
     0
176
     1
 90
        1
176
     1
 40
0.0
176
     1
 90
        0
176
     1
290
     0
176
     1
290
     1
176
     1
290
     1
176
     1
290
     0
176
     1
290
     0
176
     1
290
     0
176
     1
290
     0
176
     1
290
     0
176
     1
290
     0
176
     1
 90
       50
176
     1
 40
0.0
176
     1
 40
1.0
176
     1
 90
        0
176
     1
 62
    18
420
        0
176
     1
 90
       50
176
     1
 90
        3
176
     1
 62
     5
420
      255
176
     1
290
     0
176
     1
 90
       50
176
     1
 90
       50
176
     1
 90
       50
176
     1
290
     0
176
     1
 90
       50
176
     1
 62
   256
176
     0
 40
1.0
176
     0
 90
        2
176
     1
  1
strokes_ogs.tif
176
     1
290
     0
176
     1
 40
1.0
176
     1
 40
1.0
176
     1
  0
VISUALSTYLE
  5
32
102
{ACAD_REACTORS
330
29
102
}
330
29
100
AcDbVisualStyle
  2
Conceptual
 70
     9
177
     3
291
     0
 70
    58
 90
        3
176
     1
 90
        2
176
     1
 90
        0
176
     1
 90
        0
176
     1
 40
0.6
176
     1
 40
30.0
176
     1
 62
     7
420
 16777215
176
     1
 90
        2
176
     1
 90
        2
176
     1
 62
     7
176
     1
 62
   257
176
     1
 90
        1
176
     1
 90
        1
176
     1
 40
179.0
176
     1
 90
        8
176
     1
 62
     7
176
     1
 40
1.0
176
     1
 90
        1
176
     1
 90
        6
176
     1
 90
        2
176
     1
 62
     7
176
     1
 90
        3
176
     1
 90
        0
176
     1
 90
        0
176
     1
290
     0
176
     1
 90
        1
176
     1
 40
0.0
176
     1
 90
        0
176
     1
290
     0
176
     1
290
     1
176
     1
290
     1
176
     1
290
     0
176
     1
290
     0
176
     1
290
     0
176
     1
290
     0
176
     1
290
     0
176
     1
290
     0
176
     1
 90
       50
176
     1
 40
0.0
176
     1
 40
1.0
176
     1
 90
        0
176
     1
 62
    18
420
        0
176
     1
 90
       50
176
     1
 90
        3
176
     1
 62
     5
420
      255
176
     1
290
     0
176
     1
 90
       50
176
     1
 90
       50
176
     1
 90
       50
176
     1
290
     0
176
     1
 90
       50
176
     1
 62
   256
176
     0
 40
1.0
176
     0
 90
        2
176
     1
  1
strokes_ogs.tif
176
     1
290
     0
176
     1
 40
1.0
176
     1
 40
1.0
176
     1
  0
VISUALSTYLE
  5
34
102
{ACAD_REACTORS
330
29
102
}
330
29
100
AcDbVisualStyle
  2
Dim
 70
    11
177
     3
291
     1
 70
    58
 90
        2
176
     1
 90
        2
176
     1
 90
        0
176
     1
 90
        0
176
     1
 40
0.6
176
     1
 40
30.0
176
     1
 62
     7
420
 16777215
176
     1
 90
        1
176
     1
 90
        4
176
     1
 62
     7
176
     1
 62
   257
176
     1
 90
        1
176
     1
 90
        1
176
     1
 40
1.0
176
     1
 90
        8
176
     1
 62
     7
176
     1
 40
1.0
176
     1
 90
        1
176
     1
 90
        6
176
     1
 90
        2
176
     1
 62
     7
176
     1
 90
        5
176
     1
 90
        0
176
     1
 90
        0
176
     1
290
     0
176
     1
 90
        1
176
     1
 40
-50.0
176
     1
 90
        0
176
     1
290
     0
176
     1
290
     1
176
     1
290
     1
176
     1
290
     0
176
     1
290
     0
176
     1
290
     0
176
     1
290
     0
176
     1
290
     0
176
     1
290
     0
176
     1
 90
       50
176
     1
 40
0.0
176
     1
 40
1.0
176
     1
 90
        0
176
     1
 62
    18
420
        0
176
     1
 90
       50
176
     1
 90
        3
176
     1
 62
     5
420
      255
176
     1
290
     0
176
     1
 90
       50
176
     1
 90
       50
176
     1
 90
       50
176
     1
290
     0
176
     1
 90
       50
176
     1
 62
   256
176
     0
 40
1.0
176
     0
 90
        2
176
     1
  1
strokes_ogs.tif
176
     1
290
     0
176
     1
 40
1.0
176
     1
 40
1.0
176
     1
  0
VISUALSTYLE
  5
41
102
{ACAD_REACTORS
330
29
102
}
330
29
100
AcDbVisualStyle
  2
EdgeColorOff
 70
    22
177
     3
291
     1
 70
    58
 90
        2
176
     0
 90
        2
176
     0
 90
        0
176
     0
 90
        0
176
     0
 40
0.6
176
     0
 40
30.0
176
     0
 62
     7
420
 16777215
176
     0
 90
        1
176
     0
 90
        4
176
     0
 62
     7
176
     0
 62
   257
176
     0
 90
        1
176
     0
 90
        1
176
     0
 40
1.0
176
     0
 90
        8
176
     2
 62
     7
176
     0
 40
1.0
176
     0
 90
        1
176
     0
 90
        6
176
     0
 90
        2
176
     0
 62
     7
176
     0
 90
        5
176
     0
 90
        0
176
     0
 90
        0
176
     0
290
     0
176
     0
 90
        1
176
     0
 40
0.0
176
     0
 90
        0
176
     0
290
     0
176
     0
290
     1
176
     0
290
     1
176
     0
290
     0
176
     0
290
     0
176
     0
290
     0
176
     0
290
     0
176
     0
290
     0
176
     0
290
     0
176
     0
 90
       50
176
     0
 40
0.0
176
     0
 40
1.0
176
     0
 90
        0
176
     0
 62
    18
420
        0
176
     0
 90
       50
176
     0
 90
        3
176
     0
 62
     5
420
      255
176
     0
290
     0
176
     0
 90
       50
176
     0
 90
       50
176
     0
 90
       50
176
     0
290
     0
176
     0
 90
       50
176
     0
 62
   256
176
     0
 40
1.0
176
     0
 90
        2
176
     0
  1
strokes_ogs.tif
176
     0
290
     0
176
     0
 40
1.0
176
     0
 40
1.0
176
     0
  0
VISUALSTYLE
  5
38
102
{ACAD_REACTORS
330
29
102
}
330
29
100
AcDbVisualStyle
  2
Facepattern
 70
    15
177
     3
291
     1
 70
    58
 90
        2
176
     1
 90
        2
176
     1
 90
        0
176
     1
 90
        0
176
     1
 40
0.6
176
     1
 40
30.0
176
     1
 62
     7
420
 16777215
176
     1
 90
        1
176
     1
 90
        4
176
     1
 62
     7
176
     1
 62
   257
176
     1
 90
        1
176
     1
 90
        1
176
     1
 40
1.0
176
     1
 90
        8
176
     1
 62
     7
176
     1
 40
1.0
176
     1
 90
        1
176
     1
 90
        6
176
     1
 90
        2
176
     1
 62
     7
176
     1
 90
        5
176
     1
 90
        0
176
     1
 90
        0
176
     1
290
     0
176
     1
 90
        1
176
     1
 40
0.0
176
     1
 90
        0
176
     1
290
     0
176
     1
290
     1
176
     1
290
     1
176
     1
290
     0
176
     1
290
     0
176
     1
290
     0
176
     1
290
     0
176
     1
290
     0
176
     1
290
     0
176
     1
 90
       50
176
     1
 40
0.0
176
     1
 40
1.0
176
     1
 90
        0
176
     1
 62
    18
420
        0
176
     1
 90
       50
176
     1
 90
        3
176
     1
 62
     5
420
      255
176
     1
290
     0
176
     1
 90
       50
176
     1
 90
       50
176
     1
 90
       50
176
     1
290
     0
176
     1
 90
       50
176
     1
 62
   256
176
     0
 40
1.0
176
     0
 90
        2
176
     1
  1
strokes_ogs.tif
176
     1
290
     0
176
     1
 40
1.0
176
     1
 40
1.0
176
     1
  0
VISUALSTYLE
  5
2A
102
{ACAD_REACTORS
330
29
102
}
330
29
100
AcDbVisualStyle
  2
Flat
 70
     0
177
     3
291
     1
 70
    58
 90
        2
176
     1
 90
        1
176
     1
 90
        1
176
     1
 90
        2
176
     1
 40
0.6
176
     1
 40
30.0
176
     1
 62
     7
420
 16777215
176
     1
 90
        0
176
     1
 90
        0
176
     1
 62
     7
176
     1
 62
   257
176
     1
 90
        1
176
     1
 90
        1
176
     1
 40
1.0
176
     1
 90
        8
176
     1
 62
     7
176
     1
 40
1.0
176
     1
 90
        1
176
     1
 90
        6
176
     1
 90
        2
176
     1
 62
     7
176
     1
 90
        5
176
     1
 90
        0
176
     1
 90
        0
176
     1
290
     0
176
     1
 90
       13
176
     1
 40
0.0
176
     1
 90
        0
176
     1
290
     0
176
     1
290
     1
176
     1
290
     1
176
     1
290
     0
176
     1
290
     0
176
     1
290
     0
176
     1
290
     0
176
     1
290
     0
176
     1
290
     0
176
     1
 90
       50
176
     1
 40
0.0
176
     1
 40
1.0
176
     1
 90
        0
176
     1
 62
    18
420
        0
176
     1
 90
       50
176
     1
 90
        3
176
     1
 62
     5
420
      255
176
     1
290
     0
176
     1
 90
       50
176
     1
 90
       50
176
     1
 90
       50
176
     1
290
     0
176
     1
 90
       50
176
     1
 62
   256
176
     0
 40
1.0
176
     0
 90
        2
176
     1
  1
strokes_ogs.tif
176
     1
290
     0
176
     1
 40
1.0
176
     1
 40
1.0
176
     1
  0
VISUALSTYLE
  5
2B
102
{ACAD_REACTORS
330
29
102
}
330
29
100
AcDbVisualStyle
  2
FlatWithEdges
 70
     1
177
     3
291
     1
 70
    58
 90
        2
176
     1
 90
        1
176
     1
 90
        1
176
     1
 90
        2
176
     1
 40
0.6
176
     1
 40
30.0
176
     1
 62
     7
420
 16777215
176
     1
 90
        1
176
     1
 90
        0
176
     1
 62
     7
176
     1
 62
   257
176
     1
 90
        1
176
     1
 90
        1
176
     1
 40
1.0
176
     1
 90
        0
176
     1
 62
   257
176
     1
 40
1.0
176
     1
 90
        1
176
     1
 90
        6
176
     1
 90
        2
176
     1
 62
     7
176
     1
 90
        5
176
     1
 90
        0
176
     1
 90
        0
176
     1
290
     0
176
     1
 90
       13
176
     1
 40
0.0
176
     1
 90
        0
176
     1
290
     0
176
     1
290
     1
176
     1
290
     1
176
     1
290
     0
176
     1
290
     0
176
     1
290
     0
176
     1
290
     0
176
     1
290
     0
176
     1
290
     0
176
     1
 90
       50
176
     1
 40
0.0
176
     1
 40
1.0
176
     1
 90
        0
176
     1
 62
    18
420
        0
176
     1
 90
       50
176
     1
 90
        3
176
     1
 62
     5
420
      255
176
     1
290
     0
176
     1
 90
       50
176
     1
 90
       50
176
     1
 90
       50
176
     1
290
     0
176
     1
 90
       50
176
     1
 62
   256
176
     0
 40
1.0
176
     0
 90
        2
176
     1
  1
strokes_ogs.tif
176
     1
290
     0
176
     1
 40
1.0
176
     1
 40
1.0
176
     1
  0
VISUALSTYLE
  5
2C
102
{ACAD_REACTORS
330
29
102
}
330
29
100
AcDbVisualStyle
  2
Gouraud
 70
     2
177
     3
291
     1
 70
    58
 90
        2
176
     1
 90
        2
176
     1
 90
        1
176
     1
 90
        2
176
     1
 40
0.6
176
     1
 40
30.0
176
     1
 62
     7
420
 16777215
176
     1
 90
        0
176
     1
 90
        0
176
     1
 62
     7
176
     1
 62
   257
176
     1
 90
        1
176
     1
 90
        1
176
     1
 40
1.0
176
     1
 90
        0
176
     1
 62
     7
176
     1
 40
1.0
176
     1
 90
        1
176
     1
 90
        6
176
     1
 90
        2
176
     1
 62
     7
176
     1
 90
        5
176
     1
 90
        0
176
     1
 90
        0
176
     1
290
     0
176
     1
 90
       13
176
     1
 40
0.0
176
     1
 90
        0
176
     1
290
     0
176
     1
290
     1
176
     1
290
     1
176
     1
290
     0
176
     1
290
     0
176
     1
290
     0
176
     1
290
     0
176
     1
290
     0
176
     1
290
     0
176
     1
 90
       50
176
     1
 40
0.0
176
     1
 40
1.0
176
     1
 90
        0
176
     1
 62
    18
420
        0
176
     1
 90
       50
176
     1
 90
        3
176
     1
 62
     5
420
      255
176
     1
290
     0
176
     1
 90
       50
176
     1
 90
       50
176
     1
 90
       50
176
     1
290
     0
176
     1
 90
       50
176
     1
 62
   256
176
     0
 40
1.0
176
     0
 90
        2
176
     1
  1
strokes_ogs.tif
176
     1
290
     0
176
     1
 40
1.0
176
     1
 40
1.0
176
     1
  0
VISUALSTYLE
  5
2D
102
{ACAD_REACTORS
330
29
102
}
330
29
100
AcDbVisualStyle
  2
GouraudWithEdges
 70
     3
177
     3
291
     1
 70
    58
 90
        2
176
     1
 90
        2
176
     1
 90
        1
176
     1
 90
        2
176
     1
 40
0.6
176
     1
 40
30.0
176
     1
 62
     7
420
 16777215
176
     1
 90
        1
176
     1
 90
        0
176
     1
 62
     7
176
     1
 62
   257
176
     1
 90
        1
176
     1
 90
        1
176
     1
 40
1.0
176
     1
 90
        0
176
     1
 62
   257
176
     1
 40
1.0
176
     1
 90
        1
176
     1
 90
        6
176
     1
 90
        2
176
     1
 62
     7
176
     1
 90
        5
176
     1
 90
        0
176
     1
 90
        0
176
     1
290
     0
176
     1
 90
       13
176
     1
 40
0.0
176
     1
 90
        0
176
     1
290
     0
176
     1
290
     1
176
     1
290
     1
176
     1
290
     0
176
     1
290
     0
176
     1
290
     0
176
     1
290
     0
176
     1
290
     0
176
     1
290
     0
176
     1
 90
       50
176
     1
 40
0.0
176
     1
 40
1.0
176
     1
 90
        0
176
     1
 62
    18
420
        0
176
     1
 90
       50
176
     1
 90
        3
176
     1
 62
     5
420
      255
176
     1
290
     0
176
     1
 90
       50
176
     1
 90
       50
176
     1
 90
       50
176
     1
290
     0
176
     1
 90
       50
176
     1
 62
   256
176
     0
 40
1.0
176
     0
 90
        2
176
     1
  1
strokes_ogs.tif
176
     1
290
     0
176
     1
 40
1.0
176
     1
 40
1.0
176
     1
  0
VISUALSTYLE
  5
31
102
{ACAD_REACTORS
330
29
102
}
330
29
100
AcDbVisualStyle
  2
Hidden
 70
     6
177
     3
291
     0
 70
    58
 90
        1
176
     1
 90
        2
176
     1
 90
        2
176
     1
 90
        0
176
     1
 40
0.6
176
     1
 40
30.0
176
     1
 62
     7
420
 16777215
176
     1
 90
        2
176
     1
 90
        2
176
     1
 62
     7
176
     1
 62
   257
176
     1
 90
        2
176
     1
 90
        1
176
     1
 40
40.0
176
     1
 90
        0
176
     1
 62
   257
176
     1
 40
1.0
176
     1
 90
        1
176
     1
 90
        6
176
     1
 90
        2
176
     1
 62
     7
176
     1
 90
        3
176
     1
 90
        0
176
     1
 90
        0
176
     1
290
     0
176
     1
 90
        1
176
     1
 40
0.0
176
     1
 90
        0
176
     1
290
     0
176
     1
290
     1
176
     1
290
     1
176
     1
290
     0
176
     1
290
     0
176
     1
290
     0
176
     1
290
     0
176
     1
290
     0
176
     1
290
     0
176
     1
 90
       50
176
     1
 40
0.0
176
     1
 40
1.0
176
     1
 90
        0
176
     1
 62
    18
420
        0
176
     1
 90
       50
176
     1
 90
        3
176
     1
 62
     5
420
      255
176
     1
290
     0
176
     1
 90
       50
176
     1
 90
       50
176
     1
 90
       50
176
     1
290
     0
176
     1
 90
       50
176
     1
 62
   256
176
     0
 40
1.0
176
     0
 90
        2
176
     1
  1
strokes_ogs.tif
176
     1
290
     0
176
     1
 40
1.0
176
     1
 40
1.0
176
     1
  0
VISUALSTYLE
  5
3F
102
{ACAD_REACTORS
330
29
102
}
330
29
100
AcDbVisualStyle
  2
JitterOff
 70
    20
177
     3
291
     1
 70
    58
 90
        2
176
     0
 90
        2
176
     0
 90
        0
176
     0
 90
        0
176
     0
 40
0.6
176
     0
 40
30.0
176
     0
 62
     7
420
 16777215
176
     0
 90
        1
176
     0
 90
        4
176
     0
 62
     7
176
     0
 62
   257
176
     0
 90
        1
176
     0
 90
        1
176
     0
 40
1.0
176
     0
 90
       10
176
     2
 62
     7
176
     0
 40
1.0
176
     0
 90
        1
176
     0
 90
        6
176
     0
 90
        2
176
     0
 62
     7
176
     0
 90
        5
176
     0
 90
        0
176
     0
 90
        0
176
     0
290
     0
176
     0
 90
        1
176
     0
 40
0.0
176
     0
 90
        0
176
     0
290
     0
176
     0
290
     1
176
     0
290
     1
176
     0
290
     0
176
     0
290
     0
176
     0
290
     0
176
     0
290
     0
176
     0
290
     0
176
     0
290
     0
176
     0
 90
       50
176
     0
 40
0.0
176
     0
 40
1.0
176
     0
 90
        0
176
     0
 62
    18
420
        0
176
     0
 90
       50
176
     0
 90
        3
176
     0
 62
     5
420
      255
176
     0
290
     0
176
     0
 90
       50
176
     0
 90
       50
176
     0
 90
       50
176
     0
290
     0
176
     0
 90
       50
176
     0
 62
   256
176
     0
 40
1.0
176
     0
 90
        2
176
     0
  1
strokes_ogs.tif
176
     0
290
     0
176
     0
 40
1.0
176
     0
 40
1.0
176
     0
  0
VISUALSTYLE
  5
37
102
{ACAD_REACTORS
330
29
102
}
330
29
100
AcDbVisualStyle
  2
Linepattern
 70
    14
177
     3
291
     1
 70
    58
 90
        2
176
     1
 90
        2
176
     1
 90
        0
176
     1
 90
        0
176
     1
 40
0.6
176
     1
 40
30.0
176
     1
 62
     7
420
 16777215
176
     1
 90
        1
176
     1
 90
        4
176
     1
 62
     7
176
     1
 62
   257
176
     1
 90
        7
176
     1
 90
        7
176
     1
 40
1.0
176
     1
 90
        8
176
     1
 62
     7
176
     1
 40
1.0
176
     1
 90
        1
176
     1
 90
        6
176
     1
 90
        2
176
     1
 62
     7
176
     1
 90
        5
176
     1
 90
        0
176
     1
 90
        0
176
     1
290
     0
176
     1
 90
        1
176
     1
 40
0.0
176
     1
 90
        0
176
     1
290
     0
176
     1
290
     1
176
     1
290
     1
176
     1
290
     0
176
     1
290
     0
176
     1
290
     0
176
     1
290
     0
176
     1
290
     0
176
     1
290
     0
176
     1
 90
       50
176
     1
 40
0.0
176
     1
 40
1.0
176
     1
 90
        0
176
     1
 62
    18
420
        0
176
     1
 90
       50
176
     1
 90
        3
176
     1
 62
     5
420
      255
176
     1
290
     0
176
     1
 90
       50
176
     1
 90
       50
176
     1
 90
       50
176
     1
290
     0
176
     1
 90
       50
176
     1
 62
   256
176
     0
 40
1.0
176
     0
 90
        2
176
     1
  1
strokes_ogs.tif
176
     1
290
     0
176
     1
 40
1.0
176
     1
 40
1.0
176
     1
  0
VISUALSTYLE
  5
40
102
{ACAD_REACTORS
330
29
102
}
330
29
100
AcDbVisualStyle
  2
OverhangOff
 70
    21
177
     3
291
     1
 70
    58
 90
        2
176
     0
 90
        2
176
     0
 90
        0
176
     0
 90
        0
176
     0
 40
0.6
176
     0
 40
30.0
176
     0
 62
     7
420
 16777215
176
     0
 90
        1
176
     0
 90
        4
176
     0
 62
     7
176
     0
 62
   257
176
     0
 90
        1
176
     0
 90
        1
176
     0
 40
1.0
176
     0
 90
        9
176
     2
 62
     7
176
     0
 40
1.0
176
     0
 90
        1
176
     0
 90
        6
176
     0
 90
        2
176
     0
 62
     7
176
     0
 90
        5
176
     0
 90
        0
176
     0
 90
        0
176
     0
290
     0
176
     0
 90
        1
176
     0
 40
0.0
176
     0
 90
        0
176
     0
290
     0
176
     0
290
     1
176
     0
290
     1
176
     0
290
     0
176
     0
290
     0
176
     0
290
     0
176
     0
290
     0
176
     0
290
     0
176
     0
290
     0
176
     0
 90
       50
176
     0
 40
0.0
176
     0
 40
1.0
176
     0
 90
        0
176
     0
 62
    18
420
        0
176
     0
 90
       50
176
     0
 90
        3
176
     0
 62
     5
420
      255
176
     0
290
     0
176
     0
 90
       50
176
     0
 90
       50
176
     0
 90
       50
176
     0
290
     0
176
     0
 90
       50
176
     0
 62
   256
176
     0
 40
1.0
176
     0
 90
        2
176
     0
  1
strokes_ogs.tif
176
     0
290
     0
176
     0
 40
1.0
176
     0
 40
1.0
176
     0
  0
VISUALSTYLE
  5
33
102
{ACAD_REACTORS
330
29
102
}
330
29
100
AcDbVisualStyle
  2
Realistic
 70
     8
177
     3
291
     0
 70
    58
 90
        2
176
     1
 90
        3
176
     1
 90
        0
176
     1
 90
        2
176
     1
 40
0.6
176
     1
 40
30.0
176
     1
 62
     7
420
 16777215
176
     1
 90
        0
176
     1
 90
        0
176
     1
 62
     7
176
     1
 62
   257
176
     1
 90
        1
176
     1
 90
        1
176
     1
 40
1.0
176
     1
 90
        8
176
     1
 62
   257
176
     1
 40
1.0
176
     1
 90
        1
176
     1
 90
        6
176
     1
 90
        2
176
     1
 62
     7
176
     1
 90
        3
176
     1
 90
        0
176
     1
 90
        0
176
     1
290
     0
176
     1
 90
       13
176
     1
 40
0.0
176
     1
 90
        0
176
     1
290
     0
176
     1
290
     1
176
     1
290
     1
176
     1
290
     0
176
     1
290
     0
176
     1
290
     0
176
     1
290
     0
176
     1
290
     0
176
     1
290
     0
176
     1
 90
       50
176
     1
 40
0.0
176
     1
 40
1.0
176
     1
 90
        0
176
     1
 62
    18
420
        0
176
     1
 90
       50
176
     1
 90
        3
176
     1
 62
     5
420
      255
176
     1
290
     0
176
     1
 90
       50
176
     1
 90
       50
176
     1
 90
       50
176
     1
290
     0
176
     1
 90
       50
176
     1
 62
   256
176
     0
 40
1.0
176
     0
 90
        2
176
     1
  1
strokes_ogs.tif
176
     1
290
     0
176
     1
 40
1.0
176
     1
 40
1.0
176
     1
  0
VISUALSTYLE
  5
3E
102
{ACAD_REACTORS
330
29
102
}
330
29
100
AcDbVisualStyle
  2
Shaded
 70
    27
177
     3
291
     0
 70
    58
 90
        2
176
     1
 90
        2
176
     1
 90
        1
176
     1
 90
        2
176
     1
 40
0.6
176
     1
 40
30.0
176
     1
 62
     7
420
 16777215
176
     1
 90
        0
176
     1
 90
        4
176
     1
 62
     7
176
     1
 62
   257
176
     1
 90
        1
176
     1
 90
        1
176
     1
 40
1.0
176
     1
 90
        8
176
     1
 62
   257
176
     1
 40
1.0
176
     1
 90
        1
176
     1
 90
        6
176
     1
 90
        2
176
     1
 62
     8
420
  7895160
176
     1
 90
        3
176
     1
 90
        0
176
     1
 90
        0
176
     1
290
     0
176
     1
 90
        5
176
     1
 40
0.0
176
     1
 90
        0
176
     1
290
     0
176
     1
290
     1
176
     1
290
     1
176
     1
290
     0
176
     1
290
     0
176
     1
290
     0
176
     1
290
     0
176
     1
290
     0
176
     1
290
     0
176
     1
 90
       50
176
     1
 40
0.0
176
     1
 40
1.0
176
     1
 90
        0
176
     1
 62
    18
420
        0
176
     1
 90
       50
176
     1
 90
        3
176
     1
 62
     5
420
      255
176
     1
290
     0
176
     1
 90
       50
176
     1
 90
       50
176
     1
 90
       50
176
     1
290
     0
176
     1
 90
       50
176
     1
 62
   256
176
     0
 40
1.0
176
     0
 90
        2
176
     1
  1
strokes_ogs.tif
176
     1
290
     0
176
     1
 40
1.0
176
     1
 40
1.0
176
     1
  0
VISUALSTYLE
  5
3D
102
{ACAD_REACTORS
330
29
102
}
330
29
100
AcDbVisualStyle
  2
Shaded with edges
 70
    26
177
     3
291
     0
 70
    58
 90
        2
176
     1
 90
        2
176
     1
 90
        1
176
     1
 90
        2
176
     1
 40
0.6
176
     1
 40
30.0
176
     1
 62
     7
420
 16777215
176
     1
 90
        1
176
     1
 90
        2
176
     1
 62
     7
176
     1
 62
   257
176
     1
 90
        2
176
     1
 90
        1
176
     1
 40
1.0
176
     1
 90
        8
176
     1
 62
   257
176
     1
 40
1.0
176
     1
 90
        1
176
     1
 90
        6
176
     1
 90
        2
176
     1
 62
     7
176
     1
 90
        3
176
     1
 90
        0
176
     1
 90
        0
176
     1
290
     0
176
     1
 90
        5
176
     1
 40
0.0
176
     1
 90
        0
176
     1
290
     0
176
     1
290
     1
176
     1
290
     1
176
     1
290
     0
176
     1
290
     0
176
     1
290
     0
176
     1
290
     0
176
     1
290
     0
176
     1
290
     0
176
     1
 90
       50
176
     1
 40
0.0
176
     1
 40
1.0
176
     1
 90
        0
176
     1
 62
    18
420
        0
176
     1
 90
       50
176
     1
 90
        3
176
     1
 62
     5
420
      255
176
     1
290
     0
176
     1
 90
       50
176
     1
 90
       50
176
     1
 90
       50
176
     1
290
     0
176
     1
 90
       50
176
     1
 62
   256
176
     0
 40
1.0
176
     0
 90
        2
176
     1
  1
strokes_ogs.tif
176
     1
290
     0
176
     1
 40
1.0
176
     1
 40
1.0
176
     1
  0
VISUALSTYLE
  5
3A
102
{ACAD_REACTORS
330
29
102
}
330
29
100
AcDbVisualStyle
  2
Shades of Gray
 70
    23
177
     3
291
     0
 70
    58
 90
        2
176
     1
 90
        2
176
     1
 90
        3
176
     1
 90
        0
176
     1
 40
0.6
176
     1
 40
30.0
176
     1
 62
     7
420
 16777215
176
     1
 90
        2
176
     1
 90
        2
176
     1
 62
     7
176
     1
 62
     7
176
     1
 90
        1
176
     1
 90
        1
176
     1
 40
40.0
176
     1
 90
        8
176
     1
 62
     7
176
     1
 40
1.0
176
     1
 90
        1
176
     1
 90
        6
176
     1
 90
        2
176
     1
 62
     7
176
     1
 90
        3
176
     1
 90
        0
176
     1
 90
        0
176
     1
290
     0
176
     1
 90
        1
176
     1
 40
0.0
176
     1
 90
        0
176
     1
290
     0
176
     1
290
     1
176
     1
290
     1
176
     1
290
     0
176
     1
290
     0
176
     1
290
     0
176
     1
290
     0
176
     1
290
     0
176
     1
290
     0
176
     1
 90
       50
176
     1
 40
0.0
176
     1
 40
1.0
176
     1
 90
        0
176
     1
 62
    18
420
        0
176
     1
 90
       50
176
     1
 90
        3
176
     1
 62
     5
420
      255
176
     1
290
     0
176
     1
 90
       50
176
     1
 90
       50
176
     1
 90
       50
176
     1
290
     0
176
     1
 90
       50
176
     1
 62
   256
176
     0
 40
1.0
176
     0
 90
        2
176
     1
  1
strokes_ogs.tif
176
     1
290
     0
176
     1
 40
1.0
176
     1
 40
1.0
176
     1
  0
VISUALSTYLE
  5
3B
102
{ACAD_REACTORS
330
29
102
}
330
29
100
AcDbVisualStyle
  2
Sketchy
 70
    24
177
     3
291
     0
 70
    58
 90
        1
176
     1
 90
        2
176
     1
 90
        2
176
     1
 90
        0
176
     1
 40
0.6
176
     1
 40
30.0
176
     1
 62
     7
420
 16777215
176
     1
 90
        2
176
     1
 90
        2
176
     1
 62
     7
176
     1
 62
     7
176
     1
 90
        1
176
     1
 90
        1
176
     1
 40
40.0
176
     1
 90
       11
176
     1
 62
     7
176
     1
 40
1.0
176
     1
 90
        1
176
     1
 90
        6
176
     1
 90
        2
176
     1
 62
     7
176
     1
 90
        6
176
     1
 90
        0
176
     1
 90
        0
176
     1
290
     0
176
     1
 90
        1
176
     1
 40
0.0
176
     1
 90
        0
176
     1
290
     0
176
     1
290
     1
176
     1
290
     1
176
     1
290
     0
176
     1
290
     0
176
     1
290
     0
176
     1
290
     0
176
     1
290
     0
176
     1
290
     0
176
     1
 90
       50
176
     1
 40
0.0
176
     1
 40
1.0
176
     1
 90
        0
176
     1
 62
    18
420
        0
176
     1
 90
       50
176
     1
 90
        3
176
     1
 62
     5
420
      255
176
     1
290
     0
176
     1
 90
       50
176
     1
 90
       50
176
     1
 90
       50
176
     1
290
     0
176
     1
 90
       50
176
     1
 62
   256
176
     0
 40
1.0
176
     0
 90
        2
176
     1
  1
strokes_ogs.tif
176
     1
290
     0
176
     1
 40
1.0
176
     1
 40
1.0
176
     1
  0
VISUALSTYLE
  5
36
102
{ACAD_REACTORS
330
29
102
}
330
29
100
AcDbVisualStyle
  2
Thicken
 70
    13
177
     3
291
     1
 70
    58
 90
        2
176
     1
 90
        2
176
     1
 90
        0
176
     1
 90
        0
176
     1
 40
0.6
176
     1
 40
30.0
176
     1
 62
     7
420
 16777215
176
     1
 90
        1
176
     1
 90
        4
176
     1
 62
     7
176
     1
 62
   257
176
     1
 90
        1
176
     1
 90
        1
176
     1
 40
1.0
176
     1
 90
       12
176
     1
 62
     7
176
     1
 40
1.0
176
     1
 90
        1
176
     1
 90
        6
176
     1
 90
        2
176
     1
 62
     7
176
     1
 90
        5
176
     1
 90
        0
176
     1
 90
        0
176
     1
290
     0
176
     1
 90
        1
176
     1
 40
0.0
176
     1
 90
        0
176
     1
290
     0
176
     1
290
     1
176
     1
290
     1
176
     1
290
     0
176
     1
290
     0
176
     1
290
     0
176
     1
290
     0
176
     1
290
     0
176
     1
290
     0
176
     1
 90
       50
176
     1
 40
0.0
176
     1
 40
1.0
176
     1
 90
        0
176
     1
 62
    18
420
        0
176
     1
 90
       50
176
     1
 90
        3
176
     1
 62
     5
420
      255
176
     1
290
     0
176
     1
 90
       50
176
     1
 90
       50
176
     1
 90
       50
176
     1
290
     0
176
     1
 90
       50
176
     1
 62
   256
176
     0
 40
1.0
176
     0
 90
        2
176
     1
  1
strokes_ogs.tif
176
     1
290
     0
176
     1
 40
1.0
176
     1
 40
1.0
176
     1
  0
VISUALSTYLE
  5
30
102
{ACAD_REACTORS
330
29
102
}
330
29
100
AcDbVisualStyle
  2
Wireframe
 70
     5
177
     3
291
     0
 70
    58
 90
        0
176
     1
 90
        2
176
     1
 90
        0
176
     1
 90
        0
176
     1
 40
0.6
176
     1
 40
30.0
176
     1
 62
     7
420
 16777215
176
     1
 90
        1
176
     1
 90
        4
176
     1
 62
     7
176
     1
 62
   257
176
     1
 90
        1
176
     1
 90
        1
176
     1
 40
1.0
176
     1
 90
        0
176
     1
 62
   257
176
     1
 40
1.0
176
     1
 90
        1
176
     1
 90
        6
176
     1
 90
        2
176
     1
 62
     7
176
     1
 90
        3
176
     1
 90
        0
176
     1
 90
        0
176
     1
290
     0
176
     1
 90
        1
176
     1
 40
0.0
176
     1
 90
        0
176
     1
290
     0
176
     1
290
     1
176
     1
290
     1
176
     1
290
     0
176
     1
290
     0
176
     1
290
     0
176
     1
290
     0
176
     1
290
     0
176
     1
290
     0
176
     1
 90
       50
176
     1
 40
0.0
176
     1
 40
1.0
176
     1
 90
        0
176
     1
 62
    18
420
        0
176
     1
 90
       50
176
     1
 90
        3
176
     1
 62
     5
420
      255
176
     1
290
     0
176
     1
 90
       50
176
     1
 90
       50
176
     1
 90
       50
176
     1
290
     0
176
     1
 90
       50
176
     1
 62
   256
176
     0
 40
1.0
176
     0
 90
        2
176
     1
  1
strokes_ogs.tif
176
     1
290
     0
176
     1
 40
1.0
176
     1
 40
1.0
176
     1
  0
VISUALSTYLE
  5
3C
102
{ACAD_REACTORS
330
29
102
}
330
29
100
AcDbVisualStyle
  2
X-Ray
 70
    25
177
     3
291
     0
 70
    58
 90
        2
176
     1
 90
        2
176
     1
 90
        1
176
     1
 90
        1
176
     1
 40
0.5
176
     1
 40
30.0
176
     1
 62
     7
420
 16777215
176
     1
 90
        1
176
     1
 90
        0
176
     1
 62
     7
176
     1
 62
   257
176
     1
 90
        1
176
     1
 90
        1
176
     1
 40
1.0
176
     1
 90
        8
176
     1
 62
     7
176
     1
 40
1.0
176
     1
 90
        1
176
     1
 90
        6
176
     1
 90
        2
176
     1
 62
     7
176
     1
 90
        3
176
     1
 90
        0
176
     1
 90
        0
176
     1
290
     0
176
     1
 90
       13
176
     1
 40
0.0
176
     1
 90
        0
176
     1
290
     0
176
     1
290
     1
176
     1
290
     1
176
     1
290
     0
176
     1
290
     0
176
     1
290
     0
176
     1
290
     0
176
     1
290
     0
176
     1
290
     0
176
     1
 90
       50
176
     1
 40
0.0
176
     1
 40
1.0
176
     1
 90
        0
176
     1
 62
    18
420
        0
176
     1
 90
       50
176
     1
 90
        3
176
     1
 62
     5
420
      255
176
     1
290
     0
176
     1
 90
       50
176
     1
 90
       50
176
     1
 90
       50
176
     1
290
     0
176
     1
 90
       50
176
     1
 62
   256
176
     0
 40
1.0
176
     0
 90
        2
176
     1
  1
strokes_ogs.tif
176
     1
290
     0
176
     1
 40
1.0
176
     1
 40
1.0
176
     1
  0
DICTIONARYVAR
  5
387
102
{ACAD_REACTORS
330
382
102
}
330
382
100
DictionaryVariables
280
     0
  1
1:1
  0
DICTIONARYVAR
  5
384
102
{ACAD_REACTORS
330
382
102
}
330
382
100
DictionaryVariables
280
     0
  1
STANDARD
  0
DICTIONARYVAR
  5
383
102
{ACAD_REACTORS
330
382
102
}
330
382
100
DictionaryVariables
280
     0
  1
STANDARD
  0
DICTIONARYVAR
  5
385
102
{ACAD_REACTORS
330
382
102
}
330
382
100
DictionaryVariables
280
     0
  1
Imperial24
  0
DICTIONARYVAR
  5
386
102
{ACAD_REACTORS
330
382
102
}
330
382
100
DictionaryVariables
280
     0
  1
Imperial24
  0
DICTIONARY
  5
1A
330
19
100
AcDbDictionary
280
     1
281
     1
  3
BUMPTILE
360
1C
  3
DIFFUSETILE
360
1B
  3
OPACITYTILE
360
1F
  3
REFLECTIONTILE
360
1E
  3
REFRACTIONTILE
360
20
  3
SPECULARTILE
360
1D
  0
DICTIONARY
  5
12
330
11
100
AcDbDictionary
280
     1
281
     1
  3
BUMPTILE
360
14
  3
DIFFUSETILE
360
13
  3
OPACITYTILE
360
17
  3
REFLECTIONTILE
360
16
  3
REFRACTIONTILE
360
18
  3
SPECULARTILE
360
15
  0
DICTIONARY
  5
22
330
21
100
AcDbDictionary
280
     1
281
     1
  3
BUMPTILE
360
24
  3
DIFFUSETILE
360
23
  3
OPACITYTILE
360
27
  3
REFLECTIONTILE
360
26
  3
REFRACTIONTILE
360
28
  3
SPECULARTILE
360
25
  0
DICTIONARY
  5
388
330
65
100
AcDbDictionary
280
     1
281
     1
  3
ACAD_ROUNDTRIP_2008_TABLESTYLE_CELLSTYLEMAP
360
389
  0
XRECORD
  5
1C
102
{ACAD_REACTORS
330
1A
102
}
330
1A
100
AcDbXrecord
280
     1
270
     1
271
     1
  0
XRECORD
  5
1B
102
{ACAD_REACTORS
330
1A
102
}
330
1A
100
AcDbXrecord
280
     1
270
     1
271
     1
  0
XRECORD
  5
1F
102
{ACAD_REACTORS
330
1A
102
}
330
1A
100
AcDbXrecord
280
     1
270
     1
271
     1
  0
XRECORD
  5
1E
102
{ACAD_REACTORS
330
1A
102
}
330
1A
100
AcDbXrecord
280
     1
270
     1
271
     1
  0
XRECORD
  5
20
102
{ACAD_REACTORS
330
1A
102
}
330
1A
100
AcDbXrecord
280
     1
270
     1
271
     1
  0
XRECORD
  5
1D
102
{ACAD_REACTORS
330
1A
102
}
330
1A
100
AcDbXrecord
280
     1
270
     1
271
     1
  0
XRECORD
  5
14
102
{ACAD_REACTORS
330
12
102
}
330
12
100
AcDbXrecord
280
     1
270
     1
271
     1
  0
XRECORD
  5
13
102
{ACAD_REACTORS
330
12
102
}
330
12
100
AcDbXrecord
280
     1
270
     1
271
     1
  0
XRECORD
  5
17
102
{ACAD_REACTORS
330
12
102
}
330
12
100
AcDbXrecord
280
     1
270
     1
271
     1
  0
XRECORD
  5
16
102
{ACAD_REACTORS
330
12
102
}
330
12
100
AcDbXrecord
280
     1
270
     1
271
     1
  0
XRECORD
  5
18
102
{ACAD_REACTORS
330
12
102
}
330
12
100
AcDbXrecord
280
     1
270
     1
271
     1
  0
XRECORD
  5
15
102
{ACAD_REACTORS
330
12
102
}
330
12
100
AcDbXrecord
280
     1
270
     1
271
     1
  0
XRECORD
  5
24
102
{ACAD_REACTORS
330
22
102
}
330
22
100
AcDbXrecord
280
     1
270
     1
271
     1
  0
XRECORD
  5
23
102
{ACAD_REACTORS
330
22
102
}
330
22
100
AcDbXrecord
280
     1
270
     1
271
     1
  0
XRECORD
  5
27
102
{ACAD_REACTORS
330
22
102
}
330
22
100
AcDbXrecord
280
     1
270
     1
271
     1
  0
XRECORD
  5
26
102
{ACAD_REACTORS
330
22
102
}
330
22
100
AcDbXrecord
280
     1
270
     1
271
     1
  0
XRECORD
  5
28
102
{ACAD_REACTORS
330
22
102
}
330
22
100
AcDbXrecord
280
     1
270
     1
271
     1
  0
XRECORD
  5
25
102
{ACAD_REACTORS
330
22
102
}
330
22
100
AcDbXrecord
280
     1
270
     1
271
     1
  0
CELLSTYLEMAP
  5
389
102
{ACAD_REACTORS
330
388
102
}
330
388
100
AcDbCellStyleMap
 90
        3
300
CELLSTYLE
  1
TABLEFORMAT_BEGIN
 90
        5
170
     1
 91
        0
 92
    32768
 62
   257
 93
        1
300
CONTENTFORMAT
  1
CONTENTFORMAT_BEGIN
 90
        0
 91
        0
 92
      512
 93
        0
300

 40
0.0
140
1.0
 94
        5
 62
     0
340
55
144
0.25
309
CONTENTFORMAT_END
171
     0
 94
        0
309
TABLEFORMAT_END
  1
CELLSTYLE_BEGIN
 90
        1
 91
        1
300
_TITLE
309
CELLSTYLE_END
300
CELLSTYLE
  1
TABLEFORMAT_BEGIN
 90
        5
170
     1
 91
        0
 92
        0
 62
   257
 93
        1
300
CONTENTFORMAT
  1
CONTENTFORMAT_BEGIN
 90
        0
 91
        0
 92
      512
 93
        0
300

 40
0.0
140
1.0
 94
        5
 62
     0
340
55
144
0.18
309
CONTENTFORMAT_END
171
     0
 94
        0
309
TABLEFORMAT_END
  1
CELLSTYLE_BEGIN
 90
        2
 91
        1
300
_HEADER
309
CELLSTYLE_END
300
CELLSTYLE
  1
TABLEFORMAT_BEGIN
 90
        5
170
     1
 91
        0
 92
        0
 62
   257
 93
        1
300
CONTENTFORMAT
  1
CONTENTFORMAT_BEGIN
 90
        0
 91
        0
 92
      512
 93
        0
300

 40
0.0
140
1.0
 94
        2
 62
     0
340
55
144
0.18
309
CONTENTFORMAT_END
171
     0
 94
        0
309
TABLEFORMAT_END
  1
CELLSTYLE_BEGIN
 90
        3
 91
        2
300
_DATA
309
CELLSTYLE_END
  0
ENDSEC
  0
EOF
